  0
SECTION
  2
HEADER
  9
$ACADVER
  1
AC1021
  9
$ACADMAINTVER
 70
    25
  9
$DWGCODEPAGE
  3
ANSI_1251
  9
$INSBASE
 10
0.0
 20
0.0
 30
0.0
  9
$EXTMIN
 10
1.000000000000000E+20
 20
1.000000000000000E+20
 30
1.000000000000000E+20
  9
$EXTMAX
 10
-1.000000000000000E+20
 20
-1.000000000000000E+20
 30
-1.000000000000000E+20
  9
$LIMMIN
 10
0.0
 20
0.0
  9
$LIMMAX
 10
420.0
 20
297.0
  9
$ORTHOMODE
 70
     0
  9
$REGENMODE
 70
     1
  9
$FILLMODE
 70
     1
  9
$QTEXTMODE
 70
     0
  9
$MIRRTEXT
 70
     1
  9
$LTSCALE
 40
1.0
  9
$ATTMODE
 70
     1
  9
$TEXTSIZE
 40
2.5
  9
$TRACEWID
 40
1.0
  9
$TEXTSTYLE
  7
Standard
  9
$CLAYER
  8
0
  9
$CELTYPE
  6
ByLayer
  9
$CECOLOR
 62
   256
  9
$CELTSCALE
 40
1.0
  9
$DISPSILH
 70
     0
  9
$DIMSCALE
 40
1.0
  9
$DIMASZ
 40
2.5
  9
$DIMEXO
 40
0.625
  9
$DIMDLI
 40
3.75
  9
$DIMRND
 40
0.0
  9
$DIMDLE
 40
0.0
  9
$DIMEXE
 40
1.25
  9
$DIMTP
 40
0.0
  9
$DIMTM
 40
0.0
  9
$DIMTXT
 40
2.5
  9
$DIMCEN
 40
2.5
  9
$DIMTSZ
 40
0.0
  9
$DIMTOL
 70
     0
  9
$DIMLIM
 70
     0
  9
$DIMTIH
 70
     0
  9
$DIMTOH
 70
     0
  9
$DIMSE1
 70
     0
  9
$DIMSE2
 70
     0
  9
$DIMTAD
 70
     1
  9
$DIMZIN
 70
     8
  9
$DIMBLK
  1

  9
$DIMASO
 70
     1
  9
$DIMSHO
 70
     1
  9
$DIMPOST
  1

  9
$DIMAPOST
  1

  9
$DIMALT
 70
     0
  9
$DIMALTD
 70
     3
  9
$DIMALTF
 40
0.03937007874016
  9
$DIMLFAC
 40
1.0
  9
$DIMTOFL
 70
     1
  9
$DIMTVP
 40
0.0
  9
$DIMTIX
 70
     0
  9
$DIMSOXD
 70
     0
  9
$DIMSAH
 70
     0
  9
$DIMBLK1
  1

  9
$DIMBLK2
  1

  9
$DIMSTYLE
  2
ISO-25
  9
$DIMCLRD
 70
     0
  9
$DIMCLRE
 70
     0
  9
$DIMCLRT
 70
     0
  9
$DIMTFAC
 40
1.0
  9
$DIMGAP
 40
0.625
  9
$DIMJUST
 70
     0
  9
$DIMSD1
 70
     0
  9
$DIMSD2
 70
     0
  9
$DIMTOLJ
 70
     0
  9
$DIMTZIN
 70
     8
  9
$DIMALTZ
 70
     0
  9
$DIMALTTZ
 70
     0
  9
$DIMUPT
 70
     0
  9
$DIMDEC
 70
     2
  9
$DIMTDEC
 70
     2
  9
$DIMALTU
 70
     2
  9
$DIMALTTD
 70
     3
  9
$DIMTXSTY
  7
Standard
  9
$DIMAUNIT
 70
     0
  9
$DIMADEC
 70
     0
  9
$DIMALTRND
 40
0.0
  9
$DIMAZIN
 70
     0
  9
$DIMDSEP
 70
    44
  9
$DIMATFIT
 70
     3
  9
$DIMFRAC
 70
     0
  9
$DIMLDRBLK
  1

  9
$DIMLUNIT
 70
     2
  9
$DIMLWD
 70
    -2
  9
$DIMLWE
 70
    -2
  9
$DIMTMOVE
 70
     0
  9
$DIMFXL
 40
1.0
  9
$DIMFXLON
 70
     0
  9
$DIMJOGANG
 40
0.7853981633974483
  9
$DIMTFILL
 70
     0
  9
$DIMTFILLCLR
 70
     0
  9
$DIMARCSYM
 70
     0
  9
$DIMLTYPE
  6

  9
$DIMLTEX1
  6

  9
$DIMLTEX2
  6

  9
$LUNITS
 70
     2
  9
$LUPREC
 70
     4
  9
$SKETCHINC
 40
1.0
  9
$FILLETRAD
 40
10.0
  9
$AUNITS
 70
     0
  9
$AUPREC
 70
     0
  9
$MENU
  1
.
  9
$ELEVATION
 40
0.0
  9
$PELEVATION
 40
0.0
  9
$THICKNESS
 40
0.0
  9
$LIMCHECK
 70
     0
  9
$CHAMFERA
 40
10.0
  9
$CHAMFERB
 40
10.0
  9
$CHAMFERC
 40
20.0
  9
$CHAMFERD
 40
0.0
  9
$SKPOLY
 70
     0
  9
$TDCREATE
 40
2456702.48879397
  9
$TDUCREATE
 40
2456702.322127303
  9
$TDUPDATE
 40
2456702.488797604
  9
$TDUUPDATE
 40
2456702.322130938
  9
$TDINDWG
 40
0.0000000116
  9
$TDUSRTIMER
 40
0.0000000116
  9
$USRTIMER
 70
     1
  9
$ANGBASE
 50
0.0
  9
$ANGDIR
 70
     0
  9
$PDMODE
 70
     0
  9
$PDSIZE
 40
0.0
  9
$PLINEWID
 40
0.0
  9
$SPLFRAME
 70
     0
  9
$SPLINETYPE
 70
     6
  9
$SPLINESEGS
 70
     8
  9
$HANDSEED
  5
339
  9
$SURFTAB1
 70
     6
  9
$SURFTAB2
 70
     6
  9
$SURFTYPE
 70
     6
  9
$SURFU
 70
     6
  9
$SURFV
 70
     6
  9
$UCSBASE
  2

  9
$UCSNAME
  2

  9
$UCSORG
 10
0.0
 20
0.0
 30
0.0
  9
$UCSXDIR
 10
1.0
 20
0.0
 30
0.0
  9
$UCSYDIR
 10
0.0
 20
1.0
 30
0.0
  9
$UCSORTHOREF
  2

  9
$UCSORTHOVIEW
 70
     0
  9
$UCSORGTOP
 10
0.0
 20
0.0
 30
0.0
  9
$UCSORGBOTTOM
 10
0.0
 20
0.0
 30
0.0
  9
$UCSORGLEFT
 10
0.0
 20
0.0
 30
0.0
  9
$UCSORGRIGHT
 10
0.0
 20
0.0
 30
0.0
  9
$UCSORGFRONT
 10
0.0
 20
0.0
 30
0.0
  9
$UCSORGBACK
 10
0.0
 20
0.0
 30
0.0
  9
$PUCSBASE
  2

  9
$PUCSNAME
  2

  9
$PUCSORG
 10
0.0
 20
0.0
 30
0.0
  9
$PUCSXDIR
 10
1.0
 20
0.0
 30
0.0
  9
$PUCSYDIR
 10
0.0
 20
1.0
 30
0.0
  9
$PUCSORTHOREF
  2

  9
$PUCSORTHOVIEW
 70
     0
  9
$PUCSORGTOP
 10
0.0
 20
0.0
 30
0.0
  9
$PUCSORGBOTTOM
 10
0.0
 20
0.0
 30
0.0
  9
$PUCSORGLEFT
 10
0.0
 20
0.0
 30
0.0
  9
$PUCSORGRIGHT
 10
0.0
 20
0.0
 30
0.0
  9
$PUCSORGFRONT
 10
0.0
 20
0.0
 30
0.0
  9
$PUCSORGBACK
 10
0.0
 20
0.0
 30
0.0
  9
$USERI1
 70
     0
  9
$USERI2
 70
     0
  9
$USERI3
 70
     0
  9
$USERI4
 70
     0
  9
$USERI5
 70
     0
  9
$USERR1
 40
0.0
  9
$USERR2
 40
0.0
  9
$USERR3
 40
0.0
  9
$USERR4
 40
0.0
  9
$USERR5
 40
0.0
  9
$WORLDVIEW
 70
     1
  9
$SHADEDGE
 70
     3
  9
$SHADEDIF
 70
    70
  9
$TILEMODE
 70
     1
  9
$MAXACTVP
 70
    64
  9
$PINSBASE
 10
0.0
 20
0.0
 30
0.0
  9
$PLIMCHECK
 70
     0
  9
$PEXTMIN
 10
1.000000000000000E+20
 20
1.000000000000000E+20
 30
1.000000000000000E+20
  9
$PEXTMAX
 10
-1.000000000000000E+20
 20
-1.000000000000000E+20
 30
-1.000000000000000E+20
  9
$PLIMMIN
 10
0.0
 20
0.0
  9
$PLIMMAX
 10
420.0
 20
297.0
  9
$UNITMODE
 70
     0
  9
$VISRETAIN
 70
     1
  9
$PLINEGEN
 70
     0
  9
$PSLTSCALE
 70
     1
  9
$TREEDEPTH
 70
  3020
  9
$CMLSTYLE
  2
Standard
  9
$CMLJUST
 70
     0
  9
$CMLSCALE
 40
20.0
  9
$PROXYGRAPHICS
 70
     1
  9
$MEASUREMENT
 70
     1
  9
$CELWEIGHT
370
    -1
  9
$ENDCAPS
280
     0
  9
$JOINSTYLE
280
     0
  9
$LWDISPLAY
290
     0
  9
$INSUNITS
 70
     4
  9
$HYPERLINKBASE
  1

  9
$STYLESHEET
  1

  9
$XEDIT
290
     1
  9
$CEPSNTYPE
380
     0
  9
$PSTYLEMODE
290
     1
  9
$FINGERPRINTGUID
  2
{494E62DC-3D93-499F-BC84-675B612763E9}
  9
$VERSIONGUID
  2
{FAEB1C32-E019-11D5-929B-00C0DF256EC4}
  9
$EXTNAMES
290
     1
  9
$PSVPSCALE
 40
0.0
  9
$OLESTARTUP
290
     0
  9
$SORTENTS
280
   127
  9
$INDEXCTL
280
     0
  9
$HIDETEXT
280
     1
  9
$XCLIPFRAME
290
     0
  9
$HALOGAP
280
     0
  9
$OBSCOLOR
 70
   257
  9
$OBSLTYPE
280
     0
  9
$INTERSECTIONDISPLAY
280
     0
  9
$INTERSECTIONCOLOR
 70
   257
  9
$DIMASSOC
280
     2
  9
$PROJECTNAME
  1

  9
$CAMERADISPLAY
290
     0
  9
$LENSLENGTH
 40
50.0
  9
$CAMERAHEIGHT
 40
0.0
  9
$STEPSPERSEC
 40
2.0
  9
$STEPSIZE
 40
6.0
  9
$3DDWFPREC
 40
2.0
  9
$PSOLWIDTH
 40
5.0
  9
$PSOLHEIGHT
 40
80.0
  9
$LOFTANG1
 40
1.570796326794897
  9
$LOFTANG2
 40
1.570796326794897
  9
$LOFTMAG1
 40
0.0
  9
$LOFTMAG2
 40
0.0
  9
$LOFTPARAM
 70
     7
  9
$LOFTNORMALS
280
     1
  9
$LATITUDE
 40
37.795
  9
$LONGITUDE
 40
-122.394
  9
$NORTHDIRECTION
 40
0.0
  9
$TIMEZONE
 70
 -8000
  9
$LIGHTGLYPHDISPLAY
280
     1
  9
$TILEMODELIGHTSYNCH
280
     1
  9
$SOLIDHIST
280
     1
  9
$SHOWHIST
280
     1
  9
$DWFFRAME
280
     2
  9
$DGNFRAME
280
     2
  9
$REALWORLDSCALE
290
     1
  9
$INTERFERECOLOR
 62
   256
  9
$CSHADOW
280
     0
  9
$SHADOWPLANELOCATION
 40
0.0
  0
ENDSEC
  0
SECTION
  2
CLASSES
  0
CLASS
  1
ACDBDICTIONARYWDFLT
  2
AcDbDictionaryWithDefault
  3
ObjectDBX Classes
 90
        0
 91
        4
280
     0
281
     0
  0
CLASS
  1
VISUALSTYLE
  2
AcDbVisualStyle
  3
ObjectDBX Classes
 90
     4095
 91
        4
280
     0
281
     0
  0
CLASS
  1
MATERIAL
  2
AcDbMaterial
  3
ObjectDBX Classes
 90
     1153
 91
        4
280
     0
281
     0
  0
CLASS
  1
SCALE
  2
AcDbScale
  3
ObjectDBX Classes
 90
     1153
 91
        4
280
     0
281
     0
  0
CLASS
  1
DICTIONARYVAR
  2
AcDbDictionaryVar
  3
ObjectDBX Classes
 90
        0
 91
        4
280
     0
281
     0
  0
ENDSEC
  0
SECTION
  2
TABLES
  0
TABLE
  2
VPORT
  5
8
330
0
100
AcDbSymbolTable
 70
     1
  0
VPORT
  5
29
330
8
100
AcDbSymbolTableRecord
100
AcDbViewportTableRecord
  2
*Active
 70
     0
 10
0.0
 20
0.0
 11
1.0
 21
1.0
 12
100.0008377884831
 22
167.4434400351663
 13
0.0
 23
0.0
 14
10.0
 24
10.0
 15
10.0
 25
10.0
 16
0.0
 26
0.0
 36
1.0
 17
0.0
 27
0.0
 37
0.0
 40
321.8233019215233
 41
0.9218359815385803
 42
50.0
 43
0.0
 44
0.0
 50
0.0
 51
0.0
 71
     0
 72
   100
 73
     1
 74
     3
 75
     0
 76
     0
 77
     0
 78
     0
281
     0
 65
     1
110
0.0
120
0.0
130
0.0
111
1.0
121
0.0
131
0.0
112
0.0
122
1.0
132
0.0
 79
     0
146
0.0
 60
     3
 61
     5
292
     1
282
     1
141
0.0
142
0.0
 63
   250
  0
ENDTAB
  0
TABLE
  2
LTYPE
  5
5
330
0
100
AcDbSymbolTable
 70
     3
  0
LTYPE
  5
14
330
5
100
AcDbSymbolTableRecord
100
AcDbLinetypeTableRecord
  2
ByBlock
 70
     0
  3

 72
    65
 73
     0
 40
0.0
  0
LTYPE
  5
15
330
5
100
AcDbSymbolTableRecord
100
AcDbLinetypeTableRecord
  2
ByLayer
 70
     0
  3

 72
    65
 73
     0
 40
0.0
  0
LTYPE
  5
16
330
5
100
AcDbSymbolTableRecord
100
AcDbLinetypeTableRecord
  2
Continuous
 70
     0
  3
Solid line
 72
    65
 73
     0
 40
0.0
  0
LTYPE
  5
42
330
5
100
AcDbSymbolTableRecord
100
AcDbLinetypeTableRecord
  2
K5LT_THIN
 70
     0
  3

 72
    65
 73
     0
 40
0.0
  0
LTYPE
  5
A4
330
5
100
AcDbSymbolTableRecord
100
AcDbLinetypeTableRecord
  2
K5LT32768
 70
     0
  3

 72
    65
 73
     0
 40
0.0
  0
ENDTAB
  0
TABLE
  2
LAYER
  5
2
330
0
100
AcDbSymbolTable
 70
     2
  0
LAYER
  5
10
330
2
100
AcDbSymbolTableRecord
100
AcDbLayerTableRecord
  2
0
 70
     0
 62
     7
  6
Continuous
370
    -3
390
F
347
3E
  0
LAYER
  5
40
330
2
100
AcDbSymbolTableRecord
100
AcDbLayerTableRecord
  2
0 (1)
 70
     0
 62
     7
  6
Continuous
370
    -3
390
F
347
3E
  0
ENDTAB
  0
TABLE
  2
STYLE
  5
3
330
0
100
AcDbSymbolTable
 70
     1
  0
STYLE
  5
11
330
3
100
AcDbSymbolTableRecord
100
AcDbTextStyleTableRecord
  2
Standard
 70
     0
 40
0.0
 41
1.0
 50
0.0
 71
     0
 42
2.5
  3
txt
  4

  0
ENDTAB
  0
TABLE
  2
VIEW
  5
6
330
0
100
AcDbSymbolTable
 70
     0
  0
ENDTAB
  0
TABLE
  2
UCS
  5
7
330
0
100
AcDbSymbolTable
 70
     0
  0
ENDTAB
  0
TABLE
  2
APPID
  5
9
330
0
100
AcDbSymbolTable
 70
     2
  0
APPID
  5
12
330
9
100
AcDbSymbolTableRecord
100
AcDbRegAppTableRecord
  2
ACAD
 70
     0
  0
APPID
  5
3F
330
9
100
AcDbSymbolTableRecord
100
AcDbRegAppTableRecord
  2
KOMPAS
 70
     0
  0
ENDTAB
  0
TABLE
  2
DIMSTYLE
  5
A
330
0
100
AcDbSymbolTable
 70
     1
100
AcDbDimStyleTable
  0
DIMSTYLE
105
27
330
A
100
AcDbSymbolTableRecord
100
AcDbDimStyleTableRecord
  2
ISO-25
 70
     0
 41
2.5
 42
0.625
 43
3.75
 44
1.25
 73
     0
 74
     0
 77
     1
 78
     8
140
2.5
141
2.5
143
0.03937007874016
147
0.625
171
     3
172
     1
178
     0
271
     2
272
     2
274
     3
278
    44
283
     0
284
     8
340
11
  0
ENDTAB
  0
TABLE
  2
BLOCK_RECORD
  5
1
330
0
100
AcDbSymbolTable
 70
    15
  0
BLOCK_RECORD
  5
1F
330
1
100
AcDbSymbolTableRecord
100
AcDbBlockTableRecord
  2
*Model_Space
340
22
 70
     0
280
     1
281
     0
  0
BLOCK_RECORD
  5
1B
330
1
100
AcDbSymbolTableRecord
100
AcDbBlockTableRecord
  2
*Paper_Space
340
1E
 70
     0
280
     1
281
     0
  0
BLOCK_RECORD
  5
23
330
1
100
AcDbSymbolTableRecord
100
AcDbBlockTableRecord
  2
*Paper_Space0
340
26
 70
     0
280
     1
281
     0
  0
BLOCK_RECORD
  5
41
330
1
100
AcDbSymbolTableRecord
100
AcDbBlockTableRecord
  2
KDIMARROW_00
340
0
 70
     0
280
     1
281
     0
  0
BLOCK_RECORD
  5
46
330
1
100
AcDbSymbolTableRecord
100
AcDbBlockTableRecord
  2
KDIMARROW_01
340
0
 70
     0
280
     1
281
     0
  0
BLOCK_RECORD
  5
4F
330
1
100
AcDbSymbolTableRecord
100
AcDbBlockTableRecord
  2
KDIMARROW_02
340
0
 70
     0
280
     1
281
     0
  0
BLOCK_RECORD
  5
59
330
1
100
AcDbSymbolTableRecord
100
AcDbBlockTableRecord
  2
KDIMARROW_03
340
0
 70
     0
280
     1
281
     0
  0
BLOCK_RECORD
  5
5F
330
1
100
AcDbSymbolTableRecord
100
AcDbBlockTableRecord
  2
KDIMARROW_04
340
0
 70
     0
280
     1
281
     0
  0
BLOCK_RECORD
  5
65
330
1
100
AcDbSymbolTableRecord
100
AcDbBlockTableRecord
  2
KDIMARROW_05
340
0
 70
     0
280
     1
281
     0
  0
BLOCK_RECORD
  5
6E
330
1
100
AcDbSymbolTableRecord
100
AcDbBlockTableRecord
  2
KDIMARROW_06
340
0
 70
     0
280
     1
281
     0
  0
BLOCK_RECORD
  5
78
330
1
100
AcDbSymbolTableRecord
100
AcDbBlockTableRecord
  2
KDIMARROW_07
340
0
 70
     0
280
     1
281
     0
  0
BLOCK_RECORD
  5
7E
330
1
100
AcDbSymbolTableRecord
100
AcDbBlockTableRecord
  2
KDIMARROW_08
340
0
 70
     0
280
     1
281
     0
  0
BLOCK_RECORD
  5
85
330
1
100
AcDbSymbolTableRecord
100
AcDbBlockTableRecord
  2
KDIMARROW_09
340
0
 70
     0
280
     1
281
     0
  0
BLOCK_RECORD
  5
8B
330
1
100
AcDbSymbolTableRecord
100
AcDbBlockTableRecord
  2
KDIMARROW_10
340
0
 70
     0
280
     1
281
     0
  0
BLOCK_RECORD
  5
92
330
1
100
AcDbSymbolTableRecord
100
AcDbBlockTableRecord
  2
KDIMARROW_11
340
0
 70
     0
280
     1
281
     0
  0
BLOCK_RECORD
  5
98
330
1
100
AcDbSymbolTableRecord
100
AcDbBlockTableRecord
  2
KDIMARROW_12
340
0
 70
     0
280
     1
281
     0
  0
BLOCK_RECORD
  5
9E
330
1
100
AcDbSymbolTableRecord
100
AcDbBlockTableRecord
  2
KDIMARROW_13
340
0
 70
     0
280
     1
281
     0
  0
ENDTAB
  0
ENDSEC
  0
SECTION
  2
BLOCKS
  0
BLOCK
  5
20
330
1F
100
AcDbEntity
  8
0
100
AcDbBlockBegin
  2
*Model_Space
 70
     0
 10
0.0
 20
0.0
 30
0.0
  3
*Model_Space
  1

  0
ENDBLK
  5
21
330
1F
100
AcDbEntity
  8
0
100
AcDbBlockEnd
  0
BLOCK
  5
1C
330
1B
100
AcDbEntity
 67
     1
  8
0
100
AcDbBlockBegin
  2
*Paper_Space
 70
     0
 10
0.0
 20
0.0
 30
0.0
  3
*Paper_Space
  1

  0
ENDBLK
  5
1D
330
1B
100
AcDbEntity
 67
     1
  8
0
100
AcDbBlockEnd
  0
BLOCK
  5
24
330
23
100
AcDbEntity
  8
0
100
AcDbBlockBegin
  2
*Paper_Space0
 70
     0
 10
0.0
 20
0.0
 30
0.0
  3
*Paper_Space0
  1

  0
ENDBLK
  5
25
330
23
100
AcDbEntity
  8
0
100
AcDbBlockEnd
  0
BLOCK
  5
44
330
41
100
AcDbEntity
  8
0
100
AcDbBlockBegin
  2
KDIMARROW_00
 70
     0
 10
0.0
 20
0.0
 30
0.0
  3
KDIMARROW_00
  1

  0
LINE
  5
43
330
41
100
AcDbEntity
  8
0
  6
K5LT_THIN
 62
     0
370
    18
100
AcDbLine
 10
0.0
 20
0.0
 30
0.0
 11
-1.0
 21
0.0
 31
0.0
  0
ENDBLK
  5
45
330
41
100
AcDbEntity
  8
0
100
AcDbBlockEnd
  0
BLOCK
  5
4D
330
46
100
AcDbEntity
  8
0
100
AcDbBlockBegin
  2
KDIMARROW_01
 70
     0
 10
0.0
 20
0.0
 30
0.0
  3
KDIMARROW_01
  1

  0
LINE
  5
47
330
46
100
AcDbEntity
  8
0
  6
K5LT_THIN
 62
     0
370
    18
100
AcDbLine
 10
0.0
 20
0.0
 30
0.0
 11
-5.0
 21
-0.6582624912261956
 31
0.0
  0
LINE
  5
48
330
46
100
AcDbEntity
  8
0
  6
K5LT_THIN
 62
     0
370
    18
100
AcDbLine
 10
-5.0
 20
-0.6582624912261956
 30
0.0
 11
-4.5
 21
0.0000000000000006
 31
0.0
  0
LINE
  5
49
330
46
100
AcDbEntity
  8
0
  6
K5LT_THIN
 62
     0
370
    18
100
AcDbLine
 10
-4.5
 20
0.0000000000000006
 30
0.0
 11
-5.0
 21
0.658262491226197
 31
0.0
  0
LINE
  5
4A
330
46
100
AcDbEntity
  8
0
  6
K5LT_THIN
 62
     0
370
    18
100
AcDbLine
 10
-5.0
 20
0.658262491226197
 30
0.0
 11
0.0
 21
0.0
 31
0.0
  0
HATCH
  5
4B
330
46
100
AcDbEntity
  8
0
 62
     0
100
AcDbHatch
 10
0.0
 20
0.0
 30
0.0
210
0.0
220
0.0
230
1.0
  2
SOLID
 70
     1
 71
     0
 91
        1
 92
        1
 93
        4
 72
     1
 10
0.0
 20
0.0
 11
-5.0
 21
0.658262491226197
 72
     1
 10
-5.0
 20
0.658262491226197
 11
-4.5
 21
0.0000000000000006
 72
     1
 10
-4.5
 20
0.0000000000000006
 11
-5.0
 21
-0.6582624912261956
 72
     1
 10
-5.0
 20
-0.6582624912261956
 11
0.0
 21
0.0
 97
        0
 75
     0
 76
     1
 98
        0
  0
LINE
  5
4C
330
46
100
AcDbEntity
  8
0
  6
K5LT_THIN
 62
     0
370
    18
100
AcDbLine
 10
0.0
 20
0.0
 30
0.0
 11
-1.0
 21
0.0
 31
0.0
  0
ENDBLK
  5
4E
330
46
100
AcDbEntity
  8
0
100
AcDbBlockEnd
  0
BLOCK
  5
57
330
4F
100
AcDbEntity
  8
0
100
AcDbBlockBegin
  2
KDIMARROW_02
 70
     0
 10
0.0
 20
0.0
 30
0.0
  3
KDIMARROW_02
  1

  0
LINE
  5
50
330
4F
100
AcDbEntity
  8
0
  6
K5LT_THIN
 62
     0
370
    18
100
AcDbLine
 10
0.0
 20
0.0
 30
0.0
 11
5.0
 21
-0.658262491226197
 31
0.0
  0
LINE
  5
51
330
4F
100
AcDbEntity
  8
0
  6
K5LT_THIN
 62
     0
370
    18
100
AcDbLine
 10
5.0
 20
-0.658262491226197
 30
0.0
 11
4.5
 21
-0.0000000000000006
 31
0.0
  0
LINE
  5
52
330
4F
100
AcDbEntity
  8
0
  6
K5LT_THIN
 62
     0
370
    18
100
AcDbLine
 10
4.5
 20
-0.0000000000000006
 30
0.0
 11
5.0
 21
0.6582624912261956
 31
0.0
  0
LINE
  5
53
330
4F
100
AcDbEntity
  8
0
  6
K5LT_THIN
 62
     0
370
    18
100
AcDbLine
 10
5.0
 20
0.6582624912261956
 30
0.0
 11
0.0
 21
0.0
 31
0.0
  0
LINE
  5
54
330
4F
100
AcDbEntity
  8
0
  6
K5LT_THIN
 62
     0
370
    18
100
AcDbLine
 10
0.0
 20
0.0
 30
0.0
 11
7.0
 21
-0.0000000000000009
 31
0.0
  0
HATCH
  5
55
330
4F
100
AcDbEntity
  8
0
 62
     0
100
AcDbHatch
 10
0.0
 20
0.0
 30
0.0
210
0.0
220
0.0
230
1.0
  2
SOLID
 70
     1
 71
     0
 91
        1
 92
        1
 93
        4
 72
     1
 10
4.5
 20
-0.0000000000000006
 11
5.0
 21
0.6582624912261956
 72
     1
 10
5.0
 20
0.6582624912261956
 11
0.0
 21
0.0
 72
     1
 10
0.0
 20
0.0
 11
5.0
 21
-0.658262491226197
 72
     1
 10
5.0
 20
-0.658262491226197
 11
4.5
 21
-0.0000000000000006
 97
        0
 75
     0
 76
     1
 98
        0
  0
LINE
  5
56
330
4F
100
AcDbEntity
  8
0
  6
K5LT_THIN
 62
     0
370
    18
100
AcDbLine
 10
0.0
 20
0.0
 30
0.0
 11
-1.0
 21
0.0
 31
0.0
  0
ENDBLK
  5
58
330
4F
100
AcDbEntity
  8
0
100
AcDbBlockEnd
  0
BLOCK
  5
5D
330
59
100
AcDbEntity
  8
0
100
AcDbBlockBegin
  2
KDIMARROW_03
 70
     0
 10
0.0
 20
0.0
 30
0.0
  3
KDIMARROW_03
  1

  0
LINE
  5
5A
330
59
100
AcDbEntity
  8
0
  6
K5LT_THIN
 62
     0
370
    18
100
AcDbLine
 10
-1.060500025749207
 20
-1.060500025749206
 30
0.0
 11
1.060500025749207
 21
1.060500025749206
 31
0.0
  0
LINE
  5
5B
330
59
100
AcDbEntity
  8
0
  6
K5LT_THIN
 62
     0
370
    18
100
AcDbLine
 10
0.0
 20
0.0
 30
0.0
 11
2.0
 21
-0.0000000000000002
 31
0.0
  0
LINE
  5
5C
330
59
100
AcDbEntity
  8
0
  6
K5LT_THIN
 62
     0
370
    18
100
AcDbLine
 10
0.0
 20
0.0
 30
0.0
 11
-1.0
 21
0.0
 31
0.0
  0
ENDBLK
  5
5E
330
59
100
AcDbEntity
  8
0
100
AcDbBlockEnd
  0
BLOCK
  5
63
330
5F
100
AcDbEntity
  8
0
100
AcDbBlockBegin
  2
KDIMARROW_04
 70
     0
 10
0.0
 20
0.0
 30
0.0
  3
KDIMARROW_04
  1

  0
LWPOLYLINE
  5
60
330
5F
100
AcDbEntity
  8
0
  6
K5LT_THIN
 62
     7
100
AcDbPolyline
 90
       15
 70
     0
 43
0.18
 10
-0.25
 20
0.0
 10
0.0
 20
-0.25
 10
0.25
 20
0.0
 10
0.0
 20
0.25
 10
-0.25
 20
0.0
 10
-0.5
 20
0.0000000000000001
 10
-0.0000000000000001
 20
-0.5
 10
0.5
 20
-0.0000000000000001
 10
0.0000000000000001
 20
0.5
 10
-0.5
 20
0.0000000000000001
 10
-0.75
 20
0.0000000000000001
 10
-0.0000000000000001
 20
-0.75
 10
0.75
 20
-0.0000000000000001
 10
0.0000000000000001
 20
0.75
 10
-0.75
 20
0.0000000000000001
  0
LWPOLYLINE
  5
61
330
5F
100
AcDbEntity
  8
0
  6
K5LT_THIN
 62
     7
100
AcDbPolyline
 90
       15
 70
     0
 43
0.18
 10
-0.25
 20
0.0
 10
0.0
 20
-0.25
 10
0.25
 20
0.0
 10
0.0
 20
0.25
 10
-0.25
 20
0.0
 10
-0.5
 20
0.0000000000000001
 10
-0.0000000000000001
 20
-0.5
 10
0.5
 20
-0.0000000000000001
 10
0.0000000000000001
 20
0.5
 10
-0.5
 20
0.0000000000000001
 10
-0.75
 20
0.0000000000000001
 10
-0.0000000000000001
 20
-0.75
 10
0.75
 20
-0.0000000000000001
 10
0.0000000000000001
 20
0.75
 10
-0.75
 20
0.0000000000000001
  0
LINE
  5
62
330
5F
100
AcDbEntity
  8
0
  6
K5LT_THIN
 62
     0
370
    18
100
AcDbLine
 10
0.0
 20
0.0
 30
0.0
 11
-1.0
 21
0.0
 31
0.0
  0
ENDBLK
  5
64
330
5F
100
AcDbEntity
  8
0
100
AcDbBlockEnd
  0
BLOCK
  5
6C
330
65
100
AcDbEntity
  8
0
100
AcDbBlockBegin
  2
KDIMARROW_05
 70
     0
 10
0.0
 20
0.0
 30
0.0
  3
KDIMARROW_05
  1

  0
LINE
  5
66
330
65
100
AcDbEntity
  8
0
  6
K5LT_THIN
 62
     0
370
    18
100
AcDbLine
 10
0.0
 20
0.0
 30
0.0
 11
-5.0
 21
-0.6582624912261956
 31
0.0
  0
LINE
  5
67
330
65
100
AcDbEntity
  8
0
  6
K5LT_THIN
 62
     0
370
    18
100
AcDbLine
 10
-5.0
 20
-0.6582624912261956
 30
0.0
 11
-5.0
 21
0.0000000000000006
 31
0.0
  0
LINE
  5
68
330
65
100
AcDbEntity
  8
0
  6
K5LT_THIN
 62
     0
370
    18
100
AcDbLine
 10
-5.0
 20
0.0000000000000006
 30
0.0
 11
-5.0
 21
0.658262491226197
 31
0.0
  0
LINE
  5
69
330
65
100
AcDbEntity
  8
0
  6
K5LT_THIN
 62
     0
370
    18
100
AcDbLine
 10
-5.0
 20
0.658262491226197
 30
0.0
 11
0.0
 21
0.0
 31
0.0
  0
HATCH
  5
6A
330
65
100
AcDbEntity
  8
0
 62
     0
100
AcDbHatch
 10
0.0
 20
0.0
 30
0.0
210
0.0
220
0.0
230
1.0
  2
SOLID
 70
     1
 71
     0
 91
        1
 92
        1
 93
        4
 72
     1
 10
0.0
 20
0.0
 11
-5.0
 21
0.658262491226197
 72
     1
 10
-5.0
 20
0.658262491226197
 11
-5.0
 21
0.0000000000000007
 72
     1
 10
-5.0
 20
0.0000000000000006
 11
-5.0
 21
-0.6582624912261956
 72
     1
 10
-5.0
 20
-0.6582624912261956
 11
0.0
 21
0.0
 97
        0
 75
     0
 76
     1
 98
        0
  0
LINE
  5
6B
330
65
100
AcDbEntity
  8
0
  6
K5LT_THIN
 62
     0
370
    18
100
AcDbLine
 10
0.0
 20
0.0
 30
0.0
 11
-1.0
 21
0.0
 31
0.0
  0
ENDBLK
  5
6D
330
65
100
AcDbEntity
  8
0
100
AcDbBlockEnd
  0
BLOCK
  5
76
330
6E
100
AcDbEntity
  8
0
100
AcDbBlockBegin
  2
KDIMARROW_06
 70
     0
 10
0.0
 20
0.0
 30
0.0
  3
KDIMARROW_06
  1

  0
LINE
  5
6F
330
6E
100
AcDbEntity
  8
0
  6
K5LT_THIN
 62
     0
370
    18
100
AcDbLine
 10
0.0
 20
0.0
 30
0.0
 11
5.0
 21
-0.658262491226197
 31
0.0
  0
LINE
  5
70
330
6E
100
AcDbEntity
  8
0
  6
K5LT_THIN
 62
     0
370
    18
100
AcDbLine
 10
5.0
 20
-0.658262491226197
 30
0.0
 11
5.0
 21
-0.0000000000000006
 31
0.0
  0
LINE
  5
71
330
6E
100
AcDbEntity
  8
0
  6
K5LT_THIN
 62
     0
370
    18
100
AcDbLine
 10
5.0
 20
-0.0000000000000006
 30
0.0
 11
5.0
 21
0.6582624912261956
 31
0.0
  0
LINE
  5
72
330
6E
100
AcDbEntity
  8
0
  6
K5LT_THIN
 62
     0
370
    18
100
AcDbLine
 10
5.0
 20
0.6582624912261956
 30
0.0
 11
0.0
 21
0.0
 31
0.0
  0
LINE
  5
73
330
6E
100
AcDbEntity
  8
0
  6
K5LT_THIN
 62
     0
370
    18
100
AcDbLine
 10
0.0
 20
0.0
 30
0.0
 11
7.0
 21
-0.0000000000000009
 31
0.0
  0
HATCH
  5
74
330
6E
100
AcDbEntity
  8
0
 62
     0
100
AcDbHatch
 10
0.0
 20
0.0
 30
0.0
210
0.0
220
0.0
230
1.0
  2
SOLID
 70
     1
 71
     0
 91
        1
 92
        1
 93
        4
 72
     1
 10
5.0
 20
-0.0000000000000006
 11
5.0
 21
0.6582624912261956
 72
     1
 10
5.0
 20
0.6582624912261956
 11
0.0
 21
0.0
 72
     1
 10
0.0
 20
0.0
 11
5.0
 21
-0.658262491226197
 72
     1
 10
5.0
 20
-0.658262491226197
 11
5.0
 21
-0.0000000000000007
 97
        0
 75
     0
 76
     1
 98
        0
  0
LINE
  5
75
330
6E
100
AcDbEntity
  8
0
  6
K5LT_THIN
 62
     0
370
    18
100
AcDbLine
 10
0.0
 20
0.0
 30
0.0
 11
-1.0
 21
0.0
 31
0.0
  0
ENDBLK
  5
77
330
6E
100
AcDbEntity
  8
0
100
AcDbBlockEnd
  0
BLOCK
  5
7C
330
78
100
AcDbEntity
  8
0
100
AcDbBlockBegin
  2
KDIMARROW_07
 70
     0
 10
0.0
 20
0.0
 30
0.0
  3
KDIMARROW_07
  1

  0
LINE
  5
79
330
78
100
AcDbEntity
  8
0
  6
K5LT_THIN
 62
     0
370
    18
100
AcDbLine
 10
0.0
 20
0.0
 30
0.0
 11
-5.0
 21
-0.6582624912261956
 31
0.0
  0
LINE
  5
7A
330
78
100
AcDbEntity
  8
0
  6
K5LT_THIN
 62
     0
370
    18
100
AcDbLine
 10
0.0
 20
0.0
 30
0.0
 11
-5.0
 21
0.658262491226197
 31
0.0
  0
LINE
  5
7B
330
78
100
AcDbEntity
  8
0
  6
K5LT_THIN
 62
     0
370
    18
100
AcDbLine
 10
0.0
 20
0.0
 30
0.0
 11
-1.0
 21
0.0
 31
0.0
  0
ENDBLK
  5
7D
330
78
100
AcDbEntity
  8
0
100
AcDbBlockEnd
  0
BLOCK
  5
83
330
7E
100
AcDbEntity
  8
0
100
AcDbBlockBegin
  2
KDIMARROW_08
 70
     0
 10
0.0
 20
0.0
 30
0.0
  3
KDIMARROW_08
  1

  0
LINE
  5
7F
330
7E
100
AcDbEntity
  8
0
  6
K5LT_THIN
 62
     0
370
    18
100
AcDbLine
 10
0.0
 20
0.0
 30
0.0
 11
5.0
 21
-0.658262491226197
 31
0.0
  0
LINE
  5
80
330
7E
100
AcDbEntity
  8
0
  6
K5LT_THIN
 62
     0
370
    18
100
AcDbLine
 10
0.0
 20
0.0
 30
0.0
 11
5.0
 21
0.6582624912261956
 31
0.0
  0
LINE
  5
81
330
7E
100
AcDbEntity
  8
0
  6
K5LT_THIN
 62
     0
370
    18
100
AcDbLine
 10
0.0
 20
0.0
 30
0.0
 11
7.0
 21
-0.0000000000000009
 31
0.0
  0
LINE
  5
82
330
7E
100
AcDbEntity
  8
0
  6
K5LT_THIN
 62
     0
370
    18
100
AcDbLine
 10
0.0
 20
0.0
 30
0.0
 11
-1.0
 21
0.0
 31
0.0
  0
ENDBLK
  5
84
330
7E
100
AcDbEntity
  8
0
100
AcDbBlockEnd
  0
BLOCK
  5
89
330
85
100
AcDbEntity
  8
0
100
AcDbBlockBegin
  2
KDIMARROW_09
 70
     0
 10
0.0
 20
0.0
 30
0.0
  3
KDIMARROW_09
  1

  0
LINE
  5
86
330
85
100
AcDbEntity
  8
0
  6
K5LT_THIN
 62
     0
370
    18
100
AcDbLine
 10
0.0
 20
0.0
 30
0.0
 11
-2.0
 21
-2.0
 31
0.0
  0
LINE
  5
87
330
85
100
AcDbEntity
  8
0
  6
K5LT_THIN
 62
     0
370
    18
100
AcDbLine
 10
0.0
 20
0.0
 30
0.0
 11
-2.0
 21
2.0
 31
0.0
  0
LINE
  5
88
330
85
100
AcDbEntity
  8
0
  6
K5LT_THIN
 62
     0
370
    18
100
AcDbLine
 10
0.0
 20
0.0
 30
0.0
 11
-1.0
 21
0.0
 31
0.0
  0
ENDBLK
  5
8A
330
85
100
AcDbEntity
  8
0
100
AcDbBlockEnd
  0
BLOCK
  5
90
330
8B
100
AcDbEntity
  8
0
100
AcDbBlockBegin
  2
KDIMARROW_10
 70
     0
 10
0.0
 20
0.0
 30
0.0
  3
KDIMARROW_10
  1

  0
LINE
  5
8C
330
8B
100
AcDbEntity
  8
0
  6
K5LT_THIN
 62
     0
370
    18
100
AcDbLine
 10
0.0
 20
0.0
 30
0.0
 11
2.0
 21
-2.0
 31
0.0
  0
LINE
  5
8D
330
8B
100
AcDbEntity
  8
0
  6
K5LT_THIN
 62
     0
370
    18
100
AcDbLine
 10
0.0
 20
0.0
 30
0.0
 11
2.0
 21
2.0
 31
0.0
  0
LINE
  5
8E
330
8B
100
AcDbEntity
  8
0
  6
K5LT_THIN
 62
     0
370
    18
100
AcDbLine
 10
0.0
 20
0.0
 30
0.0
 11
4.0
 21
-0.0000000000000005
 31
0.0
  0
LINE
  5
8F
330
8B
100
AcDbEntity
  8
0
  6
K5LT_THIN
 62
     0
370
    18
100
AcDbLine
 10
0.0
 20
0.0
 30
0.0
 11
-1.0
 21
0.0
 31
0.0
  0
ENDBLK
  5
91
330
8B
100
AcDbEntity
  8
0
100
AcDbBlockEnd
  0
BLOCK
  5
96
330
92
100
AcDbEntity
  8
0
100
AcDbBlockBegin
  2
KDIMARROW_11
 70
     0
 10
0.0
 20
0.0
 30
0.0
  3
KDIMARROW_11
  1

  0
CIRCLE
  5
93
330
92
100
AcDbEntity
  8
0
  6
K5LT_THIN
 62
     0
370
    18
100
AcDbCircle
 10
0.0
 20
0.0
 30
0.0
 40
2.5
  0
CIRCLE
  5
94
330
92
100
AcDbEntity
  8
0
  6
K5LT_THIN
 62
     0
370
    18
100
AcDbCircle
 10
0.0
 20
0.0
 30
0.0
 40
2.5
  0
LINE
  5
95
330
92
100
AcDbEntity
  8
0
  6
K5LT_THIN
 62
     0
370
    18
100
AcDbLine
 10
0.0
 20
0.0
 30
0.0
 11
-1.0
 21
0.0
 31
0.0
  0
ENDBLK
  5
97
330
92
100
AcDbEntity
  8
0
100
AcDbBlockEnd
  0
BLOCK
  5
9C
330
98
100
AcDbEntity
  8
0
100
AcDbBlockBegin
  2
KDIMARROW_12
 70
     0
 10
0.0
 20
0.0
 30
0.0
  3
KDIMARROW_12
  1

  0
CIRCLE
  5
99
330
98
100
AcDbEntity
  8
0
  6
K5LT_THIN
 62
     0
370
    18
100
AcDbCircle
 10
0.0
 20
0.0
 30
0.0
 40
1.5
  0
CIRCLE
  5
9A
330
98
100
AcDbEntity
  8
0
  6
K5LT_THIN
 62
     0
370
    18
100
AcDbCircle
 10
0.0
 20
0.0
 30
0.0
 40
1.5
  0
LINE
  5
9B
330
98
100
AcDbEntity
  8
0
  6
K5LT_THIN
 62
     0
370
    18
100
AcDbLine
 10
0.0
 20
0.0
 30
0.0
 11
-1.0
 21
0.0
 31
0.0
  0
ENDBLK
  5
9D
330
98
100
AcDbEntity
  8
0
100
AcDbBlockEnd
  0
BLOCK
  5
A2
330
9E
100
AcDbEntity
  8
0
100
AcDbBlockBegin
  2
KDIMARROW_13
 70
     0
 10
0.0
 20
0.0
 30
0.0
  3
KDIMARROW_13
  1

  0
LINE
  5
9F
330
9E
100
AcDbEntity
  8
0
  6
K5LT_THIN
 62
     0
370
    18
100
AcDbLine
 10
-1.060500025749206
 20
1.060500025749207
 30
0.0
 11
1.060500025749206
 21
-1.060500025749207
 31
0.0
  0
LINE
  5
A0
330
9E
100
AcDbEntity
  8
0
  6
K5LT_THIN
 62
     0
370
    18
100
AcDbLine
 10
0.0
 20
0.0
 30
0.0
 11
2.0
 21
-0.0000000000000002
 31
0.0
  0
LINE
  5
A1
330
9E
100
AcDbEntity
  8
0
  6
K5LT_THIN
 62
     0
370
    18
100
AcDbLine
 10
0.0
 20
0.0
 30
0.0
 11
-1.0
 21
0.0
 31
0.0
  0
ENDBLK
  5
A3
330
9E
100
AcDbEntity
  8
0
100
AcDbBlockEnd
  0
ENDSEC
  0
SECTION
  2
ENTITIES
  0
SPLINE
  5
A5
330
1F
100
AcDbEntity
  8
0
  6
K5LT32768
 62
     7
370
    15
100
AcDbSpline
210
0.0
220
0.0
230
1.0
 70
     8
 71
     3
 72
     8
 73
     4
 74
     0
 42
0.0
 43
0.0
 12
1.0
 22
0.0
 32
0.0
 13
1.0
 23
0.0
 33
0.0
 40
0.0
 40
0.0
 40
0.0
 40
0.0
 40
1.0
 40
1.0
 40
1.0
 40
1.0
 10
18.50154079398573
 20
111.1318901631893
 30
0.0
 10
17.72053764747959
 20
110.3505425071346
 30
0.0
 10
17.72053764747959
 20
109.0841254067568
 30
0.0
 10
18.50154079398573
 20
108.3034667697991
 30
0.0
  0
LINE
  5
A6
330
1F
100
AcDbEntity
  8
0
  6
K5LT32768
 62
     7
370
    15
100
AcDbLine
 10
31.8447401179
 20
124.4747449776
 30
0.0
 11
18.501540794
 21
111.1318901632
 31
0.0
  0
SPLINE
  5
A7
330
1F
100
AcDbEntity
  8
0
  6
K5LT32768
 62
     7
370
    15
100
AcDbSpline
210
0.0
220
0.0
230
1.0
 70
     8
 71
     3
 72
    11
 73
     7
 74
     0
 42
0.0
 43
0.0
 12
1.0
 22
0.0
 32
0.0
 13
1.0
 23
0.0
 33
0.0
 40
0.0
 40
0.0
 40
0.0
 40
0.0
 40
0.5
 40
0.5
 40
0.5
 40
1.0
 40
1.0
 40
1.0
 40
1.0
 10
35.25882974378946
 20
123.0608777904153
 30
0.0
 10
35.25882974378946
 20
124.1653754029864
 30
0.0
 10
34.36344942717303
 20
125.0604112100543
 30
0.0
 10
33.25895181460193
 20
125.0604112100543
 30
0.0
 10
32.72840710987346
 20
125.0604112100543
 30
0.0
 10
32.21991101625058
 20
124.8502603854541
 30
0.0
 10
31.84474011790687
 20
124.4747449775619
 30
0.0
  0
LINE
  5
A8
330
1F
100
AcDbEntity
  8
0
  6
K5LT32768
 62
     7
370
    15
100
AcDbLine
 10
35.2588297438
 20
96.3744791426
 30
0.0
 11
35.2588297438
 21
123.0608777904
 31
0.0
  0
SPLINE
  5
A9
330
1F
100
AcDbEntity
  8
0
  6
K5LT32768
 62
     7
370
    15
100
AcDbSpline
210
0.0
220
0.0
230
1.0
 70
     8
 71
     3
 72
     8
 73
     4
 74
     0
 42
0.0
 43
0.0
 12
1.0
 22
0.0
 32
0.0
 13
1.0
 23
0.0
 33
0.0
 40
0.0
 40
0.0
 40
0.0
 40
0.0
 40
1.0
 40
1.0
 40
1.0
 40
1.0
 10
34.67316351129699
 20
94.95992293632946
 30
0.0
 10
35.0483344096407
 20
95.3354383442217
 30
0.0
 10
35.25882974378946
 20
95.84393443784458
 30
0.0
 10
35.25882974378946
 20
96.37447914257305
 30
0.0
  0
SPLINE
  5
AA
330
1F
100
AcDbEntity
  8
0
  6
K5LT32768
 62
     7
370
    15
100
AcDbSpline
210
0.0
220
0.0
230
1.0
 70
     8
 71
     3
 72
     8
 73
     4
 74
     0
 42
0.0
 43
0.0
 12
1.0
 22
0.0
 32
0.0
 13
1.0
 23
0.0
 33
0.0
 40
0.0
 40
0.0
 40
0.0
 40
0.0
 40
1.0
 40
1.0
 40
1.0
 40
1.0
 10
31.84474011790687
 20
94.95992293632946
 30
0.0
 10
32.62574326441301
 20
94.17926429937187
 30
0.0
 10
33.89216036479085
 20
94.17926429937187
 30
0.0
 10
34.67316351129699
 20
94.95992293632946
 30
0.0
  0
LINE
  5
AB
330
1F
100
AcDbEntity
  8
0
  6
K5LT32768
 62
     7
370
    15
100
AcDbLine
 10
18.501540794
 20
108.3034667698
 30
0.0
 11
31.8447401179
 21
94.9599229363
 31
0.0
  0
SPLINE
  5
AC
330
1F
100
AcDbEntity
  8
0
  6
K5LT32768
 62
     7
370
    15
100
AcDbSpline
210
0.0
220
0.0
230
1.0
 70
     8
 71
     3
 72
     8
 73
     4
 74
     0
 42
0.0
 43
0.0
 12
1.0
 22
0.0
 32
0.0
 13
1.0
 23
0.0
 33
0.0
 40
0.0
 40
0.0
 40
0.0
 40
0.0
 40
1.0
 40
1.0
 40
1.0
 40
1.0
 10
12.84469400720549
 20
113.9603135565794
 30
0.0
 10
13.62569715371163
 20
113.1789659005247
 30
0.0
 10
14.89211425408947
 20
113.1789659005247
 30
0.0
 10
15.67311740059561
 20
113.9603135565794
 30
0.0
  0
LINE
  5
AD
330
1F
100
AcDbEntity
  8
0
  6
K5LT32768
 62
     7
370
    15
100
AcDbLine
 10
-0.4985053167
 20
127.303168371
 30
0.0
 11
12.8446940072
 21
113.9603135566
 31
0.0
  0
SPLINE
  5
AE
330
1F
100
AcDbEntity
  8
0
  6
K5LT32768
 62
     7
370
    15
100
AcDbSpline
210
0.0
220
0.0
230
1.0
 70
     8
 71
     3
 72
    11
 73
     7
 74
     0
 42
0.0
 43
0.0
 12
1.0
 22
0.0
 32
0.0
 13
1.0
 23
0.0
 33
0.0
 40
0.0
 40
0.0
 40
0.0
 40
0.0
 40
0.5
 40
0.5
 40
0.5
 40
1.0
 40
1.0
 40
1.0
 40
1.0
 10
0.9157063799794067
 20
130.7172579968346
 30
0.0
 10
-0.1887912325916911
 20
130.7172579968346
 30
0.0
 10
-1.084171549208124
 20
129.8222221897667
 30
0.0
 10
-1.084171549208124
 20
128.7177245771956
 30
0.0
 10
-1.084171549208124
 20
128.1871798724671
 30
0.0
 10
-0.8736762150593588
 20
127.6786837788442
 30
0.0
 10
-0.4985053167156515
 20
127.303168370952
 30
0.0
  0
LINE
  5
AF
330
1F
100
AcDbEntity
  8
0
  6
K5LT32768
 62
     7
370
    15
100
AcDbLine
 10
27.6021050278
 20
130.7172579968
 30
0.0
 11
0.91570638
 21
130.7172579968
 31
0.0
  0
SPLINE
  5
B0
330
1F
100
AcDbEntity
  8
0
  6
K5LT32768
 62
     7
370
    15
100
AcDbSpline
210
0.0
220
0.0
230
1.0
 70
     8
 71
     3
 72
     8
 73
     4
 74
     0
 42
0.0
 43
0.0
 12
1.0
 22
0.0
 32
0.0
 13
1.0
 23
0.0
 33
0.0
 40
0.0
 40
0.0
 40
0.0
 40
0.0
 40
1.0
 40
1.0
 40
1.0
 40
1.0
 10
29.01631672451676
 20
130.1315917643421
 30
0.0
 10
28.64114582617305
 20
130.5071071722343
 30
0.0
 10
28.13264973255017
 20
130.7172579968346
 30
0.0
 10
27.6021050278217
 20
130.7172579968346
 30
0.0
  0
SPLINE
  5
B1
330
1F
100
AcDbEntity
  8
0
  6
K5LT32768
 62
     7
370
    15
100
AcDbSpline
210
0.0
220
0.0
230
1.0
 70
     8
 71
     3
 72
     8
 73
     4
 74
     0
 42
0.0
 43
0.0
 12
1.0
 22
0.0
 32
0.0
 13
1.0
 23
0.0
 33
0.0
 40
0.0
 40
0.0
 40
0.0
 40
0.0
 40
1.0
 40
1.0
 40
1.0
 40
1.0
 10
29.01631672451676
 20
127.303168370952
 30
0.0
 10
29.79731987102289
 20
128.0845160270067
 30
0.0
 10
29.79731987102289
 20
129.3509331273845
 30
0.0
 10
29.01631672451676
 20
130.1315917643421
 30
0.0
  0
LINE
  5
B2
330
1F
100
AcDbEntity
  8
0
  6
K5LT32768
 62
     7
370
    15
100
AcDbLine
 10
15.6731174006
 20
113.9603135566
 30
0.0
 11
29.0163167245
 21
127.303168371
 31
0.0
  0
SPLINE
  5
B3
330
1F
100
AcDbEntity
  8
0
  6
K5LT32768
 62
     7
370
    15
100
AcDbSpline
210
0.0
220
0.0
230
1.0
 70
     8
 71
     3
 72
    10
 73
     6
 74
     0
 42
0.0
 43
0.0
 12
1.0
 22
0.0
 32
0.0
 13
1.0
 23
0.0
 33
0.0
 40
0.0
 40
0.0
 40
0.0
 40
0.0
 40
0.5
 40
0.5
 40
1.0
 40
1.0
 40
1.0
 40
1.0
 10
-28.52573512741718
 20
247.6563733647352
 30
0.0
 10
-31.12058104690736
 20
248.6010185467907
 30
0.0
 10
-33.98965656702342
 20
247.2629434603197
 30
0.0
 10
-35.87894693113443
 20
242.0732516213393
 30
0.0
 10
-34.54087184466339
 20
239.2041761012233
 30
0.0
 10
-31.94602592517322
 20
238.2595309191678
 30
0.0
  0
LINE
  5
B4
330
1F
100
AcDbEntity
  8
0
  6
K5LT32768
 62
     7
370
    15
100
AcDbLine
 10
-19.5174994526
 20
244.378020501
 30
0.0
 11
-28.5257351274
 21
247.6563733647
 31
0.0
  0
SPLINE
  5
B5
330
1F
100
AcDbEntity
  8
0
  6
K5LT32768
 62
     7
370
    15
100
AcDbSpline
210
0.0
220
0.0
230
1.0
 70
     8
 71
     3
 72
     8
 73
     4
 74
     0
 42
0.0
 43
0.0
 12
1.0
 22
0.0
 32
0.0
 13
1.0
 23
0.0
 33
0.0
 40
0.0
 40
0.0
 40
0.0
 40
0.0
 40
1.0
 40
1.0
 40
1.0
 40
1.0
 10
-16.5292236286802
 20
237.9694538793097
 30
0.0
 10
-15.58526746572174
 20
240.5642997987999
 30
0.0
 10
-16.92265353309573
 20
243.433375318916
 30
0.0
 10
-19.51749945258591
 20
244.3780205009715
 30
0.0
  0
SPLINE
  5
B6
330
1F
100
AcDbEntity
  8
0
  6
K5LT32768
 62
     7
370
    15
100
AcDbSpline
210
0.0
220
0.0
230
1.0
 70
     8
 71
     3
 72
     8
 73
     4
 74
     0
 42
0.0
 43
0.0
 12
1.0
 22
0.0
 32
0.0
 13
1.0
 23
0.0
 33
0.0
 40
0.0
 40
0.0
 40
0.0
 40
0.0
 40
1.0
 40
1.0
 40
1.0
 40
1.0
 10
-22.93779025034194
 20
234.981178055404
 30
0.0
 10
-20.34294433085176
 20
234.0365328733485
 30
0.0
 10
-17.4738688107357
 20
235.3746079598195
 30
0.0
 10
-16.5292236286802
 20
237.9694538793097
 30
0.0
  0
LINE
  5
B7
330
1F
100
AcDbEntity
  8
0
  6
K5LT32768
 62
     7
370
    15
100
AcDbLine
 10
-31.9460259252
 20
238.2595309192
 30
0.0
 11
-22.9377902503
 21
234.9811780554
 31
0.0
  0
SPLINE
  5
B8
330
1F
100
AcDbEntity
  8
0
  6
K5LT32768
 62
     7
370
    15
100
AcDbSpline
210
0.0
220
0.0
230
1.0
 70
     8
 71
     3
 72
    11
 73
     7
 74
     0
 42
0.0
 43
0.0
 12
1.0
 22
0.0
 32
0.0
 13
1.0
 23
0.0
 33
0.0
 40
0.0
 40
0.0
 40
0.0
 40
0.0
 40
0.5
 40
0.5
 40
0.5
 40
1.0
 40
1.0
 40
1.0
 40
1.0
 10
-22.7414198076827
 20
318.4496404911341
 30
0.0
 10
-23.15552028500973
 20
318.4496404911341
 30
0.0
 10
-23.49107258527307
 20
318.1140881908709
 30
0.0
 10
-23.49107258527307
 20
317.6996432039954
 30
0.0
 10
-23.49107258527307
 20
317.2855427266682
 30
0.0
 10
-23.15552028500973
 20
316.9496459168564
 30
0.0
 10
-22.7414198076827
 20
316.9496459168564
 30
0.0
  0
LINE
  5
B9
330
1F
100
AcDbEntity
  8
0
  6
K5LT32768
 62
     7
370
    15
100
AcDbLine
 10
-13.741452362
 20
318.4496404911
 30
0.0
 11
-22.7414198077
 21
318.4496404911
 31
0.0
  0
SPLINE
  5
BA
330
1F
100
AcDbEntity
  8
0
  6
K5LT32768
 62
     7
370
    15
100
AcDbSpline
210
0.0
220
0.0
230
1.0
 70
     8
 71
     3
 72
    11
 73
     7
 74
     0
 42
0.0
 43
0.0
 12
1.0
 22
0.0
 32
0.0
 13
1.0
 23
0.0
 33
0.0
 40
0.0
 40
0.0
 40
0.0
 40
0.0
 40
0.5
 40
0.5
 40
0.5
 40
1.0
 40
1.0
 40
1.0
 40
1.0
 10
-13.74145236201603
 20
316.9496459168564
 30
0.0
 10
-13.327351884689
 20
316.9496459168564
 30
0.0
 10
-12.99111056532861
 20
317.2855427266682
 30
0.0
 10
-12.99111056532861
 20
317.6996432039954
 30
0.0
 10
-12.99111056532861
 20
318.1140881908709
 30
0.0
 10
-13.327351884689
 20
318.4496404911341
 30
0.0
 10
-13.74145236201603
 20
318.4496404911341
 30
0.0
  0
LINE
  5
BB
330
1F
100
AcDbEntity
  8
0
  6
K5LT32768
 62
     7
370
    15
100
AcDbLine
 10
-22.7414198077
 20
316.9496459169
 30
0.0
 11
-13.741452362
 21
316.9496459169
 31
0.0
  0
SPLINE
  5
BC
330
1F
100
AcDbEntity
  8
0
  6
K5LT32768
 62
     7
370
    15
100
AcDbSpline
210
0.0
220
0.0
230
1.0
 70
     8
 71
     3
 72
    11
 73
     7
 74
     0
 42
0.0
 43
0.0
 12
1.0
 22
0.0
 32
0.0
 13
1.0
 23
0.0
 33
0.0
 40
0.0
 40
0.0
 40
0.0
 40
0.0
 40
0.5
 40
0.5
 40
0.5
 40
1.0
 40
1.0
 40
1.0
 40
1.0
 10
60.29847274968233
 20
152.1886433538799
 30
0.0
 10
60.29847274968233
 20
151.3604423992259
 30
0.0
 10
60.96957735020901
 20
150.6886487796021
 30
0.0
 10
61.79846732396011
 20
150.6886487796021
 30
0.0
 10
62.62666827861417
 20
150.6886487796021
 30
0.0
 10
63.29846189823789
 20
151.3604423992259
 30
0.0
 10
63.29846189823789
 20
152.1886433538799
 30
0.0
  0
SPLINE
  5
BD
330
1F
100
AcDbEntity
  8
0
  6
K5LT32768
 62
     7
370
    15
100
AcDbSpline
210
0.0
220
0.0
230
1.0
 70
     8
 71
     3
 72
    11
 73
     7
 74
     0
 42
0.0
 43
0.0
 12
1.0
 22
0.0
 32
0.0
 13
1.0
 23
0.0
 33
0.0
 40
0.0
 40
0.0
 40
0.0
 40
0.0
 40
0.5
 40
0.5
 40
0.5
 40
1.0
 40
1.0
 40
1.0
 40
1.0
 10
63.29846189823789
 20
152.1886433538799
 30
0.0
 10
63.29846189823789
 20
153.016844308534
 30
0.0
 10
62.62666827861417
 20
153.6886379281577
 30
0.0
 10
61.79846732396011
 20
153.6886379281577
 30
0.0
 10
60.96957735020901
 20
153.6886379281577
 30
0.0
 10
60.29847274968233
 20
153.016844308534
 30
0.0
 10
60.29847274968233
 20
152.1886433538799
 30
0.0
  0
SPLINE
  5
BE
330
1F
100
AcDbEntity
  8
0
  6
K5LT32768
 62
     7
370
    15
100
AcDbSpline
210
0.0
220
0.0
230
1.0
 70
     8
 71
     3
 72
    11
 73
     7
 74
     0
 42
0.0
 43
0.0
 12
1.0
 22
0.0
 32
0.0
 13
1.0
 23
0.0
 33
0.0
 40
0.0
 40
0.0
 40
0.0
 40
0.0
 40
0.5
 40
0.5
 40
0.5
 40
1.0
 40
1.0
 40
1.0
 40
1.0
 10
57.90619844472484
 20
255.699637794148
 30
0.0
 10
57.90619844472484
 20
254.871436839494
 30
0.0
 10
58.57730304525151
 20
254.1996432198702
 30
0.0
 10
59.40619301900262
 20
254.1996432198702
 30
0.0
 10
60.23439397365668
 20
254.1996432198702
 30
0.0
 10
60.90618759328041
 20
254.871436839494
 30
0.0
 10
60.90618759328041
 20
255.699637794148
 30
0.0
  0
SPLINE
  5
BF
330
1F
100
AcDbEntity
  8
0
  6
K5LT32768
 62
     7
370
    15
100
AcDbSpline
210
0.0
220
0.0
230
1.0
 70
     8
 71
     3
 72
    11
 73
     7
 74
     0
 42
0.0
 43
0.0
 12
1.0
 22
0.0
 32
0.0
 13
1.0
 23
0.0
 33
0.0
 40
0.0
 40
0.0
 40
0.0
 40
0.0
 40
0.5
 40
0.5
 40
0.5
 40
1.0
 40
1.0
 40
1.0
 40
1.0
 10
60.90618759328041
 20
255.699637794148
 30
0.0
 10
60.90618759328041
 20
256.5281832583506
 30
0.0
 10
60.23439397365668
 20
257.1996323684258
 30
0.0
 10
59.40619301900262
 20
257.1996323684258
 30
0.0
 10
58.57730304525151
 20
257.1996323684258
 30
0.0
 10
57.90619844472484
 20
256.5281832583506
 30
0.0
 10
57.90619844472484
 20
255.699637794148
 30
0.0
  0
SPLINE
  5
C0
330
1F
100
AcDbEntity
  8
0
  6
K5LT32768
 62
     7
370
    15
100
AcDbSpline
210
0.0
220
0.0
230
1.0
 70
     8
 71
     3
 72
    11
 73
     7
 74
     0
 42
0.0
 43
0.0
 12
1.0
 22
0.0
 32
0.0
 13
1.0
 23
0.0
 33
0.0
 40
0.0
 40
0.0
 40
0.0
 40
0.0
 40
0.5
 40
0.5
 40
0.5
 40
1.0
 40
1.0
 40
1.0
 40
1.0
 10
43.75856932499786
 20
18.18734808573094
 30
0.0
 10
43.75856932499786
 20
17.35845811197983
 30
0.0
 10
44.43036294462158
 20
16.68735351145316
 30
0.0
 10
45.25856389927564
 20
16.68735351145316
 30
0.0
 10
46.08745387302675
 20
16.68735351145316
 30
0.0
 10
46.75855847355342
 20
17.35845811197983
 30
0.0
 10
46.75855847355342
 20
18.18734808573094
 30
0.0
  0
SPLINE
  5
C1
330
1F
100
AcDbEntity
  8
0
  6
K5LT32768
 62
     7
370
    15
100
AcDbSpline
210
0.0
220
0.0
230
1.0
 70
     8
 71
     3
 72
    11
 73
     7
 74
     0
 42
0.0
 43
0.0
 12
1.0
 22
0.0
 32
0.0
 13
1.0
 23
0.0
 33
0.0
 40
0.0
 40
0.0
 40
0.0
 40
0.0
 40
0.5
 40
0.5
 40
0.5
 40
1.0
 40
1.0
 40
1.0
 40
1.0
 10
46.75855847355342
 20
18.18734808573094
 30
0.0
 10
46.75855847355342
 20
19.015549040385
 30
0.0
 10
46.08745387302675
 20
19.68734266000872
 30
0.0
 10
45.25856389927564
 20
19.68734266000872
 30
0.0
 10
44.43036294462158
 20
19.68734266000872
 30
0.0
 10
43.75856932499786
 20
19.015549040385
 30
0.0
 10
43.75856932499786
 20
18.18734808573094
 30
0.0
  0
SPLINE
  5
C2
330
1F
100
AcDbEntity
  8
0
  6
K5LT32768
 62
     7
370
    15
100
AcDbSpline
210
0.0
220
0.0
230
1.0
 70
     8
 71
     3
 72
    11
 73
     7
 74
     0
 42
0.0
 43
0.0
 12
1.0
 22
0.0
 32
0.0
 13
1.0
 23
0.0
 33
0.0
 40
0.0
 40
0.0
 40
0.0
 40
0.0
 40
0.5
 40
0.5
 40
0.5
 40
1.0
 40
1.0
 40
1.0
 40
1.0
 10
-15.34686685814245
 20
245.5066337819393
 30
0.0
 10
-15.34686685814245
 20
244.6780883177368
 30
0.0
 10
-14.67576225761578
 20
244.0066392076616
 30
0.0
 10
-13.84687228386467
 20
244.0066392076616
 30
0.0
 10
-13.01867132921061
 20
244.0066392076616
 30
0.0
 10
-12.34687770958689
 20
244.6780883177368
 30
0.0
 10
-12.34687770958689
 20
245.5066337819393
 30
0.0
  0
SPLINE
  5
C3
330
1F
100
AcDbEntity
  8
0
  6
K5LT32768
 62
     7
370
    15
100
AcDbSpline
210
0.0
220
0.0
230
1.0
 70
     8
 71
     3
 72
    11
 73
     7
 74
     0
 42
0.0
 43
0.0
 12
1.0
 22
0.0
 32
0.0
 13
1.0
 23
0.0
 33
0.0
 40
0.0
 40
0.0
 40
0.0
 40
0.0
 40
0.5
 40
0.5
 40
0.5
 40
1.0
 40
1.0
 40
1.0
 40
1.0
 10
-12.34687770958689
 20
245.5066337819393
 30
0.0
 10
-12.34687770958689
 20
246.3348347365934
 30
0.0
 10
-13.01867132921061
 20
247.0066283562171
 30
0.0
 10
-13.84687228386467
 20
247.0066283562171
 30
0.0
 10
-14.67576225761578
 20
247.0066283562171
 30
0.0
 10
-15.34686685814245
 20
246.3348347365934
 30
0.0
 10
-15.34686685814245
 20
245.5066337819393
 30
0.0
  0
SPLINE
  5
C4
330
1F
100
AcDbEntity
  8
0
  6
K5LT32768
 62
     7
370
    15
100
AcDbSpline
210
0.0
220
0.0
230
1.0
 70
     8
 71
     3
 72
    10
 73
     6
 74
     0
 42
0.0
 43
0.0
 12
1.0
 22
0.0
 32
0.0
 13
1.0
 23
0.0
 33
0.0
 40
0.0
 40
0.0
 40
0.0
 40
0.0
 40
0.5
 40
0.5
 40
1.0
 40
1.0
 40
1.0
 40
1.0
 10
-19.67528482581035
 20
134.1871581695782
 30
0.0
 10
-19.67528482581035
 20
133.3589572149241
 30
0.0
 10
-19.00349120618663
 20
132.6871635953004
 30
0.0
 10
-17.34708929687851
 20
132.6871635953004
 30
0.0
 10
-16.67529567725479
 20
133.3589572149241
 30
0.0
 10
-16.67529567725479
 20
134.1871581695782
 30
0.0
  0
SPLINE
  5
C5
330
1F
100
AcDbEntity
  8
0
  6
K5LT32768
 62
     7
370
    15
100
AcDbSpline
210
0.0
220
0.0
230
1.0
 70
     8
 71
     3
 72
    10
 73
     6
 74
     0
 42
0.0
 43
0.0
 12
1.0
 22
0.0
 32
0.0
 13
1.0
 23
0.0
 33
0.0
 40
0.0
 40
0.0
 40
0.0
 40
0.0
 40
0.5
 40
0.5
 40
1.0
 40
1.0
 40
1.0
 40
1.0
 10
-16.67529567725479
 20
134.1871581695782
 30
0.0
 10
-16.67529567725479
 20
135.0153591242323
 30
0.0
 10
-17.34708929687851
 20
135.687152743856
 30
0.0
 10
-19.00349120618663
 20
135.687152743856
 30
0.0
 10
-19.67528482581035
 20
135.0153591242323
 30
0.0
 10
-19.67528482581035
 20
134.1871581695782
 30
0.0
  0
SPLINE
  5
C6
330
1F
100
AcDbEntity
  8
0
  6
K5LT32768
 62
     7
370
    15
100
AcDbSpline
210
0.0
220
0.0
230
1.0
 70
     8
 71
     3
 72
    10
 73
     6
 74
     0
 42
0.0
 43
0.0
 12
1.0
 22
0.0
 32
0.0
 13
1.0
 23
0.0
 33
0.0
 40
0.0
 40
0.0
 40
0.0
 40
0.0
 40
0.5
 40
0.5
 40
1.0
 40
1.0
 40
1.0
 40
1.0
 10
-34.78065049043678
 20
152.1886433538799
 30
0.0
 10
-34.78065049043678
 20
151.3604423992259
 30
0.0
 10
-34.10885687081306
 20
150.6886487796021
 30
0.0
 10
-32.45245496150494
 20
150.6886487796021
 30
0.0
 10
-31.78066134188122
 20
151.3604423992259
 30
0.0
 10
-31.78066134188122
 20
152.1886433538799
 30
0.0
  0
SPLINE
  5
C7
330
1F
100
AcDbEntity
  8
0
  6
K5LT32768
 62
     7
370
    15
100
AcDbSpline
210
0.0
220
0.0
230
1.0
 70
     8
 71
     3
 72
    10
 73
     6
 74
     0
 42
0.0
 43
0.0
 12
1.0
 22
0.0
 32
0.0
 13
1.0
 23
0.0
 33
0.0
 40
0.0
 40
0.0
 40
0.0
 40
0.0
 40
0.5
 40
0.5
 40
1.0
 40
1.0
 40
1.0
 40
1.0
 10
-31.78066134188122
 20
152.1886433538799
 30
0.0
 10
-31.78066134188122
 20
153.016844308534
 30
0.0
 10
-32.45245496150494
 20
153.6886379281577
 30
0.0
 10
-34.10885687081306
 20
153.6886379281577
 30
0.0
 10
-34.78065049043678
 20
153.016844308534
 30
0.0
 10
-34.78065049043678
 20
152.1886433538799
 30
0.0
  0
SPLINE
  5
C8
330
1F
100
AcDbEntity
  8
0
  6
K5LT32768
 62
     7
370
    15
100
AcDbSpline
210
0.0
220
0.0
230
1.0
 70
     8
 71
     3
 72
    11
 73
     7
 74
     0
 42
0.0
 43
0.0
 12
1.0
 22
0.0
 32
0.0
 13
1.0
 23
0.0
 33
0.0
 40
0.0
 40
0.0
 40
0.0
 40
0.0
 40
0.5
 40
0.5
 40
0.5
 40
1.0
 40
1.0
 40
1.0
 40
1.0
 10
-20.81974554601034
 20
230.471548065212
 30
0.0
 10
-20.81974554601034
 20
229.6430026010094
 30
0.0
 10
-20.14795192638663
 20
228.9715534909342
 30
0.0
 10
-19.31975097173256
 20
228.9715534909342
 30
0.0
 10
-18.49086099798145
 20
228.9715534909342
 30
0.0
 10
-17.81975639745479
 20
229.6430026010094
 30
0.0
 10
-17.81975639745479
 20
230.471548065212
 30
0.0
  0
SPLINE
  5
C9
330
1F
100
AcDbEntity
  8
0
  6
K5LT32768
 62
     7
370
    15
100
AcDbSpline
210
0.0
220
0.0
230
1.0
 70
     8
 71
     3
 72
    11
 73
     7
 74
     0
 42
0.0
 43
0.0
 12
1.0
 22
0.0
 32
0.0
 13
1.0
 23
0.0
 33
0.0
 40
0.0
 40
0.0
 40
0.0
 40
0.0
 40
0.5
 40
0.5
 40
0.5
 40
1.0
 40
1.0
 40
1.0
 40
1.0
 10
-17.81975639745479
 20
230.471548065212
 30
0.0
 10
-17.81975639745479
 20
231.2997490198661
 30
0.0
 10
-18.49086099798145
 20
231.9715426394898
 30
0.0
 10
-19.31975097173256
 20
231.9715426394898
 30
0.0
 10
-20.14795192638663
 20
231.9715426394898
 30
0.0
 10
-20.81974554601034
 20
231.2997490198661
 30
0.0
 10
-20.81974554601034
 20
230.471548065212
 30
0.0
  0
SPLINE
  5
CA
330
1F
100
AcDbEntity
  8
0
  6
K5LT32768
 62
     7
370
    15
100
AcDbSpline
210
0.0
220
0.0
230
1.0
 70
     8
 71
     3
 72
    10
 73
     6
 74
     0
 42
0.0
 43
0.0
 12
1.0
 22
0.0
 32
0.0
 13
1.0
 23
0.0
 33
0.0
 40
0.0
 40
0.0
 40
0.0
 40
0.0
 40
0.5
 40
0.5
 40
1.0
 40
1.0
 40
1.0
 40
1.0
 10
-18.24143608484937
 20
79.18689776666162
 30
0.0
 10
-18.24143608484937
 20
78.35869681200755
 30
0.0
 10
-17.56964246522564
 20
77.68690319238384
 30
0.0
 10
-15.91324055591752
 20
77.68690319238384
 30
0.0
 10
-15.2414469362938
 20
78.35869681200755
 30
0.0
 10
-15.2414469362938
 20
79.18689776666162
 30
0.0
  0
SPLINE
  5
CB
330
1F
100
AcDbEntity
  8
0
  6
K5LT32768
 62
     7
370
    15
100
AcDbSpline
210
0.0
220
0.0
230
1.0
 70
     8
 71
     3
 72
    10
 73
     6
 74
     0
 42
0.0
 43
0.0
 12
1.0
 22
0.0
 32
0.0
 13
1.0
 23
0.0
 33
0.0
 40
0.0
 40
0.0
 40
0.0
 40
0.0
 40
0.5
 40
0.5
 40
1.0
 40
1.0
 40
1.0
 40
1.0
 10
-15.2414469362938
 20
79.18689776666162
 30
0.0
 10
-15.2414469362938
 20
80.01578774041272
 30
0.0
 10
-15.91324055591752
 20
80.6868923409394
 30
0.0
 10
-17.56964246522564
 20
80.6868923409394
 30
0.0
 10
-18.24143608484937
 20
80.01578774041272
 30
0.0
 10
-18.24143608484937
 20
79.18689776666162
 30
0.0
  0
SPLINE
  5
CC
330
1F
100
AcDbEntity
  8
0
  6
K5LT32768
 62
     7
370
    15
100
AcDbSpline
210
0.0
220
0.0
230
1.0
 70
     8
 71
     3
 72
    11
 73
     7
 74
     0
 42
0.0
 43
0.0
 12
1.0
 22
0.0
 32
0.0
 13
1.0
 23
0.0
 33
0.0
 40
0.0
 40
0.0
 40
0.0
 40
0.0
 40
0.5
 40
0.5
 40
0.5
 40
1.0
 40
1.0
 40
1.0
 40
1.0
 10
65.9436062118127
 20
233.6169202432451
 30
0.0
 10
65.9436062118127
 20
232.788719288591
 30
0.0
 10
66.61471081233938
 20
232.1169256689673
 30
0.0
 10
67.44360078609049
 20
232.1169256689673
 30
0.0
 10
68.27180174074455
 20
232.1169256689673
 30
0.0
 10
68.94359536036828
 20
232.788719288591
 30
0.0
 10
68.94359536036828
 20
233.6169202432451
 30
0.0
  0
SPLINE
  5
CD
330
1F
100
AcDbEntity
  8
0
  6
K5LT32768
 62
     7
370
    15
100
AcDbSpline
210
0.0
220
0.0
230
1.0
 70
     8
 71
     3
 72
    11
 73
     7
 74
     0
 42
0.0
 43
0.0
 12
1.0
 22
0.0
 32
0.0
 13
1.0
 23
0.0
 33
0.0
 40
0.0
 40
0.0
 40
0.0
 40
0.0
 40
0.5
 40
0.5
 40
0.5
 40
1.0
 40
1.0
 40
1.0
 40
1.0
 10
68.94359536036828
 20
233.6169202432451
 30
0.0
 10
68.94359536036828
 20
234.4454657074477
 30
0.0
 10
68.27180174074455
 20
235.1169148175229
 30
0.0
 10
67.44360078609049
 20
235.1169148175229
 30
0.0
 10
66.61471081233938
 20
235.1169148175229
 30
0.0
 10
65.9436062118127
 20
234.4454657074477
 30
0.0
 10
65.9436062118127
 20
233.6169202432451
 30
0.0
  0
SPLINE
  5
CE
330
1F
100
AcDbEntity
  8
0
  6
K5LT32768
 62
     7
370
    15
100
AcDbSpline
210
0.0
220
0.0
230
1.0
 70
     8
 71
     3
 72
    11
 73
     7
 74
     0
 42
0.0
 43
0.0
 12
1.0
 22
0.0
 32
0.0
 13
1.0
 23
0.0
 33
0.0
 40
0.0
 40
0.0
 40
0.0
 40
0.0
 40
0.5
 40
0.5
 40
0.5
 40
1.0
 40
1.0
 40
1.0
 40
1.0
 10
45.19241806595884
 20
134.1871581695782
 30
0.0
 10
45.19241806595884
 20
133.3589572149241
 30
0.0
 10
45.86421168558257
 20
132.6871635953004
 30
0.0
 10
46.69241264023662
 20
132.6871635953004
 30
0.0
 10
47.52130261398773
 20
132.6871635953004
 30
0.0
 10
48.1924072145144
 20
133.3589572149241
 30
0.0
 10
48.1924072145144
 20
134.1871581695782
 30
0.0
  0
SPLINE
  5
CF
330
1F
100
AcDbEntity
  8
0
  6
K5LT32768
 62
     7
370
    15
100
AcDbSpline
210
0.0
220
0.0
230
1.0
 70
     8
 71
     3
 72
    11
 73
     7
 74
     0
 42
0.0
 43
0.0
 12
1.0
 22
0.0
 32
0.0
 13
1.0
 23
0.0
 33
0.0
 40
0.0
 40
0.0
 40
0.0
 40
0.0
 40
0.5
 40
0.5
 40
0.5
 40
1.0
 40
1.0
 40
1.0
 40
1.0
 10
48.1924072145144
 20
134.1871581695782
 30
0.0
 10
48.1924072145144
 20
135.0153591242323
 30
0.0
 10
47.52130261398773
 20
135.687152743856
 30
0.0
 10
46.69241264023662
 20
135.687152743856
 30
0.0
 10
45.86421168558257
 20
135.687152743856
 30
0.0
 10
45.19241806595884
 20
135.0153591242323
 30
0.0
 10
45.19241806595884
 20
134.1871581695782
 30
0.0
  0
SPLINE
  5
D0
330
1F
100
AcDbEntity
  8
0
  6
K5LT32768
 62
     7
370
    15
100
AcDbSpline
210
0.0
220
0.0
230
1.0
 70
     8
 71
     3
 72
    10
 73
     6
 74
     0
 42
0.0
 43
0.0
 12
1.0
 22
0.0
 32
0.0
 13
1.0
 23
0.0
 33
0.0
 40
0.0
 40
0.0
 40
0.0
 40
0.0
 40
0.5
 40
0.5
 40
1.0
 40
1.0
 40
1.0
 40
1.0
 10
7.75869954233116
 20
294.6998412349188
 30
0.0
 10
7.75869954233116
 20
293.8712957707162
 30
0.0
 10
8.430493161954878
 20
293.199846660641
 30
0.0
 10
10.086895071263
 20
293.199846660641
 30
0.0
 10
10.75868869088672
 20
293.8712957707162
 30
0.0
 10
10.75868869088672
 20
294.6998412349188
 30
0.0
  0
SPLINE
  5
D1
330
1F
100
AcDbEntity
  8
0
  6
K5LT32768
 62
     7
370
    15
100
AcDbSpline
210
0.0
220
0.0
230
1.0
 70
     8
 71
     3
 72
    10
 73
     6
 74
     0
 42
0.0
 43
0.0
 12
1.0
 22
0.0
 32
0.0
 13
1.0
 23
0.0
 33
0.0
 40
0.0
 40
0.0
 40
0.0
 40
0.0
 40
0.5
 40
0.5
 40
1.0
 40
1.0
 40
1.0
 40
1.0
 10
10.75868869088672
 20
294.6998412349188
 30
0.0
 10
10.75868869088672
 20
295.5280421895729
 30
0.0
 10
10.086895071263
 20
296.1998358091966
 30
0.0
 10
8.430493161954878
 20
296.1998358091966
 30
0.0
 10
7.75869954233116
 20
295.5280421895729
 30
0.0
 10
7.75869954233116
 20
294.6998412349188
 30
0.0
  0
SPLINE
  5
D2
330
1F
100
AcDbEntity
  8
0
  6
K5LT32768
 62
     7
370
    15
100
AcDbSpline
210
0.0
220
0.0
230
1.0
 70
     8
 71
     3
 72
    11
 73
     7
 74
     0
 42
0.0
 43
0.0
 12
1.0
 22
0.0
 32
0.0
 13
1.0
 23
0.0
 33
0.0
 40
0.0
 40
0.0
 40
0.0
 40
0.0
 40
0.5
 40
0.5
 40
0.5
 40
1.0
 40
1.0
 40
1.0
 40
1.0
 10
21.78919541555965
 20
35.10276691830764
 30
0.0
 10
22.61808538931076
 20
35.10276691830764
 30
0.0
 10
23.28918998983742
 20
35.77456053793136
 30
0.0
 10
23.28918998983742
 20
36.60276149258542
 30
0.0
 10
23.28918998983742
 20
37.43165146633653
 30
0.0
 10
22.61808538931076
 20
38.1027560668632
 30
0.0
 10
21.78919541555965
 20
38.1027560668632
 30
0.0
  0
LINE
  5
D3
330
1F
100
AcDbEntity
  8
0
  6
K5LT32768
 62
     7
370
    15
100
AcDbLine
 10
6.7894219276
 20
35.1027669183
 30
0.0
 11
21.7891954156
 21
35.1027669183
 31
0.0
  0
SPLINE
  5
D4
330
1F
100
AcDbEntity
  8
0
  6
K5LT32768
 62
     7
370
    15
100
AcDbSpline
210
0.0
220
0.0
230
1.0
 70
     8
 71
     3
 72
    11
 73
     7
 74
     0
 42
0.0
 43
0.0
 12
1.0
 22
0.0
 32
0.0
 13
1.0
 23
0.0
 33
0.0
 40
0.0
 40
0.0
 40
0.0
 40
0.0
 40
0.5
 40
0.5
 40
0.5
 40
1.0
 40
1.0
 40
1.0
 40
1.0
 10
6.789421927556117
 20
38.1027560668632
 30
0.0
 10
5.961048718127794
 20
38.1027560668632
 30
0.0
 10
5.289427353278338
 20
37.43165146633653
 30
0.0
 10
5.289427353278338
 20
36.60276149258542
 30
0.0
 10
5.289427353278338
 20
35.77456053793136
 30
0.0
 10
5.961048718127794
 20
35.10276691830764
 30
0.0
 10
6.789421927556117
 20
35.10276691830764
 30
0.0
  0
LINE
  5
D5
330
1F
100
AcDbEntity
  8
0
  6
K5LT32768
 62
     7
370
    15
100
AcDbLine
 10
21.7891954156
 20
38.1027560669
 30
0.0
 11
6.7894219276
 21
38.1027560669
 31
0.0
  0
SPLINE
  5
D6
330
1F
100
AcDbEntity
  8
0
  6
K5LT32768
 62
     7
370
    15
100
AcDbSpline
210
0.0
220
0.0
230
1.0
 70
     8
 71
     3
 72
    11
 73
     7
 74
     0
 42
0.0
 43
0.0
 12
1.0
 22
0.0
 32
0.0
 13
1.0
 23
0.0
 33
0.0
 40
0.0
 40
0.0
 40
0.0
 40
0.0
 40
0.5
 40
0.5
 40
0.5
 40
1.0
 40
1.0
 40
1.0
 40
1.0
 10
21.78919541555965
 20
65.10265840386323
 30
0.0
 10
22.61808538931076
 20
65.10265840386323
 30
0.0
 10
23.28918998983742
 20
65.77445202348694
 30
0.0
 10
23.28918998983742
 20
66.60265297814101
 30
0.0
 10
23.28918998983742
 20
67.43154295189211
 30
0.0
 10
22.61808538931076
 20
68.10264755241879
 30
0.0
 10
21.78919541555965
 20
68.10264755241879
 30
0.0
  0
LINE
  5
D7
330
1F
100
AcDbEntity
  8
0
  6
K5LT32768
 62
     7
370
    15
100
AcDbLine
 10
6.7894219276
 20
65.1026584039
 30
0.0
 11
21.7891954156
 21
65.1026584039
 31
0.0
  0
SPLINE
  5
D8
330
1F
100
AcDbEntity
  8
0
  6
K5LT32768
 62
     7
370
    15
100
AcDbSpline
210
0.0
220
0.0
230
1.0
 70
     8
 71
     3
 72
    11
 73
     7
 74
     0
 42
0.0
 43
0.0
 12
1.0
 22
0.0
 32
0.0
 13
1.0
 23
0.0
 33
0.0
 40
0.0
 40
0.0
 40
0.0
 40
0.0
 40
0.5
 40
0.5
 40
0.5
 40
1.0
 40
1.0
 40
1.0
 40
1.0
 10
6.789421927556117
 20
68.10264755241879
 30
0.0
 10
5.961048718127794
 20
68.10264755241879
 30
0.0
 10
5.289427353278338
 20
67.43154295189211
 30
0.0
 10
5.289427353278338
 20
66.60265297814101
 30
0.0
 10
5.289427353278338
 20
65.77445202348694
 30
0.0
 10
5.961048718127794
 20
65.10265840386323
 30
0.0
 10
6.789421927556117
 20
65.10265840386323
 30
0.0
  0
LINE
  5
D9
330
1F
100
AcDbEntity
  8
0
  6
K5LT32768
 62
     7
370
    15
100
AcDbLine
 10
21.7891954156
 20
68.1026475524
 30
0.0
 11
6.7894219276
 21
68.1026475524
 31
0.0
  0
SPLINE
  5
DA
330
1F
100
AcDbEntity
  8
0
  6
K5LT32768
 62
     7
370
    15
100
AcDbSpline
210
0.0
220
0.0
230
1.0
 70
     8
 71
     3
 72
    11
 73
     7
 74
     0
 42
0.0
 43
0.0
 12
1.0
 22
0.0
 32
0.0
 13
1.0
 23
0.0
 33
0.0
 40
0.0
 40
0.0
 40
0.0
 40
0.0
 40
0.5
 40
0.5
 40
0.5
 40
1.0
 40
1.0
 40
1.0
 40
1.0
 10
21.78919541555965
 20
53.10270180964099
 30
0.0
 10
22.61808538931076
 20
53.10270180964099
 30
0.0
 10
23.28918998983742
 20
53.77449542926471
 30
0.0
 10
23.28918998983742
 20
54.60269638391878
 30
0.0
 10
23.28918998983742
 20
55.43158635766989
 30
0.0
 10
22.61808538931076
 20
56.10269095819655
 30
0.0
 10
21.78919541555965
 20
56.10269095819655
 30
0.0
  0
LINE
  5
DB
330
1F
100
AcDbEntity
  8
0
  6
K5LT32768
 62
     7
370
    15
100
AcDbLine
 10
6.7894219276
 20
53.1027018096
 30
0.0
 11
21.7891954156
 21
53.1027018096
 31
0.0
  0
SPLINE
  5
DC
330
1F
100
AcDbEntity
  8
0
  6
K5LT32768
 62
     7
370
    15
100
AcDbSpline
210
0.0
220
0.0
230
1.0
 70
     8
 71
     3
 72
    11
 73
     7
 74
     0
 42
0.0
 43
0.0
 12
1.0
 22
0.0
 32
0.0
 13
1.0
 23
0.0
 33
0.0
 40
0.0
 40
0.0
 40
0.0
 40
0.0
 40
0.5
 40
0.5
 40
0.5
 40
1.0
 40
1.0
 40
1.0
 40
1.0
 10
6.789421927556117
 20
56.10269095819655
 30
0.0
 10
5.961048718127794
 20
56.10269095819655
 30
0.0
 10
5.289427353278338
 20
55.43158635766989
 30
0.0
 10
5.289427353278338
 20
54.60269638391878
 30
0.0
 10
5.289427353278338
 20
53.77449542926471
 30
0.0
 10
5.961048718127794
 20
53.10270180964099
 30
0.0
 10
6.789421927556117
 20
53.10270180964099
 30
0.0
  0
LINE
  5
DD
330
1F
100
AcDbEntity
  8
0
  6
K5LT32768
 62
     7
370
    15
100
AcDbLine
 10
21.7891954156
 20
56.1026909582
 30
0.0
 11
6.7894219276
 21
56.1026909582
 31
0.0
  0
SPLINE
  5
DE
330
1F
100
AcDbEntity
  8
0
  6
K5LT32768
 62
     7
370
    15
100
AcDbSpline
210
0.0
220
0.0
230
1.0
 70
     8
 71
     3
 72
    11
 73
     7
 74
     0
 42
0.0
 43
0.0
 12
1.0
 22
0.0
 32
0.0
 13
1.0
 23
0.0
 33
0.0
 40
0.0
 40
0.0
 40
0.0
 40
0.0
 40
0.5
 40
0.5
 40
0.5
 40
1.0
 40
1.0
 40
1.0
 40
1.0
 10
27.78917371267076
 20
28.60256075673825
 30
0.0
 10
27.78917371267076
 20
27.77435980208419
 30
0.0
 10
28.46096733229448
 20
27.10256618246047
 30
0.0
 10
29.28916828694854
 20
27.10256618246047
 30
0.0
 10
30.11805826069966
 20
27.10256618246047
 30
0.0
 10
30.78916286122632
 20
27.77435980208419
 30
0.0
 10
30.78916286122632
 20
28.60256075673825
 30
0.0
  0
LINE
  5
DF
330
1F
100
AcDbEntity
  8
0
  6
K5LT32768
 62
     7
370
    15
100
AcDbLine
 10
27.7891737127
 20
68.6028754169
 30
0.0
 11
27.7891737127
 21
28.6025607567
 31
0.0
  0
SPLINE
  5
E0
330
1F
100
AcDbEntity
  8
0
  6
K5LT32768
 62
     7
370
    15
100
AcDbSpline
210
0.0
220
0.0
230
1.0
 70
     8
 71
     3
 72
    11
 73
     7
 74
     0
 42
0.0
 43
0.0
 12
1.0
 22
0.0
 32
0.0
 13
1.0
 23
0.0
 33
0.0
 40
0.0
 40
0.0
 40
0.0
 40
0.0
 40
0.5
 40
0.5
 40
0.5
 40
1.0
 40
1.0
 40
1.0
 40
1.0
 10
30.78916286122632
 20
68.60287541687707
 30
0.0
 10
30.78916286122632
 20
69.43107637153112
 30
0.0
 10
30.11805826069966
 20
70.10286999115485
 30
0.0
 10
29.28916828694854
 20
70.10286999115485
 30
0.0
 10
28.46096733229448
 20
70.10286999115485
 30
0.0
 10
27.78917371267076
 20
69.43107637153112
 30
0.0
 10
27.78917371267076
 20
68.60287541687707
 30
0.0
  0
LINE
  5
E1
330
1F
100
AcDbEntity
  8
0
  6
K5LT32768
 62
     7
370
    15
100
AcDbLine
 10
30.7891628612
 20
28.6025607567
 30
0.0
 11
30.7891628612
 21
68.6028754169
 31
0.0
  0
SPLINE
  5
E2
330
1F
100
AcDbEntity
  8
0
  6
K5LT32768
 62
     7
370
    15
100
AcDbSpline
210
0.0
220
0.0
230
1.0
 70
     8
 71
     3
 72
     8
 73
     4
 74
     0
 42
0.0
 43
0.0
 12
1.0
 22
0.0
 32
0.0
 13
1.0
 23
0.0
 33
0.0
 40
0.0
 40
0.0
 40
0.0
 40
0.0
 40
1.0
 40
1.0
 40
1.0
 40
1.0
 10
1.897730848049873
 20
270.8282578532999
 30
0.0
 10
0.7932332354787751
 20
270.8282578532999
 30
0.0
 10
-0.1023193359119202
 20
269.9327052819092
 30
0.0
 10
-0.1023193359119202
 20
268.8282076693381
 30
0.0
  0
LINE
  5
E3
330
1F
100
AcDbEntity
  8
0
  6
K5LT32768
 62
     7
370
    15
100
AcDbLine
 10
26.698456482
 20
270.8282578533
 30
0.0
 11
1.897730848
 21
270.8282578533
 31
0.0
  0
SPLINE
  5
E4
330
1F
100
AcDbEntity
  8
0
  6
K5LT32768
 62
     7
370
    15
100
AcDbSpline
210
0.0
220
0.0
230
1.0
 70
     8
 71
     3
 72
     8
 73
     4
 74
     0
 42
0.0
 43
0.0
 12
1.0
 22
0.0
 32
0.0
 13
1.0
 23
0.0
 33
0.0
 40
0.0
 40
0.0
 40
0.0
 40
0.0
 40
1.0
 40
1.0
 40
1.0
 40
1.0
 10
28.69867892077673
 20
268.8282076693381
 30
0.0
 10
28.69867892077673
 20
269.9327052819092
 30
0.0
 10
27.80295409461176
 20
270.8282578532999
 30
0.0
 10
26.69845648204067
 20
270.8282578532999
 30
0.0
  0
LINE
  5
E5
330
1F
100
AcDbEntity
  8
0
  6
K5LT32768
 62
     7
370
    15
100
AcDbLine
 10
28.6986789208
 20
243.9926865709
 30
0.0
 11
28.6986789208
 21
268.8282076693
 31
0.0
  0
SPLINE
  5
E6
330
1F
100
AcDbEntity
  8
0
  6
K5LT32768
 62
     7
370
    15
100
AcDbSpline
210
0.0
220
0.0
230
1.0
 70
     8
 71
     3
 72
     8
 73
     4
 74
     0
 42
0.0
 43
0.0
 12
1.0
 22
0.0
 32
0.0
 13
1.0
 23
0.0
 33
0.0
 40
0.0
 40
0.0
 40
0.0
 40
0.0
 40
1.0
 40
1.0
 40
1.0
 40
1.0
 10
26.69845648204067
 20
241.9928086417588
 30
0.0
 10
27.80295409461176
 20
241.9928086417588
 30
0.0
 10
28.69867892077673
 20
242.8881889583752
 30
0.0
 10
28.69867892077673
 20
243.9926865709463
 30
0.0
  0
LINE
  5
E7
330
1F
100
AcDbEntity
  8
0
  6
K5LT32768
 62
     7
370
    15
100
AcDbLine
 10
1.897730848
 20
241.9928086418
 30
0.0
 11
26.698456482
 21
241.9928086418
 31
0.0
  0
SPLINE
  5
E8
330
1F
100
AcDbEntity
  8
0
  6
K5LT32768
 62
     7
370
    15
100
AcDbSpline
210
0.0
220
0.0
230
1.0
 70
     8
 71
     3
 72
     8
 73
     4
 74
     0
 42
0.0
 43
0.0
 12
1.0
 22
0.0
 32
0.0
 13
1.0
 23
0.0
 33
0.0
 40
0.0
 40
0.0
 40
0.0
 40
0.0
 40
1.0
 40
1.0
 40
1.0
 40
1.0
 10
-0.1023193359119202
 20
243.9926865709463
 30
0.0
 10
-0.1023193359119202
 20
242.8881889583752
 30
0.0
 10
0.7932332354787751
 20
241.9928086417588
 30
0.0
 10
1.897730848049873
 20
241.9928086417588
 30
0.0
  0
LINE
  5
E9
330
1F
100
AcDbEntity
  8
0
  6
K5LT32768
 62
     7
370
    15
100
AcDbLine
 10
-0.1023193359
 20
268.8282076693
 30
0.0
 11
-0.1023193359
 21
243.9926865709
 31
0.0
  0
SPLINE
  5
EA
330
1F
100
AcDbEntity
  8
0
  6
K5LT32768
 62
     7
370
    15
100
AcDbSpline
210
0.0
220
0.0
230
1.0
 70
     8
 71
     3
 72
     8
 73
     4
 74
     0
 42
0.0
 43
0.0
 12
1.0
 22
0.0
 32
0.0
 13
1.0
 23
0.0
 33
0.0
 40
0.0
 40
0.0
 40
0.0
 40
0.0
 40
1.0
 40
1.0
 40
1.0
 40
1.0
 10
-1.710489908426544
 20
238.9016967176183
 30
0.0
 10
-0.8821166989982209
 20
238.9016967176183
 30
0.0
 10
-0.2104953341487651
 20
239.5733180824678
 30
0.0
 10
-0.2104953341487651
 20
240.4016912918961
 30
0.0
  0
SPLINE
  5
EB
330
1F
100
AcDbEntity
  8
0
  6
K5LT32768
 62
     7
370
    15
100
AcDbSpline
210
0.0
220
0.0
230
1.0
 70
     8
 71
     3
 72
     8
 73
     4
 74
     0
 42
0.0
 43
0.0
 12
1.0
 22
0.0
 32
0.0
 13
1.0
 23
0.0
 33
0.0
 40
0.0
 40
0.0
 40
0.0
 40
0.0
 40
1.0
 40
1.0
 40
1.0
 40
1.0
 10
-3.210484482704323
 20
240.4016912918961
 30
0.0
 10
-3.210484482704323
 20
239.5733180824678
 30
0.0
 10
-2.53903537262913
 20
238.9016967176183
 30
0.0
 10
-1.710489908426544
 20
238.9016967176183
 30
0.0
  0
SPLINE
  5
EC
330
1F
100
AcDbEntity
  8
0
  6
K5LT32768
 62
     7
370
    15
100
AcDbSpline
210
0.0
220
0.0
230
1.0
 70
     8
 71
     3
 72
     8
 73
     4
 74
     0
 42
0.0
 43
0.0
 12
1.0
 22
0.0
 32
0.0
 13
1.0
 23
0.0
 33
0.0
 40
0.0
 40
0.0
 40
0.0
 40
0.0
 40
1.0
 40
1.0
 40
1.0
 40
1.0
 10
-1.710489908426544
 20
241.9016858661739
 30
0.0
 10
-2.53903537262913
 20
241.9016858661739
 30
0.0
 10
-3.210484482704323
 20
241.2302367560987
 30
0.0
 10
-3.210484482704323
 20
240.4016912918961
 30
0.0
  0
SPLINE
  5
ED
330
1F
100
AcDbEntity
  8
0
  6
K5LT32768
 62
     7
370
    15
100
AcDbSpline
210
0.0
220
0.0
230
1.0
 70
     8
 71
     3
 72
     8
 73
     4
 74
     0
 42
0.0
 43
0.0
 12
1.0
 22
0.0
 32
0.0
 13
1.0
 23
0.0
 33
0.0
 40
0.0
 40
0.0
 40
0.0
 40
0.0
 40
1.0
 40
1.0
 40
1.0
 40
1.0
 10
-0.2104953341487651
 20
240.4016912918961
 30
0.0
 10
-0.2104953341487651
 20
241.2302367560987
 30
0.0
 10
-0.8821166989982209
 20
241.9016858661739
 30
0.0
 10
-1.710489908426544
 20
241.9016858661739
 30
0.0
  0
SPLINE
  5
EE
330
1F
100
AcDbEntity
  8
0
  6
K5LT32768
 62
     7
370
    15
100
AcDbSpline
210
0.0
220
0.0
230
1.0
 70
     8
 71
     3
 72
     8
 73
     4
 74
     0
 42
0.0
 43
0.0
 12
1.0
 22
0.0
 32
0.0
 13
1.0
 23
0.0
 33
0.0
 40
0.0
 40
0.0
 40
0.0
 40
0.0
 40
1.0
 40
1.0
 40
1.0
 40
1.0
 10
-1.710489908426544
 20
270.90181064191
 30
0.0
 10
-0.8821166989982209
 20
270.90181064191
 30
0.0
 10
-0.2104953341487651
 20
271.5732597519852
 30
0.0
 10
-0.2104953341487651
 20
272.4018052161878
 30
0.0
  0
SPLINE
  5
EF
330
1F
100
AcDbEntity
  8
0
  6
K5LT32768
 62
     7
370
    15
100
AcDbSpline
210
0.0
220
0.0
230
1.0
 70
     8
 71
     3
 72
     8
 73
     4
 74
     0
 42
0.0
 43
0.0
 12
1.0
 22
0.0
 32
0.0
 13
1.0
 23
0.0
 33
0.0
 40
0.0
 40
0.0
 40
0.0
 40
0.0
 40
1.0
 40
1.0
 40
1.0
 40
1.0
 10
-3.210484482704323
 20
272.4018052161878
 30
0.0
 10
-3.210484482704323
 20
271.5732597519852
 30
0.0
 10
-2.53903537262913
 20
270.90181064191
 30
0.0
 10
-1.710489908426544
 20
270.90181064191
 30
0.0
  0
SPLINE
  5
F0
330
1F
100
AcDbEntity
  8
0
  6
K5LT32768
 62
     7
370
    15
100
AcDbSpline
210
0.0
220
0.0
230
1.0
 70
     8
 71
     3
 72
     8
 73
     4
 74
     0
 42
0.0
 43
0.0
 12
1.0
 22
0.0
 32
0.0
 13
1.0
 23
0.0
 33
0.0
 40
0.0
 40
0.0
 40
0.0
 40
0.0
 40
1.0
 40
1.0
 40
1.0
 40
1.0
 10
-1.710489908426544
 20
273.9017997904655
 30
0.0
 10
-2.53903537262913
 20
273.9017997904655
 30
0.0
 10
-3.210484482704323
 20
273.2301784256161
 30
0.0
 10
-3.210484482704323
 20
272.4018052161878
 30
0.0
  0
SPLINE
  5
F1
330
1F
100
AcDbEntity
  8
0
  6
K5LT32768
 62
     7
370
    15
100
AcDbSpline
210
0.0
220
0.0
230
1.0
 70
     8
 71
     3
 72
     8
 73
     4
 74
     0
 42
0.0
 43
0.0
 12
1.0
 22
0.0
 32
0.0
 13
1.0
 23
0.0
 33
0.0
 40
0.0
 40
0.0
 40
0.0
 40
0.0
 40
1.0
 40
1.0
 40
1.0
 40
1.0
 10
-0.2104953341487651
 20
272.4018052161878
 30
0.0
 10
-0.2104953341487651
 20
273.2301784256161
 30
0.0
 10
-0.8821166989982209
 20
273.9017997904655
 30
0.0
 10
-1.710489908426544
 20
273.9017997904655
 30
0.0
  0
SPLINE
  5
F2
330
1F
100
AcDbEntity
  8
0
  6
K5LT32768
 62
     7
370
    15
100
AcDbSpline
210
0.0
220
0.0
230
1.0
 70
     8
 71
     3
 72
     8
 73
     4
 74
     0
 42
0.0
 43
0.0
 12
1.0
 22
0.0
 32
0.0
 13
1.0
 23
0.0
 33
0.0
 40
0.0
 40
0.0
 40
0.0
 40
0.0
 40
1.0
 40
1.0
 40
1.0
 40
1.0
 10
32.03973252237201
 20
160.3662665072175
 30
0.0
 10
32.86793347702607
 20
160.3662665072175
 30
0.0
 10
33.53972709664979
 20
161.0380601268412
 30
0.0
 10
33.53972709664979
 20
161.8662610814953
 30
0.0
  0
SPLINE
  5
F3
330
1F
100
AcDbEntity
  8
0
  6
K5LT32768
 62
     7
370
    15
100
AcDbSpline
210
0.0
220
0.0
230
1.0
 70
     8
 71
     3
 72
     8
 73
     4
 74
     0
 42
0.0
 43
0.0
 12
1.0
 22
0.0
 32
0.0
 13
1.0
 23
0.0
 33
0.0
 40
0.0
 40
0.0
 40
0.0
 40
0.0
 40
1.0
 40
1.0
 40
1.0
 40
1.0
 10
30.53973794809423
 20
161.8662610814953
 30
0.0
 10
30.53973794809423
 20
161.0380601268412
 30
0.0
 10
31.2108425486209
 20
160.3662665072175
 30
0.0
 10
32.03973252237201
 20
160.3662665072175
 30
0.0
  0
SPLINE
  5
F4
330
1F
100
AcDbEntity
  8
0
  6
K5LT32768
 62
     7
370
    15
100
AcDbSpline
210
0.0
220
0.0
230
1.0
 70
     8
 71
     3
 72
     8
 73
     4
 74
     0
 42
0.0
 43
0.0
 12
1.0
 22
0.0
 32
0.0
 13
1.0
 23
0.0
 33
0.0
 40
0.0
 40
0.0
 40
0.0
 40
0.0
 40
1.0
 40
1.0
 40
1.0
 40
1.0
 10
32.03973252237201
 20
163.366255655773
 30
0.0
 10
31.2108425486209
 20
163.366255655773
 30
0.0
 10
30.53973794809423
 20
162.6948065456978
 30
0.0
 10
30.53973794809423
 20
161.8662610814953
 30
0.0
  0
SPLINE
  5
F5
330
1F
100
AcDbEntity
  8
0
  6
K5LT32768
 62
     7
370
    15
100
AcDbSpline
210
0.0
220
0.0
230
1.0
 70
     8
 71
     3
 72
     8
 73
     4
 74
     0
 42
0.0
 43
0.0
 12
1.0
 22
0.0
 32
0.0
 13
1.0
 23
0.0
 33
0.0
 40
0.0
 40
0.0
 40
0.0
 40
0.0
 40
1.0
 40
1.0
 40
1.0
 40
1.0
 10
33.53972709664979
 20
161.8662610814953
 30
0.0
 10
33.53972709664979
 20
162.6948065456978
 30
0.0
 10
32.86793347702607
 20
163.366255655773
 30
0.0
 10
32.03973252237201
 20
163.366255655773
 30
0.0
  0
SPLINE
  5
F6
330
1F
100
AcDbEntity
  8
0
  6
K5LT32768
 62
     7
370
    15
100
AcDbSpline
210
0.0
220
0.0
230
1.0
 70
     8
 71
     3
 72
     8
 73
     4
 74
     0
 42
0.0
 43
0.0
 12
1.0
 22
0.0
 32
0.0
 13
1.0
 23
0.0
 33
0.0
 40
0.0
 40
0.0
 40
0.0
 40
0.0
 40
1.0
 40
1.0
 40
1.0
 40
1.0
 10
32.03973252237201
 20
221.866388562155
 30
0.0
 10
32.86793347702607
 20
221.866388562155
 30
0.0
 10
33.53972709664979
 20
222.5380099270044
 30
0.0
 10
33.53972709664979
 20
223.3663831364327
 30
0.0
  0
SPLINE
  5
F7
330
1F
100
AcDbEntity
  8
0
  6
K5LT32768
 62
     7
370
    15
100
AcDbSpline
210
0.0
220
0.0
230
1.0
 70
     8
 71
     3
 72
     8
 73
     4
 74
     0
 42
0.0
 43
0.0
 12
1.0
 22
0.0
 32
0.0
 13
1.0
 23
0.0
 33
0.0
 40
0.0
 40
0.0
 40
0.0
 40
0.0
 40
1.0
 40
1.0
 40
1.0
 40
1.0
 10
30.53973794809423
 20
223.3663831364327
 30
0.0
 10
30.53973794809423
 20
222.5380099270044
 30
0.0
 10
31.2108425486209
 20
221.866388562155
 30
0.0
 10
32.03973252237201
 20
221.866388562155
 30
0.0
  0
SPLINE
  5
F8
330
1F
100
AcDbEntity
  8
0
  6
K5LT32768
 62
     7
370
    15
100
AcDbSpline
210
0.0
220
0.0
230
1.0
 70
     8
 71
     3
 72
     8
 73
     4
 74
     0
 42
0.0
 43
0.0
 12
1.0
 22
0.0
 32
0.0
 13
1.0
 23
0.0
 33
0.0
 40
0.0
 40
0.0
 40
0.0
 40
0.0
 40
1.0
 40
1.0
 40
1.0
 40
1.0
 10
32.03973252237201
 20
224.8663777107105
 30
0.0
 10
31.2108425486209
 20
224.8663777107105
 30
0.0
 10
30.53973794809423
 20
224.194756345861
 30
0.0
 10
30.53973794809423
 20
223.3663831364327
 30
0.0
  0
SPLINE
  5
F9
330
1F
100
AcDbEntity
  8
0
  6
K5LT32768
 62
     7
370
    15
100
AcDbSpline
210
0.0
220
0.0
230
1.0
 70
     8
 71
     3
 72
     8
 73
     4
 74
     0
 42
0.0
 43
0.0
 12
1.0
 22
0.0
 32
0.0
 13
1.0
 23
0.0
 33
0.0
 40
0.0
 40
0.0
 40
0.0
 40
0.0
 40
1.0
 40
1.0
 40
1.0
 40
1.0
 10
33.53972709664979
 20
223.3663831364327
 30
0.0
 10
33.53972709664979
 20
224.194756345861
 30
0.0
 10
32.86793347702607
 20
224.8663777107105
 30
0.0
 10
32.03973252237201
 20
224.8663777107105
 30
0.0
  0
SPLINE
  5
FA
330
1F
100
AcDbEntity
  8
0
  6
K5LT32768
 62
     7
370
    15
100
AcDbSpline
210
0.0
220
0.0
230
1.0
 70
     8
 71
     3
 72
    10
 73
     6
 74
     0
 42
0.0
 43
0.0
 12
1.0
 22
0.0
 32
0.0
 13
1.0
 23
0.0
 33
0.0
 40
0.0
 40
0.0
 40
0.0
 40
0.0
 40
0.5
 40
0.5
 40
1.0
 40
1.0
 40
1.0
 40
1.0
 10
-25.13369411264019
 20
150.2132256026377
 30
0.0
 10
-27.24898274058359
 20
148.438312408637
 30
0.0
 10
-27.52459037940358
 20
145.285188765762
 30
0.0
 10
-23.97476399140214
 20
141.0546115098752
 30
0.0
 10
-20.82112358420444
 20
140.7783148519582
 30
0.0
 10
-18.70583495626104
 20
142.553917065056
 30
0.0
  0
LINE
  5
FB
330
1F
100
AcDbEntity
  8
0
  6
K5LT32768
 62
     7
370
    15
100
AcDbLine
 10
-17.7901285763
 20
156.3751233876
 30
0.0
 11
-25.1336941126
 21
150.2132256026
 31
0.0
  0
SPLINE
  5
FC
330
1F
100
AcDbEntity
  8
0
  6
K5LT32768
 62
     7
370
    15
100
AcDbSpline
210
0.0
220
0.0
230
1.0
 70
     8
 71
     3
 72
    10
 73
     6
 74
     0
 42
0.0
 43
0.0
 12
1.0
 22
0.0
 32
0.0
 13
1.0
 23
0.0
 33
0.0
 40
0.0
 40
0.0
 40
0.0
 40
0.0
 40
0.5
 40
0.5
 40
1.0
 40
1.0
 40
1.0
 40
1.0
 10
-11.36226941990249
 20
148.714609066554
 30
0.0
 10
-9.24698079195909
 20
150.4895222605547
 30
0.0
 10
-8.971373153139101
 20
153.6438516868495
 30
0.0
 10
-12.52119954114053
 20
157.8744289427363
 30
0.0
 10
-15.67483994833824
 20
158.1500365815562
 30
0.0
 10
-17.79012857628164
 20
156.3751233875555
 30
0.0
  0
LINE
  5
FD
330
1F
100
AcDbEntity
  8
0
  6
K5LT32768
 62
     7
370
    15
100
AcDbLine
 10
-18.7058349563
 20
142.5539170651
 30
0.0
 11
-11.3622694199
 21
148.7146090666
 31
0.0
  0
SPLINE
  5
FE
330
1F
100
AcDbEntity
  8
0
  6
K5LT32768
 62
     7
370
    15
100
AcDbSpline
210
0.0
220
0.0
230
1.0
 70
     8
 71
     3
 72
     8
 73
     4
 74
     0
 42
0.0
 43
0.0
 12
1.0
 22
0.0
 32
0.0
 13
1.0
 23
0.0
 33
0.0
 40
0.0
 40
0.0
 40
0.0
 40
0.0
 40
1.0
 40
1.0
 40
1.0
 40
1.0
 10
32.75906845969218
 20
292.199735441273
 30
0.0
 10
32.20647514385811
 20
292.199735441273
 30
0.0
 10
31.75861273077562
 20
291.7522175377391
 30
0.0
 10
31.75861273077562
 20
291.199624221905
 30
0.0
  0
LINE
  5
FF
330
1F
100
AcDbEntity
  8
0
  6
K5LT32768
 62
     7
370
    15
100
AcDbLine
 10
37.2590521825
 20
292.1997354413
 30
0.0
 11
32.7590684597
 21
292.1997354413
 31
0.0
  0
SPLINE
  5
100
330
1F
100
AcDbEntity
  8
0
  6
K5LT32768
 62
     7
370
    15
100
AcDbSpline
210
0.0
220
0.0
230
1.0
 70
     8
 71
     3
 72
     8
 73
     4
 74
     0
 42
0.0
 43
0.0
 12
1.0
 22
0.0
 32
0.0
 13
1.0
 23
0.0
 33
0.0
 40
0.0
 40
0.0
 40
0.0
 40
0.0
 40
1.0
 40
1.0
 40
1.0
 40
1.0
 10
39.25858560216452
 20
290.1998575120855
 30
0.0
 10
39.25858560216452
 20
291.3043551246566
 30
0.0
 10
38.36354979509662
 20
292.199735441273
 30
0.0
 10
37.25905218252552
 20
292.199735441273
 30
0.0
  0
LINE
  5
101
330
1F
100
AcDbEntity
  8
0
  6
K5LT32768
 62
     7
370
    15
100
AcDbLine
 10
39.2585856022
 20
282.1996567762
 30
0.0
 11
39.2585856022
 21
290.1998575121
 31
0.0
  0
SPLINE
  5
102
330
1F
100
AcDbEntity
  8
0
  6
K5LT32768
 62
     7
370
    15
100
AcDbSpline
210
0.0
220
0.0
230
1.0
 70
     8
 71
     3
 72
     8
 73
     4
 74
     0
 42
0.0
 43
0.0
 12
1.0
 22
0.0
 32
0.0
 13
1.0
 23
0.0
 33
0.0
 40
0.0
 40
0.0
 40
0.0
 40
0.0
 40
1.0
 40
1.0
 40
1.0
 40
1.0
 10
37.25905218252552
 20
280.1997788470508
 30
0.0
 10
38.36354979509662
 20
280.1997788470508
 30
0.0
 10
39.25858560216452
 20
281.0951591636672
 30
0.0
 10
39.25858560216452
 20
282.1996567762383
 30
0.0
  0
LINE
  5
103
330
1F
100
AcDbEntity
  8
0
  6
K5LT32768
 62
     7
370
    15
100
AcDbLine
 10
21.2586507108
 20
280.1997788471
 30
0.0
 11
37.2590521825
 21
280.1997788471
 31
0.0
  0
SPLINE
  5
104
330
1F
100
AcDbEntity
  8
0
  6
K5LT32768
 62
     7
370
    15
100
AcDbSpline
210
0.0
220
0.0
230
1.0
 70
     8
 71
     3
 72
     8
 73
     4
 74
     0
 42
0.0
 43
0.0
 12
1.0
 22
0.0
 32
0.0
 13
1.0
 23
0.0
 33
0.0
 40
0.0
 40
0.0
 40
0.0
 40
0.0
 40
1.0
 40
1.0
 40
1.0
 40
1.0
 10
19.25842827209512
 20
282.1996567762383
 30
0.0
 10
19.25842827209512
 20
281.0951591636672
 30
0.0
 10
20.15415309826007
 20
280.1997788470508
 30
0.0
 10
21.25865071083117
 20
280.1997788470508
 30
0.0
  0
LINE
  5
105
330
1F
100
AcDbEntity
  8
0
  6
K5LT32768
 62
     7
370
    15
100
AcDbLine
 10
19.2584282721
 20
290.1998575121
 30
0.0
 11
19.2584282721
 21
282.1996567762
 31
0.0
  0
SPLINE
  5
106
330
1F
100
AcDbEntity
  8
0
  6
K5LT32768
 62
     7
370
    15
100
AcDbSpline
210
0.0
220
0.0
230
1.0
 70
     8
 71
     3
 72
     8
 73
     4
 74
     0
 42
0.0
 43
0.0
 12
1.0
 22
0.0
 32
0.0
 13
1.0
 23
0.0
 33
0.0
 40
0.0
 40
0.0
 40
0.0
 40
0.0
 40
1.0
 40
1.0
 40
1.0
 40
1.0
 10
21.25865071083117
 20
292.199735441273
 30
0.0
 10
20.15415309826007
 20
292.199735441273
 30
0.0
 10
19.25842827209512
 20
291.3043551246566
 30
0.0
 10
19.25842827209512
 20
290.1998575120855
 30
0.0
  0
LINE
  5
107
330
1F
100
AcDbEntity
  8
0
  6
K5LT32768
 62
     7
370
    15
100
AcDbLine
 10
25.7586344337
 20
292.1997354413
 30
0.0
 11
21.2586507108
 21
292.1997354413
 31
0.0
  0
SPLINE
  5
108
330
1F
100
AcDbEntity
  8
0
  6
K5LT32768
 62
     7
370
    15
100
AcDbSpline
210
0.0
220
0.0
230
1.0
 70
     8
 71
     3
 72
     8
 73
     4
 74
     0
 42
0.0
 43
0.0
 12
1.0
 22
0.0
 32
0.0
 13
1.0
 23
0.0
 33
0.0
 40
0.0
 40
0.0
 40
0.0
 40
0.0
 40
1.0
 40
1.0
 40
1.0
 40
1.0
 10
26.75840114348401
 20
291.199624221905
 30
0.0
 10
26.75840114348401
 20
291.7522175377391
 30
0.0
 10
26.31122774949858
 20
292.199735441273
 30
0.0
 10
25.75863443366451
 20
292.199735441273
 30
0.0
  0
LINE
  5
109
330
1F
100
AcDbEntity
  8
0
  6
K5LT32768
 62
     7
370
    15
100
AcDbLine
 10
26.7584011435
 20
288.8693616357
 30
0.0
 11
26.7584011435
 21
291.1996242219
 31
0.0
  0
SPLINE
  5
10A
330
1F
100
AcDbEntity
  8
0
  6
K5LT32768
 62
     7
370
    15
100
AcDbSpline
210
0.0
220
0.0
230
1.0
 70
     8
 71
     3
 72
     8
 73
     4
 74
     0
 42
0.0
 43
0.0
 12
1.0
 22
0.0
 32
0.0
 13
1.0
 23
0.0
 33
0.0
 40
0.0
 40
0.0
 40
0.0
 40
0.0
 40
1.0
 40
1.0
 40
1.0
 40
1.0
 10
25.75863443366451
 20
287.8692504163139
 30
0.0
 10
26.31122774949858
 20
287.8692504163139
 30
0.0
 10
26.75840114348401
 20
288.3167683198479
 30
0.0
 10
26.75840114348401
 20
288.869361635682
 30
0.0
  0
LINE
  5
10B
330
1F
100
AcDbEntity
  8
0
  6
K5LT32768
 62
     7
370
    15
100
AcDbLine
 10
24.2586398594
 20
287.8692504163
 30
0.0
 11
25.7586344337
 21
287.8692504163
 31
0.0
  0
SPLINE
  5
10C
330
1F
100
AcDbEntity
  8
0
  6
K5LT32768
 62
     7
370
    15
100
AcDbSpline
210
0.0
220
0.0
230
1.0
 70
     8
 71
     3
 72
     8
 73
     4
 74
     0
 42
0.0
 43
0.0
 12
1.0
 22
0.0
 32
0.0
 13
1.0
 23
0.0
 33
0.0
 40
0.0
 40
0.0
 40
0.0
 40
0.0
 40
1.0
 40
1.0
 40
1.0
 40
1.0
 10
23.25887314956723
 20
286.869139196946
 30
0.0
 10
23.25887314956723
 20
287.4213880032315
 30
0.0
 10
23.7067355626497
 20
287.8692504163139
 30
0.0
 10
24.25863985938673
 20
287.8692504163139
 30
0.0
  0
LINE
  5
10D
330
1F
100
AcDbEntity
  8
0
  6
K5LT32768
 62
     7
370
    15
100
AcDbLine
 10
23.2588731496
 20
285.1996459248
 30
0.0
 11
23.2588731496
 21
286.8691391969
 31
0.0
  0
SPLINE
  5
10E
330
1F
100
AcDbEntity
  8
0
  6
K5LT32768
 62
     7
370
    15
100
AcDbSpline
210
0.0
220
0.0
230
1.0
 70
     8
 71
     3
 72
     8
 73
     4
 74
     0
 42
0.0
 43
0.0
 12
1.0
 22
0.0
 32
0.0
 13
1.0
 23
0.0
 33
0.0
 40
0.0
 40
0.0
 40
0.0
 40
0.0
 40
1.0
 40
1.0
 40
1.0
 40
1.0
 10
24.25863985938673
 20
284.1998792149744
 30
0.0
 10
23.7067355626497
 20
284.1998792149744
 30
0.0
 10
23.25887314956723
 20
284.6473971185084
 30
0.0
 10
23.25887314956723
 20
285.1996459247939
 30
0.0
  0
LINE
  5
10F
330
1F
100
AcDbEntity
  8
0
  6
K5LT32768
 62
     7
370
    15
100
AcDbLine
 10
34.259063034
 20
284.199879215
 30
0.0
 11
24.2586398594
 21
284.199879215
 31
0.0
  0
SPLINE
  5
110
330
1F
100
AcDbEntity
  8
0
  6
K5LT32768
 62
     7
370
    15
100
AcDbSpline
210
0.0
220
0.0
230
1.0
 70
     8
 71
     3
 72
     8
 73
     4
 74
     0
 42
0.0
 43
0.0
 12
1.0
 22
0.0
 32
0.0
 13
1.0
 23
0.0
 33
0.0
 40
0.0
 40
0.0
 40
0.0
 40
0.0
 40
1.0
 40
1.0
 40
1.0
 40
1.0
 10
35.25882974378946
 20
285.1996459247939
 30
0.0
 10
35.25882974378946
 20
284.6473971185084
 30
0.0
 10
34.81096733070698
 20
284.1998792149744
 30
0.0
 10
34.25906303396996
 20
284.1998792149744
 30
0.0
  0
LINE
  5
111
330
1F
100
AcDbEntity
  8
0
  6
K5LT32768
 62
     7
370
    15
100
AcDbLine
 10
35.2588297438
 20
286.8691391969
 30
0.0
 11
35.2588297438
 21
285.1996459248
 31
0.0
  0
SPLINE
  5
112
330
1F
100
AcDbEntity
  8
0
  6
K5LT32768
 62
     7
370
    15
100
AcDbSpline
210
0.0
220
0.0
230
1.0
 70
     8
 71
     3
 72
     8
 73
     4
 74
     0
 42
0.0
 43
0.0
 12
1.0
 22
0.0
 32
0.0
 13
1.0
 23
0.0
 33
0.0
 40
0.0
 40
0.0
 40
0.0
 40
0.0
 40
1.0
 40
1.0
 40
1.0
 40
1.0
 10
34.25906303396996
 20
287.8692504163139
 30
0.0
 10
34.81096733070698
 20
287.8692504163139
 30
0.0
 10
35.25882974378946
 20
287.4213880032315
 30
0.0
 10
35.25882974378946
 20
286.869139196946
 30
0.0
  0
LINE
  5
113
330
1F
100
AcDbEntity
  8
0
  6
K5LT32768
 62
     7
370
    15
100
AcDbLine
 10
32.7590684597
 20
287.8692504163
 30
0.0
 11
34.259063034
 21
287.8692504163
 31
0.0
  0
SPLINE
  5
114
330
1F
100
AcDbEntity
  8
0
  6
K5LT32768
 62
     7
370
    15
100
AcDbSpline
210
0.0
220
0.0
230
1.0
 70
     8
 71
     3
 72
     8
 73
     4
 74
     0
 42
0.0
 43
0.0
 12
1.0
 22
0.0
 32
0.0
 13
1.0
 23
0.0
 33
0.0
 40
0.0
 40
0.0
 40
0.0
 40
0.0
 40
1.0
 40
1.0
 40
1.0
 40
1.0
 10
31.75861273077562
 20
288.869361635682
 30
0.0
 10
31.75861273077562
 20
288.3167683198479
 30
0.0
 10
32.20647514385811
 20
287.8692504163139
 30
0.0
 10
32.75906845969218
 20
287.8692504163139
 30
0.0
  0
LINE
  5
115
330
1F
100
AcDbEntity
  8
0
  6
K5LT32768
 62
     7
370
    15
100
AcDbLine
 10
31.7586127308
 20
291.1996242219
 30
0.0
 11
31.7586127308
 21
288.8693616357
 31
0.0
  0
SPLINE
  5
116
330
1F
100
AcDbEntity
  8
0
  6
K5LT32768
 62
     7
370
    15
100
AcDbSpline
210
0.0
220
0.0
230
1.0
 70
     8
 71
     3
 72
    10
 73
     6
 74
     0
 42
0.0
 43
0.0
 12
1.0
 22
0.0
 32
0.0
 13
1.0
 23
0.0
 33
0.0
 40
0.0
 40
0.0
 40
0.0
 40
0.0
 40
0.5
 40
0.5
 40
1.0
 40
1.0
 40
1.0
 40
1.0
 10
-16.74144151057158
 20
22.187103944106
 30
0.0
 10
-18.95043673571378
 20
22.187103944106
 30
0.0
 10
-20.74119736894665
 20
20.39634331087314
 30
0.0
 10
-20.74119736894665
 20
15.97835286058875
 30
0.0
 10
-18.95043673571378
 20
14.18690320825883
 30
0.0
 10
-16.74144151057158
 20
14.18690320825883
 30
0.0
  0
LINE
  5
117
330
1F
100
AcDbEntity
  8
0
  6
K5LT32768
 62
     7
370
    15
100
AcDbLine
 10
-16.7414415106
 20
14.1869032083
 30
0.0
 11
45.2585638993
 21
14.1869032083
 31
0.0
  0
SPLINE
  5
118
330
1F
100
AcDbEntity
  8
0
  6
K5LT32768
 62
     7
370
    15
100
AcDbSpline
210
0.0
220
0.0
230
1.0
 70
     8
 71
     3
 72
    10
 73
     6
 74
     0
 42
0.0
 43
0.0
 12
1.0
 22
0.0
 32
0.0
 13
1.0
 23
0.0
 33
0.0
 40
0.0
 40
0.0
 40
0.0
 40
0.0
 40
0.5
 40
0.5
 40
1.0
 40
1.0
 40
1.0
 40
1.0
 10
45.25856389927564
 20
14.18690320825883
 30
0.0
 10
47.46755912441783
 20
14.18690320825883
 30
0.0
 10
49.25900877674775
 20
15.97835286058875
 30
0.0
 10
49.25900877674775
 20
20.39634331087314
 30
0.0
 10
47.46755912441783
 20
22.187103944106
 30
0.0
 10
45.25856389927564
 20
22.187103944106
 30
0.0
  0
LINE
  5
119
330
1F
100
AcDbEntity
  8
0
  6
K5LT32768
 62
     7
370
    15
100
AcDbLine
 10
45.2585638993
 20
22.1871039441
 30
0.0
 11
44.2587971895
 21
22.1871039441
 31
0.0
  0
SPLINE
  5
11A
330
1F
100
AcDbEntity
  8
0
  6
K5LT32768
 62
     7
370
    15
100
AcDbSpline
210
0.0
220
0.0
230
1.0
 70
     8
 71
     3
 72
     8
 73
     4
 74
     0
 42
0.0
 43
0.0
 12
1.0
 22
0.0
 32
0.0
 13
1.0
 23
0.0
 33
0.0
 40
0.0
 40
0.0
 40
0.0
 40
0.0
 40
1.0
 40
1.0
 40
1.0
 40
1.0
 10
44.25879718945614
 20
22.187103944106
 30
0.0
 10
42.60170626105096
 20
22.187103944106
 30
0.0
 10
41.25880804090058
 20
23.53000216425639
 30
0.0
 10
41.25880804090058
 20
25.18709309266156
 30
0.0
  0
LINE
  5
11B
330
1F
100
AcDbEntity
  8
0
  6
K5LT32768
 62
     7
370
    15
100
AcDbLine
 10
41.2588080409
 20
25.1870930927
 30
0.0
 11
41.2588080409
 21
72.1871527597
 31
0.0
  0
SPLINE
  5
11C
330
1F
100
AcDbEntity
  8
0
  6
K5LT32768
 62
     7
370
    15
100
AcDbSpline
210
0.0
220
0.0
230
1.0
 70
     8
 71
     3
 72
     8
 73
     4
 74
     0
 42
0.0
 43
0.0
 12
1.0
 22
0.0
 32
0.0
 13
1.0
 23
0.0
 33
0.0
 40
0.0
 40
0.0
 40
0.0
 40
0.0
 40
1.0
 40
1.0
 40
1.0
 40
1.0
 10
41.25880804090058
 20
72.18715275973099
 30
0.0
 10
41.25880804090058
 20
73.84424368813616
 30
0.0
 10
42.60170626105096
 20
75.18714190828656
 30
0.0
 10
44.25879718945614
 20
75.18714190828656
 30
0.0
  0
LINE
  5
11D
330
1F
100
AcDbEntity
  8
0
  6
K5LT32768
 62
     7
370
    15
100
AcDbLine
 10
44.2587971895
 20
75.1871419083
 30
0.0
 11
45.2585638993
 21
75.1871419083
 31
0.0
  0
SPLINE
  5
11E
330
1F
100
AcDbEntity
  8
0
  6
K5LT32768
 62
     7
370
    15
100
AcDbSpline
210
0.0
220
0.0
230
1.0
 70
     8
 71
     3
 72
    11
 73
     7
 74
     0
 42
0.0
 43
0.0
 12
1.0
 22
0.0
 32
0.0
 13
1.0
 23
0.0
 33
0.0
 40
0.0
 40
0.0
 40
0.0
 40
0.0
 40
0.5
 40
0.5
 40
0.5
 40
1.0
 40
1.0
 40
1.0
 40
1.0
 10
45.25856389927564
 20
75.18714190828656
 30
0.0
 10
47.46755912441783
 20
75.18714190828656
 30
0.0
 10
49.25900877674775
 20
76.97790254151941
 30
0.0
 10
49.25900877674775
 20
79.18689776666162
 30
0.0
 10
49.25900877674775
 20
81.39658201090086
 30
0.0
 10
47.46755912441783
 20
83.18734264413374
 30
0.0
 10
45.25856389927564
 20
83.18734264413374
 30
0.0
  0
LINE
  5
11F
330
1F
100
AcDbEntity
  8
0
  6
K5LT32768
 62
     7
370
    15
100
AcDbLine
 10
45.2585638993
 20
83.1873426441
 30
0.0
 11
44.2587971895
 21
83.1873426441
 31
0.0
  0
SPLINE
  5
120
330
1F
100
AcDbEntity
  8
0
  6
K5LT32768
 62
     7
370
    15
100
AcDbSpline
210
0.0
220
0.0
230
1.0
 70
     8
 71
     3
 72
     8
 73
     4
 74
     0
 42
0.0
 43
0.0
 12
1.0
 22
0.0
 32
0.0
 13
1.0
 23
0.0
 33
0.0
 40
0.0
 40
0.0
 40
0.0
 40
0.0
 40
1.0
 40
1.0
 40
1.0
 40
1.0
 10
44.25879718945614
 20
83.18734264413374
 30
0.0
 10
42.60170626105096
 20
83.18734264413374
 30
0.0
 10
41.25880804090058
 20
84.53024086428411
 30
0.0
 10
41.25880804090058
 20
86.18733179268928
 30
0.0
  0
LINE
  5
121
330
1F
100
AcDbEntity
  8
0
  6
K5LT32768
 62
     7
370
    15
100
AcDbLine
 10
41.2588080409
 20
86.1873317927
 30
0.0
 11
41.2588080409
 21
123.6871961496
 31
0.0
  0
SPLINE
  5
122
330
1F
100
AcDbEntity
  8
0
  6
K5LT32768
 62
     7
370
    15
100
AcDbSpline
210
0.0
220
0.0
230
1.0
 70
     8
 71
     3
 72
     8
 73
     4
 74
     0
 42
0.0
 43
0.0
 12
1.0
 22
0.0
 32
0.0
 13
1.0
 23
0.0
 33
0.0
 40
0.0
 40
0.0
 40
0.0
 40
0.0
 40
1.0
 40
1.0
 40
1.0
 40
1.0
 10
41.25880804090058
 20
123.6871961496338
 30
0.0
 10
41.25880804090058
 20
125.896191374776
 30
0.0
 10
43.04956867413345
 20
127.6869520080088
 30
0.0
 10
45.25856389927564
 20
127.6869520080088
 30
0.0
  0
LINE
  5
123
330
1F
100
AcDbEntity
  8
0
  6
K5LT32768
 62
     7
370
    15
100
AcDbLine
 10
45.2585638993
 20
127.686952008
 30
0.0
 11
46.6924126402
 21
127.686952008
 31
0.0
  0
SPLINE
  5
124
330
1F
100
AcDbEntity
  8
0
  6
K5LT32768
 62
     7
370
    15
100
AcDbSpline
210
0.0
220
0.0
230
1.0
 70
     8
 71
     3
 72
     8
 73
     4
 74
     0
 42
0.0
 43
0.0
 12
1.0
 22
0.0
 32
0.0
 13
1.0
 23
0.0
 33
0.0
 40
0.0
 40
0.0
 40
0.0
 40
0.0
 40
1.0
 40
1.0
 40
1.0
 40
1.0
 10
46.69241264023662
 20
127.6869520080088
 30
0.0
 10
48.61408690190898
 20
127.6869520080088
 30
0.0
 10
50.43723143270319
 20
128.5372015737685
 30
0.0
 10
51.67195365461674
 20
130.0089463650672
 30
0.0
  0
LINE
  5
125
330
1F
100
AcDbEntity
  8
0
  6
K5LT32768
 62
     7
370
    15
100
AcDbLine
 10
51.6719536546
 20
130.0089463651
 30
0.0
 11
66.7773193192
 21
148.0109483137
 31
0.0
  0
SPLINE
  5
126
330
1F
100
AcDbEntity
  8
0
  6
K5LT32768
 62
     7
370
    15
100
AcDbSpline
210
0.0
220
0.0
230
1.0
 70
     8
 71
     3
 72
     8
 73
     4
 74
     0
 42
0.0
 43
0.0
 12
1.0
 22
0.0
 32
0.0
 13
1.0
 23
0.0
 33
0.0
 40
0.0
 40
0.0
 40
0.0
 40
0.0
 40
1.0
 40
1.0
 40
1.0
 40
1.0
 10
66.77731931924318
 20
148.0109483136917
 30
0.0
 10
68.48815373721824
 20
150.0492390575398
 30
0.0
 10
68.78305391075564
 20
152.9245157495293
 30
0.0
 10
67.52283798225123
 20
155.2678696985962
 30
0.0
  0
SPLINE
  5
127
330
1F
100
AcDbEntity
  8
0
  6
K5LT32768
 62
     7
370
    15
100
AcDbSpline
210
0.0
220
0.0
230
1.0
 70
     8
 71
     3
 72
     8
 73
     4
 74
     0
 42
0.0
 43
0.0
 12
1.0
 22
0.0
 32
0.0
 13
1.0
 23
0.0
 33
0.0
 40
0.0
 40
0.0
 40
0.0
 40
0.0
 40
1.0
 40
1.0
 40
1.0
 40
1.0
 10
67.52283798225123
 20
155.2678696985962
 30
0.0
 10
54.7436007892655
 20
179.0252481648791
 30
0.0
 10
56.75346949536026
 20
208.0109035395772
 30
0.0
 10
72.68841415283484
 20
229.7773613249341
 30
0.0
  0
SPLINE
  5
128
330
1F
100
AcDbEntity
  8
0
  6
K5LT32768
 62
     7
370
    15
100
AcDbSpline
210
0.0
220
0.0
230
1.0
 70
     8
 71
     3
 72
     8
 73
     4
 74
     0
 42
0.0
 43
0.0
 12
1.0
 22
0.0
 32
0.0
 13
1.0
 23
0.0
 33
0.0
 40
0.0
 40
0.0
 40
0.0
 40
0.0
 40
1.0
 40
1.0
 40
1.0
 40
1.0
 10
72.68841415283484
 20
229.7773613249341
 30
0.0
 10
73.96930065425074
 20
231.5278143409896
 30
0.0
 10
74.29313962986421
 20
233.801921870803
 30
0.0
 10
73.55175508143846
 20
235.8400403598768
 30
0.0
  0
LINE
  5
129
330
1F
100
AcDbEntity
  8
0
  6
K5LT32768
 62
     7
370
    15
100
AcDbLine
 10
73.5517550814
 20
235.8400403599
 30
0.0
 11
64.8618462294
 21
259.7148965822
 31
0.0
  0
SPLINE
  5
12A
330
1F
100
AcDbEntity
  8
0
  6
K5LT32768
 62
     7
370
    15
100
AcDbSpline
210
0.0
220
0.0
230
1.0
 70
     8
 71
     3
 72
     8
 73
     4
 74
     0
 42
0.0
 43
0.0
 12
1.0
 22
0.0
 32
0.0
 13
1.0
 23
0.0
 33
0.0
 40
0.0
 40
0.0
 40
0.0
 40
0.0
 40
1.0
 40
1.0
 40
1.0
 40
1.0
 10
64.86184622944427
 20
259.7148965822067
 30
0.0
 10
64.46290417225234
 20
260.8107814560647
 30
0.0
 10
64.25895451952555
 20
261.9683335391086
 30
0.0
 10
64.25895451952555
 20
263.1348428704142
 30
0.0
  0
LINE
  5
12B
330
1F
100
AcDbEntity
  8
0
  6
K5LT32768
 62
     7
370
    15
100
AcDbLine
 10
64.2589545195
 20
263.1348428704
 30
0.0
 11
64.2589545195
 21
294.6998412349
 31
0.0
  0
SPLINE
  5
12C
330
1F
100
AcDbEntity
  8
0
  6
K5LT32768
 62
     7
370
    15
100
AcDbSpline
210
0.0
220
0.0
230
1.0
 70
     8
 71
     3
 72
     8
 73
     4
 74
     0
 42
0.0
 43
0.0
 12
1.0
 22
0.0
 32
0.0
 13
1.0
 23
0.0
 33
0.0
 40
0.0
 40
0.0
 40
0.0
 40
0.0
 40
1.0
 40
1.0
 40
1.0
 40
1.0
 10
64.25895451952555
 20
294.6998412349188
 30
0.0
 10
64.25895451952555
 20
296.9090087148352
 30
0.0
 10
62.46819388629267
 20
298.6999416028424
 30
0.0
 10
60.25919866115048
 20
298.6999416028424
 30
0.0
  0
LINE
  5
12D
330
1F
100
AcDbEntity
  8
0
  6
K5LT32768
 62
     7
370
    15
100
AcDbLine
 10
60.2591986612
 20
298.6999416028
 30
0.0
 11
-5.7414238809
 21
298.6999416028
 31
0.0
  0
SPLINE
  5
12E
330
1F
100
AcDbEntity
  8
0
  6
K5LT32768
 62
     7
370
    15
100
AcDbSpline
210
0.0
220
0.0
230
1.0
 70
     8
 71
     3
 72
     8
 73
     4
 74
     0
 42
0.0
 43
0.0
 12
1.0
 22
0.0
 32
0.0
 13
1.0
 23
0.0
 33
0.0
 40
0.0
 40
0.0
 40
0.0
 40
0.0
 40
1.0
 40
1.0
 40
1.0
 40
1.0
 10
-5.741423880943117
 20
298.6999416028424
 30
0.0
 10
-8.502840167145123
 20
298.6999416028424
 30
0.0
 10
-10.74146321346047
 20
300.9385646491577
 30
0.0
 10
-10.74146321346047
 20
303.6999809353597
 30
0.0
  0
LINE
  5
12F
330
1F
100
AcDbEntity
  8
0
  6
K5LT32768
 62
     7
370
    15
100
AcDbLine
 10
-10.7414632135
 20
303.6999809354
 30
0.0
 11
-10.7414632135
 21
317.699643204
 31
0.0
  0
SPLINE
  5
130
330
1F
100
AcDbEntity
  8
0
  6
K5LT32768
 62
     7
370
    15
100
AcDbSpline
210
0.0
220
0.0
230
1.0
 70
     8
 71
     3
 72
     8
 73
     4
 74
     0
 42
0.0
 43
0.0
 12
1.0
 22
0.0
 32
0.0
 13
1.0
 23
0.0
 33
0.0
 40
0.0
 40
0.0
 40
0.0
 40
0.0
 40
1.0
 40
1.0
 40
1.0
 40
1.0
 10
-10.74146321346047
 20
317.6996432039954
 30
0.0
 10
-10.74146321346047
 20
319.3567341324004
 30
0.0
 10
-12.08436143361086
 20
320.6996323525508
 30
0.0
 10
-13.74145236201603
 20
320.6996323525508
 30
0.0
  0
LINE
  5
131
330
1F
100
AcDbEntity
  8
0
  6
K5LT32768
 62
     7
370
    15
100
AcDbLine
 10
-13.741452362
 20
320.6996323526
 30
0.0
 11
-22.7414198077
 21
320.6996323526
 31
0.0
  0
SPLINE
  5
132
330
1F
100
AcDbEntity
  8
0
  6
K5LT32768
 62
     7
370
    15
100
AcDbSpline
210
0.0
220
0.0
230
1.0
 70
     8
 71
     3
 72
     8
 73
     4
 74
     0
 42
0.0
 43
0.0
 12
1.0
 22
0.0
 32
0.0
 13
1.0
 23
0.0
 33
0.0
 40
0.0
 40
0.0
 40
0.0
 40
0.0
 40
1.0
 40
1.0
 40
1.0
 40
1.0
 10
-22.7414198076827
 20
320.6996323525508
 30
0.0
 10
-24.39851073608788
 20
320.6996323525508
 30
0.0
 10
-25.74140895623826
 20
319.3567341324004
 30
0.0
 10
-25.74140895623826
 20
317.6996432039954
 30
0.0
  0
LINE
  5
133
330
1F
100
AcDbEntity
  8
0
  6
K5LT32768
 62
     7
370
    15
100
AcDbLine
 10
-25.7414089562
 20
317.699643204
 30
0.0
 11
-25.7414089562
 21
303.6999809354
 31
0.0
  0
SPLINE
  5
134
330
1F
100
AcDbEntity
  8
0
  6
K5LT32768
 62
     7
370
    15
100
AcDbSpline
210
0.0
220
0.0
230
1.0
 70
     8
 71
     3
 72
     8
 73
     4
 74
     0
 42
0.0
 43
0.0
 12
1.0
 22
0.0
 32
0.0
 13
1.0
 23
0.0
 33
0.0
 40
0.0
 40
0.0
 40
0.0
 40
0.0
 40
1.0
 40
1.0
 40
1.0
 40
1.0
 10
-25.74140895623826
 20
303.6999809353597
 30
0.0
 10
-25.74140895623826
 20
300.9385646491577
 30
0.0
 10
-27.97985974777934
 20
298.6999416028424
 30
0.0
 10
-30.74127603398135
 20
298.6999416028424
 30
0.0
  0
LINE
  5
135
330
1F
100
AcDbEntity
  8
0
  6
K5LT32768
 62
     7
370
    15
100
AcDbLine
 10
-30.741276034
 20
298.6999416028
 30
0.0
 11
-31.7410427438
 21
298.6999416028
 31
0.0
  0
SPLINE
  5
136
330
1F
100
AcDbEntity
  8
0
  6
K5LT32768
 62
     7
370
    15
100
AcDbSpline
210
0.0
220
0.0
230
1.0
 70
     8
 71
     3
 72
     8
 73
     4
 74
     0
 42
0.0
 43
0.0
 12
1.0
 22
0.0
 32
0.0
 13
1.0
 23
0.0
 33
0.0
 40
0.0
 40
0.0
 40
0.0
 40
0.0
 40
1.0
 40
1.0
 40
1.0
 40
1.0
 10
-31.74104274380085
 20
298.6999416028424
 30
0.0
 10
-33.95021022371732
 20
298.6999416028424
 30
0.0
 10
-35.74114311172444
 20
296.9090087148352
 30
0.0
 10
-35.74114311172444
 20
294.6998412349188
 30
0.0
  0
LINE
  5
137
330
1F
100
AcDbEntity
  8
0
  6
K5LT32768
 62
     7
370
    15
100
AcDbLine
 10
-35.7411431117
 20
294.6998412349
 30
0.0
 11
-35.7411431117
 21
263.1348428704
 31
0.0
  0
SPLINE
  5
138
330
1F
100
AcDbEntity
  8
0
  6
K5LT32768
 62
     7
370
    15
100
AcDbSpline
210
0.0
220
0.0
230
1.0
 70
     8
 71
     3
 72
     8
 73
     4
 74
     0
 42
0.0
 43
0.0
 12
1.0
 22
0.0
 32
0.0
 13
1.0
 23
0.0
 33
0.0
 40
0.0
 40
0.0
 40
0.0
 40
0.0
 40
1.0
 40
1.0
 40
1.0
 40
1.0
 10
-35.74114311172444
 20
263.1348428704142
 30
0.0
 10
-35.74114311172444
 20
261.9683335391086
 30
0.0
 10
-35.94578178354828
 20
260.8107814560647
 30
0.0
 10
-36.34472384074021
 20
259.7148965822067
 30
0.0
  0
LINE
  5
139
330
1F
100
AcDbEntity
  8
0
  6
K5LT32768
 62
     7
370
    15
100
AcDbLine
 10
-36.3447238407
 20
259.7148965822
 30
0.0
 11
-45.0339436736
 21
235.8400403599
 31
0.0
  0
SPLINE
  5
13A
330
1F
100
AcDbEntity
  8
0
  6
K5LT32768
 62
     7
370
    15
100
AcDbSpline
210
0.0
220
0.0
230
1.0
 70
     8
 71
     3
 72
     8
 73
     4
 74
     0
 42
0.0
 43
0.0
 12
1.0
 22
0.0
 32
0.0
 13
1.0
 23
0.0
 33
0.0
 40
0.0
 40
0.0
 40
0.0
 40
0.0
 40
1.0
 40
1.0
 40
1.0
 40
1.0
 10
-45.03394367363735
 20
235.8400403598768
 30
0.0
 10
-45.77601724116016
 20
233.801921870803
 30
0.0
 10
-45.45217826554668
 20
231.5278143409896
 30
0.0
 10
-44.17060274503374
 20
229.7773613249341
 30
0.0
  0
SPLINE
  5
13B
330
1F
100
AcDbEntity
  8
0
  6
K5LT32768
 62
     7
370
    15
100
AcDbSpline
210
0.0
220
0.0
230
1.0
 70
     8
 71
     3
 72
     8
 73
     4
 74
     0
 42
0.0
 43
0.0
 12
1.0
 22
0.0
 32
0.0
 13
1.0
 23
0.0
 33
0.0
 40
0.0
 40
0.0
 40
0.0
 40
0.0
 40
1.0
 40
1.0
 40
1.0
 40
1.0
 10
-44.17060274503374
 20
229.7773613249341
 30
0.0
 10
-28.23565808755914
 20
208.0109035395772
 30
0.0
 10
-26.22647840056144
 20
179.0252481648791
 30
0.0
 10
-39.00502657445013
 20
155.2678696985962
 30
0.0
  0
SPLINE
  5
13C
330
1F
100
AcDbEntity
  8
0
  6
K5LT32768
 62
     7
370
    15
100
AcDbSpline
210
0.0
220
0.0
230
1.0
 70
     8
 71
     3
 72
     8
 73
     4
 74
     0
 42
0.0
 43
0.0
 12
1.0
 22
0.0
 32
0.0
 13
1.0
 23
0.0
 33
0.0
 40
0.0
 40
0.0
 40
0.0
 40
0.0
 40
1.0
 40
1.0
 40
1.0
 40
1.0
 10
-39.00502657445013
 20
155.2678696985962
 30
0.0
 10
-40.26593152205157
 20
152.9245157495293
 30
0.0
 10
-39.97034232941714
 20
150.0492390575398
 30
0.0
 10
-38.26019693053912
 20
148.0109483136917
 30
0.0
  0
LINE
  5
13D
330
1F
100
AcDbEntity
  8
0
  6
K5LT32768
 62
     7
370
    15
100
AcDbLine
 10
-38.2601969305
 20
148.0109483137
 30
0.0
 11
-23.1548312659
 21
130.0089463651
 31
0.0
  0
SPLINE
  5
13E
330
1F
100
AcDbEntity
  8
0
  6
K5LT32768
 62
     7
370
    15
100
AcDbSpline
210
0.0
220
0.0
230
1.0
 70
     8
 71
     3
 72
     8
 73
     4
 74
     0
 42
0.0
 43
0.0
 12
1.0
 22
0.0
 32
0.0
 13
1.0
 23
0.0
 33
0.0
 40
0.0
 40
0.0
 40
0.0
 40
0.0
 40
1.0
 40
1.0
 40
1.0
 40
1.0
 10
-23.15483126591268
 20
130.0089463650672
 30
0.0
 10
-21.91942002490209
 20
128.5372015737685
 30
0.0
 10
-20.09627549410787
 20
127.6869520080088
 30
0.0
 10
-18.17529025153257
 20
127.6869520080088
 30
0.0
  0
LINE
  5
13F
330
1F
100
AcDbEntity
  8
0
  6
K5LT32768
 62
     7
370
    15
100
AcDbLine
 10
-18.1752902515
 20
127.686952008
 30
0.0
 11
-16.7414415106
 21
127.686952008
 31
0.0
  0
SPLINE
  5
140
330
1F
100
AcDbEntity
  8
0
  6
K5LT32768
 62
     7
370
    15
100
AcDbSpline
210
0.0
220
0.0
230
1.0
 70
     8
 71
     3
 72
     8
 73
     4
 74
     0
 42
0.0
 43
0.0
 12
1.0
 22
0.0
 32
0.0
 13
1.0
 23
0.0
 33
0.0
 40
0.0
 40
0.0
 40
0.0
 40
0.0
 40
1.0
 40
1.0
 40
1.0
 40
1.0
 10
-16.74144151057158
 20
127.6869520080088
 30
0.0
 10
-14.53244628542939
 20
127.6869520080088
 30
0.0
 10
-12.74168565219652
 20
125.896191374776
 30
0.0
 10
-12.74168565219652
 20
123.6871961496338
 30
0.0
  0
LINE
  5
141
330
1F
100
AcDbEntity
  8
0
  6
K5LT32768
 62
     7
370
    15
100
AcDbLine
 10
-12.7416856522
 20
123.6871961496
 30
0.0
 11
-12.7416856522
 21
86.1873317927
 31
0.0
  0
SPLINE
  5
142
330
1F
100
AcDbEntity
  8
0
  6
K5LT32768
 62
     7
370
    15
100
AcDbSpline
210
0.0
220
0.0
230
1.0
 70
     8
 71
     3
 72
     8
 73
     4
 74
     0
 42
0.0
 43
0.0
 12
1.0
 22
0.0
 32
0.0
 13
1.0
 23
0.0
 33
0.0
 40
0.0
 40
0.0
 40
0.0
 40
0.0
 40
1.0
 40
1.0
 40
1.0
 40
1.0
 10
-12.74168565219652
 20
86.18733179268928
 30
0.0
 10
-12.74168565219652
 20
84.53024086428411
 30
0.0
 10
-14.08458387234691
 20
83.18734264413374
 30
0.0
 10
-15.74167480075208
 20
83.18734264413374
 30
0.0
  0
LINE
  5
143
330
1F
100
AcDbEntity
  8
0
  6
K5LT32768
 62
     7
370
    15
100
AcDbLine
 10
-15.7416748008
 20
83.1873426441
 30
0.0
 11
-16.7414415106
 21
83.1873426441
 31
0.0
  0
SPLINE
  5
144
330
1F
100
AcDbEntity
  8
0
  6
K5LT32768
 62
     7
370
    15
100
AcDbSpline
210
0.0
220
0.0
230
1.0
 70
     8
 71
     3
 72
    11
 73
     7
 74
     0
 42
0.0
 43
0.0
 12
1.0
 22
0.0
 32
0.0
 13
1.0
 23
0.0
 33
0.0
 40
0.0
 40
0.0
 40
0.0
 40
0.0
 40
0.5
 40
0.5
 40
0.5
 40
1.0
 40
1.0
 40
1.0
 40
1.0
 10
-16.74144151057158
 20
83.18734264413374
 30
0.0
 10
-18.95043673571378
 20
83.18734264413374
 30
0.0
 10
-20.74119736894665
 20
81.39658201090086
 30
0.0
 10
-20.74119736894665
 20
79.18689776666162
 30
0.0
 10
-20.74119736894665
 20
76.97790254151941
 30
0.0
 10
-18.95043673571378
 20
75.18714190828656
 30
0.0
 10
-16.74144151057158
 20
75.18714190828656
 30
0.0
  0
LINE
  5
145
330
1F
100
AcDbEntity
  8
0
  6
K5LT32768
 62
     7
370
    15
100
AcDbLine
 10
-16.7414415106
 20
75.1871419083
 30
0.0
 11
-15.7416748008
 21
75.1871419083
 31
0.0
  0
SPLINE
  5
146
330
1F
100
AcDbEntity
  8
0
  6
K5LT32768
 62
     7
370
    15
100
AcDbSpline
210
0.0
220
0.0
230
1.0
 70
     8
 71
     3
 72
     8
 73
     4
 74
     0
 42
0.0
 43
0.0
 12
1.0
 22
0.0
 32
0.0
 13
1.0
 23
0.0
 33
0.0
 40
0.0
 40
0.0
 40
0.0
 40
0.0
 40
1.0
 40
1.0
 40
1.0
 40
1.0
 10
-15.74167480075208
 20
75.18714190828656
 30
0.0
 10
-14.08458387234691
 20
75.18714190828656
 30
0.0
 10
-12.74168565219652
 20
73.84424368813616
 30
0.0
 10
-12.74168565219652
 20
72.18715275973099
 30
0.0
  0
LINE
  5
147
330
1F
100
AcDbEntity
  8
0
  6
K5LT32768
 62
     7
370
    15
100
AcDbLine
 10
-12.7416856522
 20
72.1871527597
 30
0.0
 11
-12.7416856522
 21
25.1870930927
 31
0.0
  0
SPLINE
  5
148
330
1F
100
AcDbEntity
  8
0
  6
K5LT32768
 62
     7
370
    15
100
AcDbSpline
210
0.0
220
0.0
230
1.0
 70
     8
 71
     3
 72
     8
 73
     4
 74
     0
 42
0.0
 43
0.0
 12
1.0
 22
0.0
 32
0.0
 13
1.0
 23
0.0
 33
0.0
 40
0.0
 40
0.0
 40
0.0
 40
0.0
 40
1.0
 40
1.0
 40
1.0
 40
1.0
 10
-12.74168565219652
 20
25.18709309266156
 30
0.0
 10
-12.74168565219652
 20
23.53000216425639
 30
0.0
 10
-14.08458387234691
 20
22.187103944106
 30
0.0
 10
-15.74167480075208
 20
22.187103944106
 30
0.0
  0
LINE
  5
149
330
1F
100
AcDbEntity
  8
0
  6
K5LT32768
 62
     7
370
    15
100
AcDbLine
 10
-15.7416748008
 20
22.1871039441
 30
0.0
 11
-16.7414415106
 21
22.1871039441
 31
0.0
  0
SPLINE
  5
14A
330
1F
100
AcDbEntity
  8
0
  6
K5LT32768
 62
     7
370
    15
100
AcDbSpline
210
0.0
220
0.0
230
1.0
 70
     8
 71
     3
 72
    10
 73
     6
 74
     0
 42
0.0
 43
0.0
 12
1.0
 22
0.0
 32
0.0
 13
1.0
 23
0.0
 33
0.0
 40
0.0
 40
0.0
 40
0.0
 40
0.0
 40
0.5
 40
0.5
 40
1.0
 40
1.0
 40
1.0
 40
1.0
 10
47.2229573449651
 20
142.553917065056
 30
0.0
 10
49.33824597290851
 20
140.7783148519582
 30
0.0
 10
52.49257539920325
 20
141.0546115098752
 30
0.0
 10
56.04240178720468
 20
145.285188765762
 30
0.0
 10
55.76610512928765
 20
148.438312408637
 30
0.0
 10
53.65081650134425
 20
150.2132256026377
 30
0.0
  0
LINE
  5
14B
330
1F
100
AcDbEntity
  8
0
  6
K5LT32768
 62
     7
370
    15
100
AcDbLine
 10
39.8800808277
 20
148.7146090666
 30
0.0
 11
47.222957345
 21
142.5539170651
 31
0.0
  0
SPLINE
  5
14C
330
1F
100
AcDbEntity
  8
0
  6
K5LT32768
 62
     7
370
    15
100
AcDbSpline
210
0.0
220
0.0
230
1.0
 70
     8
 71
     3
 72
    10
 73
     6
 74
     0
 42
0.0
 43
0.0
 12
1.0
 22
0.0
 32
0.0
 13
1.0
 23
0.0
 33
0.0
 40
0.0
 40
0.0
 40
0.0
 40
0.0
 40
0.5
 40
0.5
 40
1.0
 40
1.0
 40
1.0
 40
1.0
 10
46.30793998408274
 20
156.3751233875555
 30
0.0
 10
44.19265135613934
 20
158.1500365815562
 30
0.0
 10
41.03832192984459
 20
157.8744289427363
 30
0.0
 10
37.48849554184316
 20
153.6438516868495
 30
0.0
 10
37.76479219976019
 20
150.4895222605547
 30
0.0
 10
39.88008082770359
 20
148.714609066554
 30
0.0
  0
LINE
  5
14D
330
1F
100
AcDbEntity
  8
0
  6
K5LT32768
 62
     7
370
    15
100
AcDbLine
 10
53.6508165013
 20
150.2132256026
 30
0.0
 11
46.3079399841
 21
156.3751233876
 31
0.0
  0
SPLINE
  5
14E
330
1F
100
AcDbEntity
  8
0
  6
K5LT32768
 62
     7
370
    15
100
AcDbSpline
210
0.0
220
0.0
230
1.0
 70
     8
 71
     3
 72
     8
 73
     4
 74
     0
 42
0.0
 43
0.0
 12
1.0
 22
0.0
 32
0.0
 13
1.0
 23
0.0
 33
0.0
 40
0.0
 40
0.0
 40
0.0
 40
0.0
 40
1.0
 40
1.0
 40
1.0
 40
1.0
 10
-3.460598414933462
 20
221.7664807930827
 30
0.0
 10
-2.576931422966878
 20
221.7664807930827
 30
0.0
 10
-1.860523816809175
 20
222.4827161444661
 30
0.0
 10
-1.860523816809175
 20
223.3663831364327
 30
0.0
  0
SPLINE
  5
14F
330
1F
100
AcDbEntity
  8
0
  6
K5LT32768
 62
     7
370
    15
100
AcDbSpline
210
0.0
220
0.0
230
1.0
 70
     8
 71
     3
 72
     8
 73
     4
 74
     0
 42
0.0
 43
0.0
 12
1.0
 22
0.0
 32
0.0
 13
1.0
 23
0.0
 33
0.0
 40
0.0
 40
0.0
 40
0.0
 40
0.0
 40
1.0
 40
1.0
 40
1.0
 40
1.0
 10
-5.060500758283486
 20
223.3663831364327
 30
0.0
 10
-5.060500758283486
 20
222.4827161444661
 30
0.0
 10
-4.344265406900046
 20
221.7664807930827
 30
0.0
 10
-3.460598414933462
 20
221.7664807930827
 30
0.0
  0
SPLINE
  5
150
330
1F
100
AcDbEntity
  8
0
  6
K5LT32768
 62
     7
370
    15
100
AcDbSpline
210
0.0
220
0.0
230
1.0
 70
     8
 71
     3
 72
     8
 73
     4
 74
     0
 42
0.0
 43
0.0
 12
1.0
 22
0.0
 32
0.0
 13
1.0
 23
0.0
 33
0.0
 40
0.0
 40
0.0
 40
0.0
 40
0.0
 40
1.0
 40
1.0
 40
1.0
 40
1.0
 10
-3.460598414933462
 20
224.966457734557
 30
0.0
 10
-4.344265406900046
 20
224.966457734557
 30
0.0
 10
-5.060500758283486
 20
224.2500501283993
 30
0.0
 10
-5.060500758283486
 20
223.3663831364327
 30
0.0
  0
SPLINE
  5
151
330
1F
100
AcDbEntity
  8
0
  6
K5LT32768
 62
     7
370
    15
100
AcDbSpline
210
0.0
220
0.0
230
1.0
 70
     8
 71
     3
 72
     8
 73
     4
 74
     0
 42
0.0
 43
0.0
 12
1.0
 22
0.0
 32
0.0
 13
1.0
 23
0.0
 33
0.0
 40
0.0
 40
0.0
 40
0.0
 40
0.0
 40
1.0
 40
1.0
 40
1.0
 40
1.0
 10
-1.860523816809175
 20
223.3663831364327
 30
0.0
 10
-1.860523816809175
 20
224.2500501283993
 30
0.0
 10
-2.576931422966878
 20
224.966457734557
 30
0.0
 10
-3.460598414933462
 20
224.966457734557
 30
0.0
  0
SPLINE
  5
152
330
1F
100
AcDbEntity
  8
0
  6
K5LT32768
 62
     7
370
    15
100
AcDbSpline
210
0.0
220
0.0
230
1.0
 70
     8
 71
     3
 72
     8
 73
     4
 74
     0
 42
0.0
 43
0.0
 12
1.0
 22
0.0
 32
0.0
 13
1.0
 23
0.0
 33
0.0
 40
0.0
 40
0.0
 40
0.0
 40
0.0
 40
1.0
 40
1.0
 40
1.0
 40
1.0
 10
-3.460598414933462
 20
160.3662665072175
 30
0.0
 10
-2.632052950730876
 20
160.3662665072175
 30
0.0
 10
-1.960603840655682
 20
161.0380601268412
 30
0.0
 10
-1.960603840655682
 20
161.8662610814953
 30
0.0
  0
SPLINE
  5
153
330
1F
100
AcDbEntity
  8
0
  6
K5LT32768
 62
     7
370
    15
100
AcDbSpline
210
0.0
220
0.0
230
1.0
 70
     8
 71
     3
 72
     8
 73
     4
 74
     0
 42
0.0
 43
0.0
 12
1.0
 22
0.0
 32
0.0
 13
1.0
 23
0.0
 33
0.0
 40
0.0
 40
0.0
 40
0.0
 40
0.0
 40
1.0
 40
1.0
 40
1.0
 40
1.0
 10
-4.960592989211241
 20
161.8662610814953
 30
0.0
 10
-4.960592989211241
 20
161.0380601268412
 30
0.0
 10
-4.288971624361785
 20
160.3662665072175
 30
0.0
 10
-3.460598414933462
 20
160.3662665072175
 30
0.0
  0
SPLINE
  5
154
330
1F
100
AcDbEntity
  8
0
  6
K5LT32768
 62
     7
370
    15
100
AcDbSpline
210
0.0
220
0.0
230
1.0
 70
     8
 71
     3
 72
     8
 73
     4
 74
     0
 42
0.0
 43
0.0
 12
1.0
 22
0.0
 32
0.0
 13
1.0
 23
0.0
 33
0.0
 40
0.0
 40
0.0
 40
0.0
 40
0.0
 40
1.0
 40
1.0
 40
1.0
 40
1.0
 10
-3.460598414933462
 20
163.366255655773
 30
0.0
 10
-4.288971624361785
 20
163.366255655773
 30
0.0
 10
-4.960592989211241
 20
162.6948065456978
 30
0.0
 10
-4.960592989211241
 20
161.8662610814953
 30
0.0
  0
SPLINE
  5
155
330
1F
100
AcDbEntity
  8
0
  6
K5LT32768
 62
     7
370
    15
100
AcDbSpline
210
0.0
220
0.0
230
1.0
 70
     8
 71
     3
 72
     8
 73
     4
 74
     0
 42
0.0
 43
0.0
 12
1.0
 22
0.0
 32
0.0
 13
1.0
 23
0.0
 33
0.0
 40
0.0
 40
0.0
 40
0.0
 40
0.0
 40
1.0
 40
1.0
 40
1.0
 40
1.0
 10
-1.960603840655682
 20
161.8662610814953
 30
0.0
 10
-1.960603840655682
 20
162.6948065456978
 30
0.0
 10
-2.632052950730876
 20
163.366255655773
 30
0.0
 10
-3.460598414933462
 20
163.366255655773
 30
0.0
  0
SPLINE
  5
156
330
1F
100
AcDbEntity
  8
0
  6
K5LT32768
 62
     7
370
    15
100
AcDbSpline
210
0.0
220
0.0
230
1.0
 70
     8
 71
     3
 72
     8
 73
     4
 74
     0
 42
0.0
 43
0.0
 12
1.0
 22
0.0
 32
0.0
 13
1.0
 23
0.0
 33
0.0
 40
0.0
 40
0.0
 40
0.0
 40
0.0
 40
1.0
 40
1.0
 40
1.0
 40
1.0
 10
28.0392876448999
 20
179.8663682276029
 30
0.0
 10
29.69637857330507
 20
179.8663682276029
 30
0.0
 10
31.03927679345546
 20
181.2096109573018
 30
0.0
 10
31.03927679345546
 20
182.8663573761584
 30
0.0
  0
SPLINE
  5
157
330
1F
100
AcDbEntity
  8
0
  6
K5LT32768
 62
     7
370
    15
100
AcDbSpline
210
0.0
220
0.0
230
1.0
 70
     8
 71
     3
 72
     8
 73
     4
 74
     0
 42
0.0
 43
0.0
 12
1.0
 22
0.0
 32
0.0
 13
1.0
 23
0.0
 33
0.0
 40
0.0
 40
0.0
 40
0.0
 40
0.0
 40
1.0
 40
1.0
 40
1.0
 40
1.0
 10
25.03929849634434
 20
182.8663573761584
 30
0.0
 10
25.03929849634434
 20
181.2096109573018
 30
0.0
 10
26.38288573559178
 20
179.8663682276029
 30
0.0
 10
28.0392876448999
 20
179.8663682276029
 30
0.0
  0
SPLINE
  5
158
330
1F
100
AcDbEntity
  8
0
  6
K5LT32768
 62
     7
370
    15
100
AcDbSpline
210
0.0
220
0.0
230
1.0
 70
     8
 71
     3
 72
     8
 73
     4
 74
     0
 42
0.0
 43
0.0
 12
1.0
 22
0.0
 32
0.0
 13
1.0
 23
0.0
 33
0.0
 40
0.0
 40
0.0
 40
0.0
 40
0.0
 40
1.0
 40
1.0
 40
1.0
 40
1.0
 10
28.0392876448999
 20
185.866346524714
 30
0.0
 10
26.38288573559178
 20
185.866346524714
 30
0.0
 10
25.03929849634434
 20
184.5232760497893
 30
0.0
 10
25.03929849634434
 20
182.8663573761584
 30
0.0
  0
SPLINE
  5
159
330
1F
100
AcDbEntity
  8
0
  6
K5LT32768
 62
     7
370
    15
100
AcDbSpline
210
0.0
220
0.0
230
1.0
 70
     8
 71
     3
 72
     8
 73
     4
 74
     0
 42
0.0
 43
0.0
 12
1.0
 22
0.0
 32
0.0
 13
1.0
 23
0.0
 33
0.0
 40
0.0
 40
0.0
 40
0.0
 40
0.0
 40
1.0
 40
1.0
 40
1.0
 40
1.0
 10
31.03927679345546
 20
182.8663573761584
 30
0.0
 10
31.03927679345546
 20
184.5232760497893
 30
0.0
 10
29.69637857330507
 20
185.866346524714
 30
0.0
 10
28.0392876448999
 20
185.866346524714
 30
0.0
  0
SPLINE
  5
15A
330
1F
100
AcDbEntity
  8
0
  6
K5LT32768
 62
     7
370
    15
100
AcDbSpline
210
0.0
220
0.0
230
1.0
 70
     8
 71
     3
 72
     8
 73
     4
 74
     0
 42
0.0
 43
0.0
 12
1.0
 22
0.0
 32
0.0
 13
1.0
 23
0.0
 33
0.0
 40
0.0
 40
0.0
 40
0.0
 40
0.0
 40
1.0
 40
1.0
 40
1.0
 40
1.0
 10
30.28962401586509
 20
270.90181064191
 30
0.0
 10
31.11782497051916
 20
270.90181064191
 30
0.0
 10
31.78961859014288
 20
271.5732597519852
 30
0.0
 10
31.78961859014288
 20
272.4018052161878
 30
0.0
  0
SPLINE
  5
15B
330
1F
100
AcDbEntity
  8
0
  6
K5LT32768
 62
     7
370
    15
100
AcDbSpline
210
0.0
220
0.0
230
1.0
 70
     8
 71
     3
 72
     8
 73
     4
 74
     0
 42
0.0
 43
0.0
 12
1.0
 22
0.0
 32
0.0
 13
1.0
 23
0.0
 33
0.0
 40
0.0
 40
0.0
 40
0.0
 40
0.0
 40
1.0
 40
1.0
 40
1.0
 40
1.0
 10
28.78962944158732
 20
272.4018052161878
 30
0.0
 10
28.78962944158732
 20
271.5732597519852
 30
0.0
 10
29.46073404211398
 20
270.90181064191
 30
0.0
 10
30.28962401586509
 20
270.90181064191
 30
0.0
  0
SPLINE
  5
15C
330
1F
100
AcDbEntity
  8
0
  6
K5LT32768
 62
     7
370
    15
100
AcDbSpline
210
0.0
220
0.0
230
1.0
 70
     8
 71
     3
 72
     8
 73
     4
 74
     0
 42
0.0
 43
0.0
 12
1.0
 22
0.0
 32
0.0
 13
1.0
 23
0.0
 33
0.0
 40
0.0
 40
0.0
 40
0.0
 40
0.0
 40
1.0
 40
1.0
 40
1.0
 40
1.0
 10
30.28962401586509
 20
273.9017997904655
 30
0.0
 10
29.46073404211398
 20
273.9017997904655
 30
0.0
 10
28.78962944158732
 20
273.2301784256161
 30
0.0
 10
28.78962944158732
 20
272.4018052161878
 30
0.0
  0
SPLINE
  5
15D
330
1F
100
AcDbEntity
  8
0
  6
K5LT32768
 62
     7
370
    15
100
AcDbSpline
210
0.0
220
0.0
230
1.0
 70
     8
 71
     3
 72
     8
 73
     4
 74
     0
 42
0.0
 43
0.0
 12
1.0
 22
0.0
 32
0.0
 13
1.0
 23
0.0
 33
0.0
 40
0.0
 40
0.0
 40
0.0
 40
0.0
 40
1.0
 40
1.0
 40
1.0
 40
1.0
 10
31.78961859014288
 20
272.4018052161878
 30
0.0
 10
31.78961859014288
 20
273.2301784256161
 30
0.0
 10
31.11782497051916
 20
273.9017997904655
 30
0.0
 10
30.28962401586509
 20
273.9017997904655
 30
0.0
  0
SPLINE
  5
15E
330
1F
100
AcDbEntity
  8
0
  6
K5LT32768
 62
     7
370
    15
100
AcDbSpline
210
0.0
220
0.0
230
1.0
 70
     8
 71
     3
 72
     8
 73
     4
 74
     0
 42
0.0
 43
0.0
 12
1.0
 22
0.0
 32
0.0
 13
1.0
 23
0.0
 33
0.0
 40
0.0
 40
0.0
 40
0.0
 40
0.0
 40
1.0
 40
1.0
 40
1.0
 40
1.0
 10
30.28962401586508
 20
238.9016967176183
 30
0.0
 10
31.11782497051915
 20
238.9016967176183
 30
0.0
 10
31.78961859014287
 20
239.5733180824678
 30
0.0
 10
31.78961859014287
 20
240.4016912918961
 30
0.0
  0
SPLINE
  5
15F
330
1F
100
AcDbEntity
  8
0
  6
K5LT32768
 62
     7
370
    15
100
AcDbSpline
210
0.0
220
0.0
230
1.0
 70
     8
 71
     3
 72
     8
 73
     4
 74
     0
 42
0.0
 43
0.0
 12
1.0
 22
0.0
 32
0.0
 13
1.0
 23
0.0
 33
0.0
 40
0.0
 40
0.0
 40
0.0
 40
0.0
 40
1.0
 40
1.0
 40
1.0
 40
1.0
 10
28.78962944158732
 20
240.4016912918961
 30
0.0
 10
28.78962944158732
 20
239.5733180824678
 30
0.0
 10
29.46073404211398
 20
238.9016967176183
 30
0.0
 10
30.28962401586509
 20
238.9016967176183
 30
0.0
  0
SPLINE
  5
160
330
1F
100
AcDbEntity
  8
0
  6
K5LT32768
 62
     7
370
    15
100
AcDbSpline
210
0.0
220
0.0
230
1.0
 70
     8
 71
     3
 72
     8
 73
     4
 74
     0
 42
0.0
 43
0.0
 12
1.0
 22
0.0
 32
0.0
 13
1.0
 23
0.0
 33
0.0
 40
0.0
 40
0.0
 40
0.0
 40
0.0
 40
1.0
 40
1.0
 40
1.0
 40
1.0
 10
30.28962401586509
 20
241.9016858661739
 30
0.0
 10
29.46073404211398
 20
241.9016858661739
 30
0.0
 10
28.78962944158732
 20
241.2302367560987
 30
0.0
 10
28.78962944158732
 20
240.4016912918961
 30
0.0
  0
SPLINE
  5
161
330
1F
100
AcDbEntity
  8
0
  6
K5LT32768
 62
     7
370
    15
100
AcDbSpline
210
0.0
220
0.0
230
1.0
 70
     8
 71
     3
 72
     8
 73
     4
 74
     0
 42
0.0
 43
0.0
 12
1.0
 22
0.0
 32
0.0
 13
1.0
 23
0.0
 33
0.0
 40
0.0
 40
0.0
 40
0.0
 40
0.0
 40
1.0
 40
1.0
 40
1.0
 40
1.0
 10
31.78961859014286
 20
240.4016912918961
 30
0.0
 10
31.78961859014287
 20
241.2302367560987
 30
0.0
 10
31.11782497051916
 20
241.9016858661739
 30
0.0
 10
30.28962401586509
 20
241.9016858661739
 30
0.0
  0
SPLINE
  5
162
330
1F
100
AcDbEntity
  8
0
  6
K5LT32768
 62
     7
370
    15
100
AcDbSpline
210
0.0
220
0.0
230
1.0
 70
     8
 71
     3
 72
    10
 73
     6
 74
     0
 42
0.0
 43
0.0
 12
1.0
 22
0.0
 32
0.0
 13
1.0
 23
0.0
 33
0.0
 40
0.0
 40
0.0
 40
0.0
 40
0.0
 40
0.5
 40
0.5
 40
1.0
 40
1.0
 40
1.0
 40
1.0
 10
-2.210545518110558
 20
28.60256075673825
 30
0.0
 10
-2.210545518110558
 20
27.77435980208419
 30
0.0
 10
-1.538924153261102
 20
27.10256618246047
 30
0.0
 10
0.1178222655955444
 20
27.10256618246047
 30
0.0
 10
0.7894436304450002
 20
27.77435980208419
 30
0.0
 10
0.7894436304450002
 20
28.60256075673825
 30
0.0
  0
LINE
  5
163
330
1F
100
AcDbEntity
  8
0
  6
K5LT32768
 62
     7
370
    15
100
AcDbLine
 10
-2.2105455181
 20
68.6028754169
 30
0.0
 11
-2.2105455181
 21
28.6025607567
 31
0.0
  0
SPLINE
  5
164
330
1F
100
AcDbEntity
  8
0
  6
K5LT32768
 62
     7
370
    15
100
AcDbSpline
210
0.0
220
0.0
230
1.0
 70
     8
 71
     3
 72
    10
 73
     6
 74
     0
 42
0.0
 43
0.0
 12
1.0
 22
0.0
 32
0.0
 13
1.0
 23
0.0
 33
0.0
 40
0.0
 40
0.0
 40
0.0
 40
0.0
 40
0.5
 40
0.5
 40
1.0
 40
1.0
 40
1.0
 40
1.0
 10
0.7894436304450002
 20
68.60287541687707
 30
0.0
 10
0.7894436304450002
 20
69.43107637153112
 30
0.0
 10
0.1178222655955444
 20
70.10286999115485
 30
0.0
 10
-1.538924153261102
 20
70.10286999115485
 30
0.0
 10
-2.210545518110558
 20
69.43107637153112
 30
0.0
 10
-2.210545518110558
 20
68.60287541687707
 30
0.0
  0
LINE
  5
165
330
1F
100
AcDbEntity
  8
0
  6
K5LT32768
 62
     7
370
    15
100
AcDbLine
 10
0.7894436304
 20
28.6025607567
 30
0.0
 11
0.7894436304
 21
68.6028754169
 31
0.0
  0
SPLINE
  5
166
330
1F
100
AcDbEntity
  8
0
  6
K5LT32768
 62
     7
370
    15
100
AcDbSpline
210
0.0
220
0.0
230
1.0
 70
     8
 71
     3
 72
    11
 73
     7
 74
     0
 42
0.0
 43
0.0
 12
1.0
 22
0.0
 32
0.0
 13
1.0
 23
0.0
 33
0.0
 40
0.0
 40
0.0
 40
0.0
 40
0.0
 40
0.5
 40
0.5
 40
0.5
 40
1.0
 40
1.0
 40
1.0
 40
1.0
 10
21.78919541555965
 20
47.10272351252988
 30
0.0
 10
22.61808538931076
 20
47.10272351252988
 30
0.0
 10
23.28918998983742
 20
47.7745171321536
 30
0.0
 10
23.28918998983742
 20
48.60271808680766
 30
0.0
 10
23.28918998983742
 20
49.43160806055877
 30
0.0
 10
22.61808538931076
 20
50.10271266108543
 30
0.0
 10
21.78919541555965
 20
50.10271266108543
 30
0.0
  0
LINE
  5
167
330
1F
100
AcDbEntity
  8
0
  6
K5LT32768
 62
     7
370
    15
100
AcDbLine
 10
6.7894219276
 20
47.1027235125
 30
0.0
 11
21.7891954156
 21
47.1027235125
 31
0.0
  0
SPLINE
  5
168
330
1F
100
AcDbEntity
  8
0
  6
K5LT32768
 62
     7
370
    15
100
AcDbSpline
210
0.0
220
0.0
230
1.0
 70
     8
 71
     3
 72
    11
 73
     7
 74
     0
 42
0.0
 43
0.0
 12
1.0
 22
0.0
 32
0.0
 13
1.0
 23
0.0
 33
0.0
 40
0.0
 40
0.0
 40
0.0
 40
0.0
 40
0.5
 40
0.5
 40
0.5
 40
1.0
 40
1.0
 40
1.0
 40
1.0
 10
6.789421927556117
 20
50.10271266108543
 30
0.0
 10
5.961048718127794
 20
50.10271266108543
 30
0.0
 10
5.289427353278338
 20
49.43160806055877
 30
0.0
 10
5.289427353278338
 20
48.60271808680766
 30
0.0
 10
5.289427353278338
 20
47.7745171321536
 30
0.0
 10
5.961048718127794
 20
47.10272351252988
 30
0.0
 10
6.789421927556117
 20
47.10272351252988
 30
0.0
  0
LINE
  5
169
330
1F
100
AcDbEntity
  8
0
  6
K5LT32768
 62
     7
370
    15
100
AcDbLine
 10
21.7891954156
 20
50.1027126611
 30
0.0
 11
6.7894219276
 21
50.1027126611
 31
0.0
  0
SPLINE
  5
16A
330
1F
100
AcDbEntity
  8
0
  6
K5LT32768
 62
     7
370
    15
100
AcDbSpline
210
0.0
220
0.0
230
1.0
 70
     8
 71
     3
 72
    11
 73
     7
 74
     0
 42
0.0
 43
0.0
 12
1.0
 22
0.0
 32
0.0
 13
1.0
 23
0.0
 33
0.0
 40
0.0
 40
0.0
 40
0.0
 40
0.0
 40
0.5
 40
0.5
 40
0.5
 40
1.0
 40
1.0
 40
1.0
 40
1.0
 10
21.78919541555965
 20
59.10268010675211
 30
0.0
 10
22.61808538931076
 20
59.10268010675211
 30
0.0
 10
23.28918998983742
 20
59.77447372637583
 30
0.0
 10
23.28918998983742
 20
60.60267468102989
 30
0.0
 10
23.28918998983742
 20
61.431564654781
 30
0.0
 10
22.61808538931076
 20
62.10266925530767
 30
0.0
 10
21.78919541555965
 20
62.10266925530767
 30
0.0
  0
LINE
  5
16B
330
1F
100
AcDbEntity
  8
0
  6
K5LT32768
 62
     7
370
    15
100
AcDbLine
 10
6.7894219276
 20
59.1026801068
 30
0.0
 11
21.7891954156
 21
59.1026801068
 31
0.0
  0
SPLINE
  5
16C
330
1F
100
AcDbEntity
  8
0
  6
K5LT32768
 62
     7
370
    15
100
AcDbSpline
210
0.0
220
0.0
230
1.0
 70
     8
 71
     3
 72
    11
 73
     7
 74
     0
 42
0.0
 43
0.0
 12
1.0
 22
0.0
 32
0.0
 13
1.0
 23
0.0
 33
0.0
 40
0.0
 40
0.0
 40
0.0
 40
0.0
 40
0.5
 40
0.5
 40
0.5
 40
1.0
 40
1.0
 40
1.0
 40
1.0
 10
6.789421927556117
 20
62.10266925530767
 30
0.0
 10
5.961048718127794
 20
62.10266925530767
 30
0.0
 10
5.289427353278338
 20
61.431564654781
 30
0.0
 10
5.289427353278338
 20
60.60267468102989
 30
0.0
 10
5.289427353278338
 20
59.77447372637583
 30
0.0
 10
5.961048718127794
 20
59.10268010675211
 30
0.0
 10
6.789421927556117
 20
59.10268010675211
 30
0.0
  0
LINE
  5
16D
330
1F
100
AcDbEntity
  8
0
  6
K5LT32768
 62
     7
370
    15
100
AcDbLine
 10
21.7891954156
 20
62.1026692553
 30
0.0
 11
6.7894219276
 21
62.1026692553
 31
0.0
  0
SPLINE
  5
16E
330
1F
100
AcDbEntity
  8
0
  6
K5LT32768
 62
     7
370
    15
100
AcDbSpline
210
0.0
220
0.0
230
1.0
 70
     8
 71
     3
 72
    11
 73
     7
 74
     0
 42
0.0
 43
0.0
 12
1.0
 22
0.0
 32
0.0
 13
1.0
 23
0.0
 33
0.0
 40
0.0
 40
0.0
 40
0.0
 40
0.0
 40
0.5
 40
0.5
 40
0.5
 40
1.0
 40
1.0
 40
1.0
 40
1.0
 10
21.78919541555965
 20
41.10274521541876
 30
0.0
 10
22.61808538931076
 20
41.10274521541876
 30
0.0
 10
23.28918998983742
 20
41.77453883504248
 30
0.0
 10
23.28918998983742
 20
42.60273978969654
 30
0.0
 10
23.28918998983742
 20
43.43162976344765
 30
0.0
 10
22.61808538931076
 20
44.10273436397432
 30
0.0
 10
21.78919541555965
 20
44.10273436397432
 30
0.0
  0
LINE
  5
16F
330
1F
100
AcDbEntity
  8
0
  6
K5LT32768
 62
     7
370
    15
100
AcDbLine
 10
6.7894219276
 20
41.1027452154
 30
0.0
 11
21.7891954156
 21
41.1027452154
 31
0.0
  0
SPLINE
  5
170
330
1F
100
AcDbEntity
  8
0
  6
K5LT32768
 62
     7
370
    15
100
AcDbSpline
210
0.0
220
0.0
230
1.0
 70
     8
 71
     3
 72
    11
 73
     7
 74
     0
 42
0.0
 43
0.0
 12
1.0
 22
0.0
 32
0.0
 13
1.0
 23
0.0
 33
0.0
 40
0.0
 40
0.0
 40
0.0
 40
0.0
 40
0.5
 40
0.5
 40
0.5
 40
1.0
 40
1.0
 40
1.0
 40
1.0
 10
6.789421927556117
 20
44.10273436397432
 30
0.0
 10
5.961048718127794
 20
44.10273436397432
 30
0.0
 10
5.289427353278338
 20
43.43162976344765
 30
0.0
 10
5.289427353278338
 20
42.60273978969654
 30
0.0
 10
5.289427353278338
 20
41.77453883504248
 30
0.0
 10
5.961048718127794
 20
41.10274521541876
 30
0.0
 10
6.789421927556117
 20
41.10274521541876
 30
0.0
  0
LINE
  5
171
330
1F
100
AcDbEntity
  8
0
  6
K5LT32768
 62
     7
370
    15
100
AcDbLine
 10
21.7891954156
 20
44.102734364
 30
0.0
 11
6.7894219276
 21
44.102734364
 31
0.0
  0
SPLINE
  5
172
330
1F
100
AcDbEntity
  8
0
  6
K5LT32768
 62
     7
370
    15
100
AcDbSpline
210
0.0
220
0.0
230
1.0
 70
     8
 71
     3
 72
    10
 73
     6
 74
     0
 42
0.0
 43
0.0
 12
1.0
 22
0.0
 32
0.0
 13
1.0
 23
0.0
 33
0.0
 40
0.0
 40
0.0
 40
0.0
 40
0.0
 40
0.5
 40
0.5
 40
1.0
 40
1.0
 40
1.0
 40
1.0
 10
21.78919541555965
 20
29.10278862119653
 30
0.0
 10
22.61808538931076
 20
29.10278862119653
 30
0.0
 10
23.28918998983742
 20
29.77458224082024
 30
0.0
 10
23.28918998983742
 20
31.43098415012837
 30
0.0
 10
22.61808538931076
 20
32.10277776975209
 30
0.0
 10
21.78919541555965
 20
32.10277776975209
 30
0.0
  0
LINE
  5
173
330
1F
100
AcDbEntity
  8
0
  6
K5LT32768
 62
     7
370
    15
100
AcDbLine
 10
6.7894219276
 20
29.1027886212
 30
0.0
 11
21.7891954156
 21
29.1027886212
 31
0.0
  0
SPLINE
  5
174
330
1F
100
AcDbEntity
  8
0
  6
K5LT32768
 62
     7
370
    15
100
AcDbSpline
210
0.0
220
0.0
230
1.0
 70
     8
 71
     3
 72
    10
 73
     6
 74
     0
 42
0.0
 43
0.0
 12
1.0
 22
0.0
 32
0.0
 13
1.0
 23
0.0
 33
0.0
 40
0.0
 40
0.0
 40
0.0
 40
0.0
 40
0.5
 40
0.5
 40
1.0
 40
1.0
 40
1.0
 40
1.0
 10
6.789421927556117
 20
32.10277776975209
 30
0.0
 10
5.961048718127794
 20
32.10277776975209
 30
0.0
 10
5.289427353278338
 20
31.43098415012837
 30
0.0
 10
5.289427353278338
 20
29.77458224082024
 30
0.0
 10
5.961048718127794
 20
29.10278862119653
 30
0.0
 10
6.789421927556117
 20
29.10278862119653
 30
0.0
  0
LINE
  5
175
330
1F
100
AcDbEntity
  8
0
  6
K5LT32768
 62
     7
370
    15
100
AcDbLine
 10
21.7891954156
 20
32.1027777698
 30
0.0
 11
6.7894219276
 21
32.1027777698
 31
0.0
  0
SPLINE
  5
176
330
1F
100
AcDbEntity
  8
0
  6
K5LT32768
 62
     7
370
    15
100
AcDbSpline
210
0.0
220
0.0
230
1.0
 70
     8
 71
     3
 72
    11
 73
     7
 74
     0
 42
0.0
 43
0.0
 12
1.0
 22
0.0
 32
0.0
 13
1.0
 23
0.0
 33
0.0
 40
0.0
 40
0.0
 40
0.0
 40
0.0
 40
0.5
 40
0.5
 40
0.5
 40
1.0
 40
1.0
 40
1.0
 40
1.0
 10
32.66536186249338
 20
149.5937974343898
 30
0.0
 10
32.66536186249338
 20
148.7655964797357
 30
0.0
 10
33.33646646302005
 20
148.0936306053377
 30
0.0
 10
34.16535643677116
 20
148.0936306053377
 30
0.0
 10
34.99355739142522
 20
148.0936306053377
 30
0.0
 10
35.66535101104895
 20
148.7655964797357
 30
0.0
 10
35.66535101104895
 20
149.5937974343898
 30
0.0
  0
SPLINE
  5
177
330
1F
100
AcDbEntity
  8
0
  6
K5LT32768
 62
     7
370
    15
100
AcDbSpline
210
0.0
220
0.0
230
1.0
 70
     8
 71
     3
 72
    11
 73
     7
 74
     0
 42
0.0
 43
0.0
 12
1.0
 22
0.0
 32
0.0
 13
1.0
 23
0.0
 33
0.0
 40
0.0
 40
0.0
 40
0.0
 40
0.0
 40
0.5
 40
0.5
 40
0.5
 40
1.0
 40
1.0
 40
1.0
 40
1.0
 10
35.66535101104895
 20
149.5937974343898
 30
0.0
 10
35.66535101104895
 20
150.4219983890438
 30
0.0
 10
34.99355739142522
 20
151.0937920086675
 30
0.0
 10
34.16535643677116
 20
151.0937920086675
 30
0.0
 10
33.33646646302005
 20
151.0937920086675
 30
0.0
 10
32.66536186249338
 20
150.4219983890438
 30
0.0
 10
32.66536186249338
 20
149.5937974343898
 30
0.0
  0
SPLINE
  5
178
330
1F
100
AcDbEntity
  8
0
  6
K5LT32768
 62
     7
370
    15
100
AcDbSpline
210
0.0
220
0.0
230
1.0
 70
     8
 71
     3
 72
    10
 73
     6
 74
     0
 42
0.0
 43
0.0
 12
1.0
 22
0.0
 32
0.0
 13
1.0
 23
0.0
 33
0.0
 40
0.0
 40
0.0
 40
0.0
 40
0.0
 40
0.5
 40
0.5
 40
1.0
 40
1.0
 40
1.0
 40
1.0
 10
46.33687878615883
 20
230.471548065212
 30
0.0
 10
46.33687878615883
 20
229.6430026010094
 30
0.0
 10
47.00867240578255
 20
228.9715534909342
 30
0.0
 10
48.66507431509068
 20
228.9715534909342
 30
0.0
 10
49.33686793471441
 20
229.6430026010094
 30
0.0
 10
49.33686793471441
 20
230.471548065212
 30
0.0
  0
SPLINE
  5
179
330
1F
100
AcDbEntity
  8
0
  6
K5LT32768
 62
     7
370
    15
100
AcDbSpline
210
0.0
220
0.0
230
1.0
 70
     8
 71
     3
 72
    10
 73
     6
 74
     0
 42
0.0
 43
0.0
 12
1.0
 22
0.0
 32
0.0
 13
1.0
 23
0.0
 33
0.0
 40
0.0
 40
0.0
 40
0.0
 40
0.0
 40
0.5
 40
0.5
 40
1.0
 40
1.0
 40
1.0
 40
1.0
 10
49.33686793471441
 20
230.471548065212
 30
0.0
 10
49.33686793471441
 20
231.2997490198661
 30
0.0
 10
48.66507431509068
 20
231.9715426394898
 30
0.0
 10
47.00867240578255
 20
231.9715426394898
 30
0.0
 10
46.33687878615883
 20
231.2997490198661
 30
0.0
 10
46.33687878615883
 20
230.471548065212
 30
0.0
  0
SPLINE
  5
17A
330
1F
100
AcDbEntity
  8
0
  6
K5LT32768
 62
     7
370
    15
100
AcDbSpline
210
0.0
220
0.0
230
1.0
 70
     8
 71
     3
 72
    11
 73
     7
 74
     0
 42
0.0
 43
0.0
 12
1.0
 22
0.0
 32
0.0
 13
1.0
 23
0.0
 33
0.0
 40
0.0
 40
0.0
 40
0.0
 40
0.0
 40
0.5
 40
0.5
 40
0.5
 40
1.0
 40
1.0
 40
1.0
 40
1.0
 10
43.75856932499786
 20
79.18689776666162
 30
0.0
 10
43.75856932499786
 20
78.35869681200755
 30
0.0
 10
44.43036294462158
 20
77.68690319238384
 30
0.0
 10
45.25856389927564
 20
77.68690319238384
 30
0.0
 10
46.08745387302675
 20
77.68690319238384
 30
0.0
 10
46.75855847355342
 20
78.35869681200755
 30
0.0
 10
46.75855847355342
 20
79.18689776666162
 30
0.0
  0
SPLINE
  5
17B
330
1F
100
AcDbEntity
  8
0
  6
K5LT32768
 62
     7
370
    15
100
AcDbSpline
210
0.0
220
0.0
230
1.0
 70
     8
 71
     3
 72
    11
 73
     7
 74
     0
 42
0.0
 43
0.0
 12
1.0
 22
0.0
 32
0.0
 13
1.0
 23
0.0
 33
0.0
 40
0.0
 40
0.0
 40
0.0
 40
0.0
 40
0.5
 40
0.5
 40
0.5
 40
1.0
 40
1.0
 40
1.0
 40
1.0
 10
46.75855847355342
 20
79.18689776666162
 30
0.0
 10
46.75855847355342
 20
80.01578774041272
 30
0.0
 10
46.08745387302675
 20
80.6868923409394
 30
0.0
 10
45.25856389927564
 20
80.6868923409394
 30
0.0
 10
44.43036294462158
 20
80.6868923409394
 30
0.0
 10
43.75856932499786
 20
80.01578774041272
 30
0.0
 10
43.75856932499786
 20
79.18689776666162
 30
0.0
  0
SPLINE
  5
17C
330
1F
100
AcDbEntity
  8
0
  6
K5LT32768
 62
     7
370
    15
100
AcDbSpline
210
0.0
220
0.0
230
1.0
 70
     8
 71
     3
 72
    11
 73
     7
 74
     0
 42
0.0
 43
0.0
 12
1.0
 22
0.0
 32
0.0
 13
1.0
 23
0.0
 33
0.0
 40
0.0
 40
0.0
 40
0.0
 40
0.0
 40
0.5
 40
0.5
 40
0.5
 40
1.0
 40
1.0
 40
1.0
 40
1.0
 10
-40.42578395256717
 20
233.6169202432451
 30
0.0
 10
-40.42578395256717
 20
232.788719288591
 30
0.0
 10
-39.7546793520405
 20
232.1169256689673
 30
0.0
 10
-38.92578937828939
 20
232.1169256689673
 30
0.0
 10
-38.09758842363533
 20
232.1169256689673
 30
0.0
 10
-37.42579480401161
 20
232.788719288591
 30
0.0
 10
-37.42579480401161
 20
233.6169202432451
 30
0.0
  0
SPLINE
  5
17D
330
1F
100
AcDbEntity
  8
0
  6
K5LT32768
 62
     7
370
    15
100
AcDbSpline
210
0.0
220
0.0
230
1.0
 70
     8
 71
     3
 72
    11
 73
     7
 74
     0
 42
0.0
 43
0.0
 12
1.0
 22
0.0
 32
0.0
 13
1.0
 23
0.0
 33
0.0
 40
0.0
 40
0.0
 40
0.0
 40
0.0
 40
0.5
 40
0.5
 40
0.5
 40
1.0
 40
1.0
 40
1.0
 40
1.0
 10
-37.42579480401161
 20
233.6169202432451
 30
0.0
 10
-37.42579480401161
 20
234.4454657074477
 30
0.0
 10
-38.09758842363533
 20
235.1169148175229
 30
0.0
 10
-38.92578937828939
 20
235.1169148175229
 30
0.0
 10
-39.7546793520405
 20
235.1169148175229
 30
0.0
 10
-40.42578395256717
 20
234.4454657074477
 30
0.0
 10
-40.42578395256717
 20
233.6169202432451
 30
0.0
  0
SPLINE
  5
17E
330
1F
100
AcDbEntity
  8
0
  6
K5LT32768
 62
     7
370
    15
100
AcDbSpline
210
0.0
220
0.0
230
1.0
 70
     8
 71
     3
 72
    11
 73
     7
 74
     0
 42
0.0
 43
0.0
 12
1.0
 22
0.0
 32
0.0
 13
1.0
 23
0.0
 33
0.0
 40
0.0
 40
0.0
 40
0.0
 40
0.0
 40
0.5
 40
0.5
 40
0.5
 40
1.0
 40
1.0
 40
1.0
 40
1.0
 10
-17.4325276649127
 20
161.8507581518116
 30
0.0
 10
-17.4325276649127
 20
161.0218681780605
 30
0.0
 10
-16.76073404528898
 20
160.3507635775339
 30
0.0
 10
-15.93253309063492
 20
160.3507635775339
 30
0.0
 10
-15.10364311688381
 20
160.3507635775339
 30
0.0
 10
-14.43253851635714
 20
161.0218681780605
 30
0.0
 10
-14.43253851635714
 20
161.8507581518116
 30
0.0
  0
SPLINE
  5
17F
330
1F
100
AcDbEntity
  8
0
  6
K5LT32768
 62
     7
370
    15
100
AcDbSpline
210
0.0
220
0.0
230
1.0
 70
     8
 71
     3
 72
    11
 73
     7
 74
     0
 42
0.0
 43
0.0
 12
1.0
 22
0.0
 32
0.0
 13
1.0
 23
0.0
 33
0.0
 40
0.0
 40
0.0
 40
0.0
 40
0.0
 40
0.5
 40
0.5
 40
0.5
 40
1.0
 40
1.0
 40
1.0
 40
1.0
 10
-14.43253851635714
 20
161.8507581518116
 30
0.0
 10
-14.43253851635714
 20
162.6789591064657
 30
0.0
 10
-15.10364311688381
 20
163.3507527260894
 30
0.0
 10
-15.93253309063492
 20
163.3507527260894
 30
0.0
 10
-16.76073404528898
 20
163.3507527260894
 30
0.0
 10
-17.4325276649127
 20
162.6789591064657
 30
0.0
 10
-17.4325276649127
 20
161.8507581518116
 30
0.0
  0
SPLINE
  5
180
330
1F
100
AcDbEntity
  8
0
  6
K5LT32768
 62
     7
370
    15
100
AcDbSpline
210
0.0
220
0.0
230
1.0
 70
     8
 71
     3
 72
    11
 73
     7
 74
     0
 42
0.0
 43
0.0
 12
1.0
 22
0.0
 32
0.0
 13
1.0
 23
0.0
 33
0.0
 40
0.0
 40
0.0
 40
0.0
 40
0.0
 40
0.5
 40
0.5
 40
0.5
 40
1.0
 40
1.0
 40
1.0
 40
1.0
 10
-7.147539603247838
 20
149.5937974343898
 30
0.0
 10
-7.147539603247838
 20
148.7655964797357
 30
0.0
 10
-6.476435002721169
 20
148.0936306053377
 30
0.0
 10
-5.647545028970058
 20
148.0936306053377
 30
0.0
 10
-4.819344074315999
 20
148.0936306053377
 30
0.0
 10
-4.147550454692279
 20
148.7655964797357
 30
0.0
 10
-4.147550454692279
 20
149.5937974343898
 30
0.0
  0
SPLINE
  5
181
330
1F
100
AcDbEntity
  8
0
  6
K5LT32768
 62
     7
370
    15
100
AcDbSpline
210
0.0
220
0.0
230
1.0
 70
     8
 71
     3
 72
    11
 73
     7
 74
     0
 42
0.0
 43
0.0
 12
1.0
 22
0.0
 32
0.0
 13
1.0
 23
0.0
 33
0.0
 40
0.0
 40
0.0
 40
0.0
 40
0.0
 40
0.5
 40
0.5
 40
0.5
 40
1.0
 40
1.0
 40
1.0
 40
1.0
 10
-4.147550454692279
 20
149.5937974343898
 30
0.0
 10
-4.147550454692279
 20
150.4219983890438
 30
0.0
 10
-4.819344074315999
 20
151.0937920086675
 30
0.0
 10
-5.647545028970058
 20
151.0937920086675
 30
0.0
 10
-6.476435002721169
 20
151.0937920086675
 30
0.0
 10
-7.147539603247838
 20
150.4219983890438
 30
0.0
 10
-7.147539603247838
 20
149.5937974343898
 30
0.0
  0
SPLINE
  5
182
330
1F
100
AcDbEntity
  8
0
  6
K5LT32768
 62
     7
370
    15
100
AcDbSpline
210
0.0
220
0.0
230
1.0
 70
     8
 71
     3
 72
    11
 73
     7
 74
     0
 42
0.0
 43
0.0
 12
1.0
 22
0.0
 32
0.0
 13
1.0
 23
0.0
 33
0.0
 40
0.0
 40
0.0
 40
0.0
 40
0.0
 40
0.5
 40
0.5
 40
0.5
 40
1.0
 40
1.0
 40
1.0
 40
1.0
 10
-32.3883761854793
 20
255.699637794148
 30
0.0
 10
-32.3883761854793
 20
254.871436839494
 30
0.0
 10
-31.71727158495263
 20
254.1996432198702
 30
0.0
 10
-30.88838161120152
 20
254.1996432198702
 30
0.0
 10
-30.06018065654746
 20
254.1996432198702
 30
0.0
 10
-29.38838703692374
 20
254.871436839494
 30
0.0
 10
-29.38838703692374
 20
255.699637794148
 30
0.0
  0
SPLINE
  5
183
330
1F
100
AcDbEntity
  8
0
  6
K5LT32768
 62
     7
370
    15
100
AcDbSpline
210
0.0
220
0.0
230
1.0
 70
     8
 71
     3
 72
    11
 73
     7
 74
     0
 42
0.0
 43
0.0
 12
1.0
 22
0.0
 32
0.0
 13
1.0
 23
0.0
 33
0.0
 40
0.0
 40
0.0
 40
0.0
 40
0.0
 40
0.5
 40
0.5
 40
0.5
 40
1.0
 40
1.0
 40
1.0
 40
1.0
 10
-29.38838703692374
 20
255.699637794148
 30
0.0
 10
-29.38838703692374
 20
256.5281832583506
 30
0.0
 10
-30.06018065654746
 20
257.1996323684258
 30
0.0
 10
-30.88838161120152
 20
257.1996323684258
 30
0.0
 10
-31.71727158495263
 20
257.1996323684258
 30
0.0
 10
-32.3883761854793
 20
256.5281832583506
 30
0.0
 10
-32.3883761854793
 20
255.699637794148
 30
0.0
  0
SPLINE
  5
184
330
1F
100
AcDbEntity
  8
0
  6
K5LT32768
 62
     7
370
    15
100
AcDbSpline
210
0.0
220
0.0
230
1.0
 70
     8
 71
     3
 72
    10
 73
     6
 74
     0
 42
0.0
 43
0.0
 12
1.0
 22
0.0
 32
0.0
 13
1.0
 23
0.0
 33
0.0
 40
0.0
 40
0.0
 40
0.0
 40
0.0
 40
0.5
 40
0.5
 40
1.0
 40
1.0
 40
1.0
 40
1.0
 10
-18.24143608484937
 20
18.18734808573094
 30
0.0
 10
-18.24143608484937
 20
17.35845811197983
 30
0.0
 10
-17.56964246522564
 20
16.68735351145316
 30
0.0
 10
-15.91324055591752
 20
16.68735351145316
 30
0.0
 10
-15.2414469362938
 20
17.35845811197983
 30
0.0
 10
-15.2414469362938
 20
18.18734808573094
 30
0.0
  0
SPLINE
  5
185
330
1F
100
AcDbEntity
  8
0
  6
K5LT32768
 62
     7
370
    15
100
AcDbSpline
210
0.0
220
0.0
230
1.0
 70
     8
 71
     3
 72
    10
 73
     6
 74
     0
 42
0.0
 43
0.0
 12
1.0
 22
0.0
 32
0.0
 13
1.0
 23
0.0
 33
0.0
 40
0.0
 40
0.0
 40
0.0
 40
0.0
 40
0.5
 40
0.5
 40
1.0
 40
1.0
 40
1.0
 40
1.0
 10
-15.2414469362938
 20
18.18734808573094
 30
0.0
 10
-15.2414469362938
 20
19.015549040385
 30
0.0
 10
-15.91324055591752
 20
19.68734266000872
 30
0.0
 10
-17.56964246522564
 20
19.68734266000872
 30
0.0
 10
-18.24143608484937
 20
19.015549040385
 30
0.0
 10
-18.24143608484937
 20
18.18734808573094
 30
0.0
  0
SPLINE
  5
186
330
1F
100
AcDbEntity
  8
0
  6
K5LT32768
 62
     7
370
    15
100
AcDbSpline
210
0.0
220
0.0
230
1.0
 70
     8
 71
     3
 72
    11
 73
     7
 74
     0
 42
0.0
 43
0.0
 12
1.0
 22
0.0
 32
0.0
 13
1.0
 23
0.0
 33
0.0
 40
0.0
 40
0.0
 40
0.0
 40
0.0
 40
0.5
 40
0.5
 40
0.5
 40
1.0
 40
1.0
 40
1.0
 40
1.0
 10
40.864689117388
 20
245.5066337819393
 30
0.0
 10
40.864689117388
 20
244.6780883177368
 30
0.0
 10
41.53579371791466
 20
244.0066392076616
 30
0.0
 10
42.36468369166577
 20
244.0066392076616
 30
0.0
 10
43.19288464631984
 20
244.0066392076616
 30
0.0
 10
43.86467826594355
 20
244.6780883177368
 30
0.0
 10
43.86467826594355
 20
245.5066337819393
 30
0.0
  0
SPLINE
  5
187
330
1F
100
AcDbEntity
  8
0
  6
K5LT32768
 62
     7
370
    15
100
AcDbSpline
210
0.0
220
0.0
230
1.0
 70
     8
 71
     3
 72
    11
 73
     7
 74
     0
 42
0.0
 43
0.0
 12
1.0
 22
0.0
 32
0.0
 13
1.0
 23
0.0
 33
0.0
 40
0.0
 40
0.0
 40
0.0
 40
0.0
 40
0.5
 40
0.5
 40
0.5
 40
1.0
 40
1.0
 40
1.0
 40
1.0
 10
43.86467826594355
 20
245.5066337819393
 30
0.0
 10
43.86467826594355
 20
246.3348347365934
 30
0.0
 10
43.19288464631984
 20
247.0066283562171
 30
0.0
 10
42.36468369166577
 20
247.0066283562171
 30
0.0
 10
41.53579371791466
 20
247.0066283562171
 30
0.0
 10
40.864689117388
 20
246.3348347365934
 30
0.0
 10
40.864689117388
 20
245.5066337819393
 30
0.0
  0
SPLINE
  5
188
330
1F
100
AcDbEntity
  8
0
  6
K5LT32768
 62
     7
370
    15
100
AcDbSpline
210
0.0
220
0.0
230
1.0
 70
     8
 71
     3
 72
    11
 73
     7
 74
     0
 42
0.0
 43
0.0
 12
1.0
 22
0.0
 32
0.0
 13
1.0
 23
0.0
 33
0.0
 40
0.0
 40
0.0
 40
0.0
 40
0.0
 40
0.5
 40
0.5
 40
0.5
 40
1.0
 40
1.0
 40
1.0
 40
1.0
 10
42.9496609050612
 20
161.8507581518116
 30
0.0
 10
42.9496609050612
 20
161.0218681780605
 30
0.0
 10
43.62145452468491
 20
160.3507635775339
 30
0.0
 10
44.44965547933899
 20
160.3507635775339
 30
0.0
 10
45.27854545309009
 20
160.3507635775339
 30
0.0
 10
45.94965005361676
 20
161.0218681780605
 30
0.0
 10
45.94965005361676
 20
161.8507581518116
 30
0.0
  0
SPLINE
  5
189
330
1F
100
AcDbEntity
  8
0
  6
K5LT32768
 62
     7
370
    15
100
AcDbSpline
210
0.0
220
0.0
230
1.0
 70
     8
 71
     3
 72
    11
 73
     7
 74
     0
 42
0.0
 43
0.0
 12
1.0
 22
0.0
 32
0.0
 13
1.0
 23
0.0
 33
0.0
 40
0.0
 40
0.0
 40
0.0
 40
0.0
 40
0.5
 40
0.5
 40
0.5
 40
1.0
 40
1.0
 40
1.0
 40
1.0
 10
45.94965005361676
 20
161.8507581518116
 30
0.0
 10
45.94965005361676
 20
162.6789591064657
 30
0.0
 10
45.27854545309009
 20
163.3507527260894
 30
0.0
 10
44.44965547933899
 20
163.3507527260894
 30
0.0
 10
43.62145452468491
 20
163.3507527260894
 30
0.0
 10
42.9496609050612
 20
162.6789591064657
 30
0.0
 10
42.9496609050612
 20
161.8507581518116
 30
0.0
  0
SPLINE
  5
18A
330
1F
100
AcDbEntity
  8
0
  6
K5LT32768
 62
     7
370
    15
100
AcDbSpline
210
0.0
220
0.0
230
1.0
 70
     8
 71
     3
 72
    11
 73
     7
 74
     0
 42
0.0
 43
0.0
 12
1.0
 22
0.0
 32
0.0
 13
1.0
 23
0.0
 33
0.0
 40
0.0
 40
0.0
 40
0.0
 40
0.0
 40
0.5
 40
0.5
 40
0.5
 40
1.0
 40
1.0
 40
1.0
 40
1.0
 10
47.75901420246997
 20
294.6998412349188
 30
0.0
 10
47.75901420246997
 20
293.8712957707162
 30
0.0
 10
48.43011880299665
 20
293.199846660641
 30
0.0
 10
49.25900877674775
 20
293.199846660641
 30
0.0
 10
50.08720973140181
 20
293.199846660641
 30
0.0
 10
50.75900335102553
 20
293.8712957707162
 30
0.0
 10
50.75900335102553
 20
294.6998412349188
 30
0.0
  0
SPLINE
  5
18B
330
1F
100
AcDbEntity
  8
0
  6
K5LT32768
 62
     7
370
    15
100
AcDbSpline
210
0.0
220
0.0
230
1.0
 70
     8
 71
     3
 72
    11
 73
     7
 74
     0
 42
0.0
 43
0.0
 12
1.0
 22
0.0
 32
0.0
 13
1.0
 23
0.0
 33
0.0
 40
0.0
 40
0.0
 40
0.0
 40
0.0
 40
0.5
 40
0.5
 40
0.5
 40
1.0
 40
1.0
 40
1.0
 40
1.0
 10
50.75900335102553
 20
294.6998412349188
 30
0.0
 10
50.75900335102553
 20
295.5280421895729
 30
0.0
 10
50.08720973140181
 20
296.1998358091966
 30
0.0
 10
49.25900877674775
 20
296.1998358091966
 30
0.0
 10
48.43011880299665
 20
296.1998358091966
 30
0.0
 10
47.75901420246997
 20
295.5280421895729
 30
0.0
 10
47.75901420246997
 20
294.6998412349188
 30
0.0
  0
SPLINE
  5
18C
330
1F
100
AcDbEntity
  8
0
  6
K5LT32768
 62
     7
370
    15
100
AcDbSpline
210
0.0
220
0.0
230
1.0
 70
     8
 71
     3
 72
    10
 73
     6
 74
     0
 42
0.0
 43
0.0
 12
1.0
 22
0.0
 32
0.0
 13
1.0
 23
0.0
 33
0.0
 40
0.0
 40
0.0
 40
0.0
 40
0.0
 40
0.5
 40
0.5
 40
1.0
 40
1.0
 40
1.0
 40
1.0
 10
61.32442218518973
 20
238.2595309191678
 30
0.0
 10
63.91926810467991
 20
239.2041761012233
 30
0.0
 10
65.25734319115095
 20
242.0732516213393
 30
0.0
 10
63.36805282703993
 20
247.2629434603197
 30
0.0
 10
60.49897730692387
 20
248.6010185467907
 30
0.0
 10
57.90413138743369
 20
247.6563733647352
 30
0.0
  0
LINE
  5
18D
330
1F
100
AcDbEntity
  8
0
  6
K5LT32768
 62
     7
370
    15
100
AcDbLine
 10
52.3168755295
 20
234.9811780554
 30
0.0
 11
61.3244221852
 21
238.2595309192
 31
0.0
  0
SPLINE
  5
18E
330
1F
100
AcDbEntity
  8
0
  6
K5LT32768
 62
     7
370
    15
100
AcDbSpline
210
0.0
220
0.0
230
1.0
 70
     8
 71
     3
 72
     8
 73
     4
 74
     0
 42
0.0
 43
0.0
 12
1.0
 22
0.0
 32
0.0
 13
1.0
 23
0.0
 33
0.0
 40
0.0
 40
0.0
 40
0.0
 40
0.0
 40
1.0
 40
1.0
 40
1.0
 40
1.0
 10
45.90830890779376
 20
237.9694538793097
 30
0.0
 10
46.85226507075221
 20
235.3746079598195
 30
0.0
 10
49.72202960996534
 20
234.0365328733485
 30
0.0
 10
52.31687552945551
 20
234.981178055404
 30
0.0
  0
SPLINE
  5
18F
330
1F
100
AcDbEntity
  8
0
  6
K5LT32768
 62
     7
370
    15
100
AcDbSpline
210
0.0
220
0.0
230
1.0
 70
     8
 71
     3
 72
     8
 73
     4
 74
     0
 42
0.0
 43
0.0
 12
1.0
 22
0.0
 32
0.0
 13
1.0
 23
0.0
 33
0.0
 40
0.0
 40
0.0
 40
0.0
 40
0.0
 40
1.0
 40
1.0
 40
1.0
 40
1.0
 10
48.89658473169947
 20
244.3780205009715
 30
0.0
 10
46.30173881220929
 20
243.433375318916
 30
0.0
 10
44.96366372573825
 20
240.5642997987999
 30
0.0
 10
45.90830890779376
 20
237.9694538793097
 30
0.0
  0
LINE
  5
190
330
1F
100
AcDbEntity
  8
0
  6
K5LT32768
 62
     7
370
    15
100
AcDbLine
 10
57.9041313874
 20
247.6563733647
 30
0.0
 11
48.8965847317
 21
244.378020501
 31
0.0
  0
SPLINE
  5
191
330
1F
100
AcDbEntity
  8
0
  6
K5LT32768
 62
     7
370
    15
100
AcDbSpline
210
0.0
220
0.0
230
1.0
 70
     8
 71
     3
 72
     8
 73
     4
 74
     0
 42
0.0
 43
0.0
 12
1.0
 22
0.0
 32
0.0
 13
1.0
 23
0.0
 33
0.0
 40
0.0
 40
0.0
 40
0.0
 40
0.0
 40
1.0
 40
1.0
 40
1.0
 40
1.0
 10
-0.4985053167156515
 20
92.13149954293935
 30
0.0
 10
-1.27950846322179
 20
91.35084090598174
 30
0.0
 10
-1.27950846322179
 20
90.0844238056039
 30
0.0
 10
-0.4985053167156515
 20
89.30307614954924
 30
0.0
  0
LINE
  5
192
330
1F
100
AcDbEntity
  8
0
  6
K5LT32768
 62
     7
370
    15
100
AcDbLine
 10
12.8446940072
 20
105.4750433764
 30
0.0
 11
-0.4985053167
 21
92.1314995429
 31
0.0
  0
SPLINE
  5
193
330
1F
100
AcDbEntity
  8
0
  6
K5LT32768
 62
     7
370
    15
100
AcDbSpline
210
0.0
220
0.0
230
1.0
 70
     8
 71
     3
 72
     8
 73
     4
 74
     0
 42
0.0
 43
0.0
 12
1.0
 22
0.0
 32
0.0
 13
1.0
 23
0.0
 33
0.0
 40
0.0
 40
0.0
 40
0.0
 40
0.0
 40
1.0
 40
1.0
 40
1.0
 40
1.0
 10
15.67311740059561
 20
105.475043376409
 30
0.0
 10
14.89211425408947
 20
106.2557020133666
 30
0.0
 10
13.62569715371163
 20
106.2557020133666
 30
0.0
 10
12.84469400720549
 20
105.475043376409
 30
0.0
  0
LINE
  5
194
330
1F
100
AcDbEntity
  8
0
  6
K5LT32768
 62
     7
370
    15
100
AcDbLine
 10
29.0163167245
 20
92.1314995429
 30
0.0
 11
15.6731174006
 21
105.4750433764
 31
0.0
  0
SPLINE
  5
195
330
1F
100
AcDbEntity
  8
0
  6
K5LT32768
 62
     7
370
    15
100
AcDbSpline
210
0.0
220
0.0
230
1.0
 70
     8
 71
     3
 72
    11
 73
     7
 74
     0
 42
0.0
 43
0.0
 12
1.0
 22
0.0
 32
0.0
 13
1.0
 23
0.0
 33
0.0
 40
0.0
 40
0.0
 40
0.0
 40
0.0
 40
0.5
 40
0.5
 40
0.5
 40
1.0
 40
1.0
 40
1.0
 40
1.0
 10
27.6021050278217
 20
88.71740991705676
 30
0.0
 10
28.70660264039279
 20
88.71740991705676
 30
0.0
 10
29.60198295700923
 20
89.61313474322172
 30
0.0
 10
29.60198295700923
 20
90.71763235579282
 30
0.0
 10
29.60198295700923
 20
91.2481770605213
 30
0.0
 10
29.39148762286046
 20
91.75667315414417
 30
0.0
 10
29.01631672451676
 20
92.13149954293935
 30
0.0
  0
LINE
  5
196
330
1F
100
AcDbEntity
  8
0
  6
K5LT32768
 62
     7
370
    15
100
AcDbLine
 10
0.91570638
 20
88.7174099171
 30
0.0
 11
27.6021050278
 21
88.7174099171
 31
0.0
  0
SPLINE
  5
197
330
1F
100
AcDbEntity
  8
0
  6
K5LT32768
 62
     7
370
    15
100
AcDbSpline
210
0.0
220
0.0
230
1.0
 70
     8
 71
     3
 72
     8
 73
     4
 74
     0
 42
0.0
 43
0.0
 12
1.0
 22
0.0
 32
0.0
 13
1.0
 23
0.0
 33
0.0
 40
0.0
 40
0.0
 40
0.0
 40
0.0
 40
1.0
 40
1.0
 40
1.0
 40
1.0
 10
-0.4985053167156515
 20
89.30307614954924
 30
0.0
 10
-0.1233344183719442
 20
88.92824976075406
 30
0.0
 10
0.3851616752509318
 20
88.71740991705676
 30
0.0
 10
0.9157063799794067
 20
88.71740991705676
 30
0.0
  0
SPLINE
  5
198
330
1F
100
AcDbEntity
  8
0
  6
K5LT32768
 62
     7
370
    15
100
AcDbSpline
210
0.0
220
0.0
230
1.0
 70
     8
 71
     3
 72
     8
 73
     4
 74
     0
 42
0.0
 43
0.0
 12
1.0
 22
0.0
 32
0.0
 13
1.0
 23
0.0
 33
0.0
 40
0.0
 40
0.0
 40
0.0
 40
0.0
 40
1.0
 40
1.0
 40
1.0
 40
1.0
 10
-3.326928710105768
 20
124.4747449775619
 30
0.0
 10
-4.107931856611907
 20
125.2560926336165
 30
0.0
 10
-5.374348956989746
 20
125.2560926336165
 30
0.0
 10
-6.155352103495884
 20
124.4747449775619
 30
0.0
  0
LINE
  5
199
330
1F
100
AcDbEntity
  8
0
  6
K5LT32768
 62
     7
370
    15
100
AcDbLine
 10
10.0162706138
 20
111.1318901632
 30
0.0
 11
-3.3269287101
 21
124.4747449776
 31
0.0
  0
SPLINE
  5
19A
330
1F
100
AcDbEntity
  8
0
  6
K5LT32768
 62
     7
370
    15
100
AcDbSpline
210
0.0
220
0.0
230
1.0
 70
     8
 71
     3
 72
     8
 73
     4
 74
     0
 42
0.0
 43
0.0
 12
1.0
 22
0.0
 32
0.0
 13
1.0
 23
0.0
 33
0.0
 40
0.0
 40
0.0
 40
0.0
 40
0.0
 40
1.0
 40
1.0
 40
1.0
 40
1.0
 10
10.01627061381538
 20
108.3034667697991
 30
0.0
 10
10.79727376032151
 20
109.0841254067568
 30
0.0
 10
10.79727376032151
 20
110.3505425071346
 30
0.0
 10
10.01627061381538
 20
111.1318901631893
 30
0.0
  0
LINE
  5
19B
330
1F
100
AcDbEntity
  8
0
  6
K5LT32768
 62
     7
370
    15
100
AcDbLine
 10
-3.3269287101
 20
94.9599229363
 30
0.0
 11
10.0162706138
 21
108.3034667698
 31
0.0
  0
SPLINE
  5
19C
330
1F
100
AcDbEntity
  8
0
  6
K5LT32768
 62
     7
370
    15
100
AcDbSpline
210
0.0
220
0.0
230
1.0
 70
     8
 71
     3
 72
    11
 73
     7
 74
     0
 42
0.0
 43
0.0
 12
1.0
 22
0.0
 32
0.0
 13
1.0
 23
0.0
 33
0.0
 40
0.0
 40
0.0
 40
0.0
 40
0.0
 40
0.5
 40
0.5
 40
0.5
 40
1.0
 40
1.0
 40
1.0
 40
1.0
 10
-6.741018335988357
 20
96.37447914257305
 30
0.0
 10
-6.741018335988357
 20
95.26998153000196
 30
0.0
 10
-5.845638019371924
 20
94.37425670383699
 30
0.0
 10
-4.741140406800826
 20
94.37425670383699
 30
0.0
 10
-4.210595702072351
 20
94.37425670383699
 30
0.0
 10
-3.702099608449475
 20
94.58509654753429
 30
0.0
 10
-3.326928710105768
 20
94.95992293632946
 30
0.0
  0
LINE
  5
19D
330
1F
100
AcDbEntity
  8
0
  6
K5LT32768
 62
     7
370
    15
100
AcDbLine
 10
-6.741018336
 20
123.0608777904
 30
0.0
 11
-6.741018336
 21
96.3744791426
 31
0.0
  0
SPLINE
  5
19E
330
1F
100
AcDbEntity
  8
0
  6
K5LT32768
 62
     7
370
    15
100
AcDbSpline
210
0.0
220
0.0
230
1.0
 70
     8
 71
     3
 72
     8
 73
     4
 74
     0
 42
0.0
 43
0.0
 12
1.0
 22
0.0
 32
0.0
 13
1.0
 23
0.0
 33
0.0
 40
0.0
 40
0.0
 40
0.0
 40
0.0
 40
1.0
 40
1.0
 40
1.0
 40
1.0
 10
-6.155352103495884
 20
124.4747449775619
 30
0.0
 10
-6.530523001839593
 20
124.0999185887667
 30
0.0
 10
-6.741018335988357
 20
123.5914224951438
 30
0.0
 10
-6.741018335988357
 20
123.0608777904153
 30
0.0
  0
LINE
  5
19F
330
1F
100
AcDbEntity
  8
0
  6
K5LT32768
 62
     7
370
    15
100
AcDbLine
 10
2.5393798822
 20
206.3663872097
 30
0.0
 11
-6.4605875635
 21
206.3663872097
 31
0.0
  0
LINE
  5
1A0
330
1F
100
AcDbEntity
  8
0
  6
K5LT32768
 62
     7
370
    15
100
AcDbLine
 10
2.5393798822
 20
164.8662502301
 30
0.0
 11
2.5393798822
 21
206.3663872097
 31
0.0
  0
LINE
  5
1A1
330
1F
100
AcDbEntity
  8
0
  6
K5LT32768
 62
     7
370
    15
100
AcDbLine
 10
-6.4605875635
 20
164.8662502301
 30
0.0
 11
2.5393798822
 21
164.8662502301
 31
0.0
  0
LINE
  5
1A2
330
1F
100
AcDbEntity
  8
0
  6
K5LT32768
 62
     7
370
    15
100
AcDbLine
 10
-6.4605875635
 20
206.3663872097
 30
0.0
 11
-6.4605875635
 21
164.8662502301
 31
0.0
  0
SPLINE
  5
1A3
330
1F
100
AcDbEntity
  8
0
  6
K5LT32768
 62
     7
370
    15
100
AcDbSpline
210
0.0
220
0.0
230
1.0
 70
     8
 71
     3
 72
     8
 73
     4
 74
     0
 42
0.0
 43
0.0
 12
1.0
 22
0.0
 32
0.0
 13
1.0
 23
0.0
 33
0.0
 40
0.0
 40
0.0
 40
0.0
 40
0.0
 40
1.0
 40
1.0
 40
1.0
 40
1.0
 10
91.36496579747126
 20
199.3234062544226
 30
0.0
 10
90.81512855802539
 20
199.3234062544226
 30
0.0
 10
90.36519908765177
 20
198.9857868968681
 30
0.0
 10
90.36519908765177
 20
198.5734089672837
 30
0.0
  0
SPLINE
  5
1A4
330
1F
100
AcDbEntity
  8
0
  6
K5LT32768
 62
     7
370
    15
100
AcDbSpline
210
0.0
220
0.0
230
1.0
 70
     8
 71
     3
 72
     8
 73
     4
 74
     0
 42
0.0
 43
0.0
 12
1.0
 22
0.0
 32
0.0
 13
1.0
 23
0.0
 33
0.0
 40
0.0
 40
0.0
 40
0.0
 40
0.0
 40
1.0
 40
1.0
 40
1.0
 40
1.0
 10
90.36519908765177
 20
198.5734089672837
 30
0.0
 10
90.36519908765177
 20
198.1610310376993
 30
0.0
 10
89.91526961727813
 20
197.8234116801449
 30
0.0
 10
89.36508786828374
 20
197.8234116801449
 30
0.0
  0
LINE
  5
1A5
330
1F
100
AcDbEntity
  8
0
  6
K5LT32768
 62
     7
370
    15
100
AcDbLine
 10
89.3650878683
 20
197.8234116801
 30
0.0
 11
83.4264322708
 21
197.8234116801
 31
0.0
  0
SPLINE
  5
1A6
330
1F
100
AcDbEntity
  8
0
  6
K5LT32768
 62
     7
370
    15
100
AcDbSpline
210
0.0
220
0.0
230
1.0
 70
     8
 71
     3
 72
     8
 73
     4
 74
     0
 42
0.0
 43
0.0
 12
1.0
 22
0.0
 32
0.0
 13
1.0
 23
0.0
 33
0.0
 40
0.0
 40
0.0
 40
0.0
 40
0.0
 40
1.0
 40
1.0
 40
1.0
 40
1.0
 10
83.42643227081007
 20
197.8234116801449
 30
0.0
 10
82.87659503136419
 20
197.8234116801449
 30
0.0
 10
82.42666556099056
 20
197.3734822097712
 30
0.0
 10
82.42666556099056
 20
196.8233004607768
 30
0.0
  0
LINE
  5
1A7
330
1F
100
AcDbEntity
  8
0
  6
K5LT32768
 62
     7
370
    15
100
AcDbLine
 10
82.426665561
 20
196.8233004608
 30
0.0
 11
82.426665561
 21
160.3232028137
 31
0.0
  0
SPLINE
  5
1A8
330
1F
100
AcDbEntity
  8
0
  6
K5LT32768
 62
     7
370
    15
100
AcDbSpline
210
0.0
220
0.0
230
1.0
 70
     8
 71
     3
 72
     8
 73
     4
 74
     0
 42
0.0
 43
0.0
 12
1.0
 22
0.0
 32
0.0
 13
1.0
 23
0.0
 33
0.0
 40
0.0
 40
0.0
 40
0.0
 40
0.0
 40
1.0
 40
1.0
 40
1.0
 40
1.0
 10
82.42666556099056
 20
160.3232028136518
 30
0.0
 10
82.42666556099056
 20
159.7730210646575
 30
0.0
 10
82.87659503136419
 20
159.3230915942838
 30
0.0
 10
83.42643227081007
 20
159.3230915942838
 30
0.0
  0
LINE
  5
1A9
330
1F
100
AcDbEntity
  8
0
  6
K5LT32768
 62
     7
370
    15
100
AcDbLine
 10
83.4264322708
 20
159.3230915943
 30
0.0
 11
91.4266330067
 21
159.3230915943
 31
0.0
  0
SPLINE
  5
1AA
330
1F
100
AcDbEntity
  8
0
  6
K5LT32768
 62
     7
370
    15
100
AcDbSpline
210
0.0
220
0.0
230
1.0
 70
     8
 71
     3
 72
     8
 73
     4
 74
     0
 42
0.0
 43
0.0
 12
1.0
 22
0.0
 32
0.0
 13
1.0
 23
0.0
 33
0.0
 40
0.0
 40
0.0
 40
0.0
 40
0.0
 40
1.0
 40
1.0
 40
1.0
 40
1.0
 10
91.42663300665724
 20
159.3230915942838
 30
0.0
 10
91.9764702461031
 20
159.3230915942838
 30
0.0
 10
92.42639971647675
 20
159.6607109518383
 30
0.0
 10
92.42639971647675
 20
160.0730888814227
 30
0.0
  0
SPLINE
  5
1AB
330
1F
100
AcDbEntity
  8
0
  6
K5LT32768
 62
     7
370
    15
100
AcDbSpline
210
0.0
220
0.0
230
1.0
 70
     8
 71
     3
 72
     8
 73
     4
 74
     0
 42
0.0
 43
0.0
 12
1.0
 22
0.0
 32
0.0
 13
1.0
 23
0.0
 33
0.0
 40
0.0
 40
0.0
 40
0.0
 40
0.0
 40
1.0
 40
1.0
 40
1.0
 40
1.0
 10
92.42639971647675
 20
160.0730888814227
 30
0.0
 10
92.42639971647675
 20
160.4854668110071
 30
0.0
 10
92.87632918685037
 20
160.8230861685616
 30
0.0
 10
93.42651093584476
 20
160.8230861685616
 30
0.0
  0
LINE
  5
1AC
330
1F
100
AcDbEntity
  8
0
  6
K5LT32768
 62
     7
370
    15
100
AcDbLine
 10
93.4265109358
 20
160.8230861686
 30
0.0
 11
96.4265000844
 21
160.8230861686
 31
0.0
  0
SPLINE
  5
1AD
330
1F
100
AcDbEntity
  8
0
  6
K5LT32768
 62
     7
370
    15
100
AcDbSpline
210
0.0
220
0.0
230
1.0
 70
     8
 71
     3
 72
     8
 73
     4
 74
     0
 42
0.0
 43
0.0
 12
1.0
 22
0.0
 32
0.0
 13
1.0
 23
0.0
 33
0.0
 40
0.0
 40
0.0
 40
0.0
 40
0.0
 40
1.0
 40
1.0
 40
1.0
 40
1.0
 10
96.42650008440032
 20
160.8230861685616
 30
0.0
 10
96.97668183339472
 20
160.8230861685616
 30
0.0
 10
97.42661130376835
 20
160.4854668110071
 30
0.0
 10
97.42661130376835
 20
160.0730888814227
 30
0.0
  0
SPLINE
  5
1AE
330
1F
100
AcDbEntity
  8
0
  6
K5LT32768
 62
     7
370
    15
100
AcDbSpline
210
0.0
220
0.0
230
1.0
 70
     8
 71
     3
 72
     8
 73
     4
 74
     0
 42
0.0
 43
0.0
 12
1.0
 22
0.0
 32
0.0
 13
1.0
 23
0.0
 33
0.0
 40
0.0
 40
0.0
 40
0.0
 40
0.0
 40
1.0
 40
1.0
 40
1.0
 40
1.0
 10
97.42661130376835
 20
160.0730888814227
 30
0.0
 10
97.42661130376835
 20
159.6607109518383
 30
0.0
 10
97.87654077414199
 20
159.3230915942838
 30
0.0
 10
98.42672252313638
 20
159.3230915942838
 30
0.0
  0
LINE
  5
1AF
330
1F
100
AcDbEntity
  8
0
  6
K5LT32768
 62
     7
370
    15
100
AcDbLine
 10
98.4267225231
 20
159.3230915943
 30
0.0
 11
106.4262342399
 21
159.3230915943
 31
0.0
  0
SPLINE
  5
1B0
330
1F
100
AcDbEntity
  8
0
  6
K5LT32768
 62
     7
370
    15
100
AcDbSpline
210
0.0
220
0.0
230
1.0
 70
     8
 71
     3
 72
     8
 73
     4
 74
     0
 42
0.0
 43
0.0
 12
1.0
 22
0.0
 32
0.0
 13
1.0
 23
0.0
 33
0.0
 40
0.0
 40
0.0
 40
0.0
 40
0.0
 40
1.0
 40
1.0
 40
1.0
 40
1.0
 10
106.4262342398865
 20
159.3230915942838
 30
0.0
 10
106.9764159888809
 20
159.3230915942838
 30
0.0
 10
107.4263454592545
 20
159.7730210646575
 30
0.0
 10
107.4263454592545
 20
160.3232028136518
 30
0.0
  0
LINE
  5
1B1
330
1F
100
AcDbEntity
  8
0
  6
K5LT32768
 62
     7
370
    15
100
AcDbLine
 10
107.4263454593
 20
160.3232028137
 30
0.0
 11
107.4263454593
 21
196.8233004608
 31
0.0
  0
SPLINE
  5
1B2
330
1F
100
AcDbEntity
  8
0
  6
K5LT32768
 62
     7
370
    15
100
AcDbSpline
210
0.0
220
0.0
230
1.0
 70
     8
 71
     3
 72
     8
 73
     4
 74
     0
 42
0.0
 43
0.0
 12
1.0
 22
0.0
 32
0.0
 13
1.0
 23
0.0
 33
0.0
 40
0.0
 40
0.0
 40
0.0
 40
0.0
 40
1.0
 40
1.0
 40
1.0
 40
1.0
 10
107.4263454592545
 20
196.8233004607768
 30
0.0
 10
107.4263454592545
 20
197.3734822097712
 30
0.0
 10
106.9764159888809
 20
197.8234116801449
 30
0.0
 10
106.4262342398865
 20
197.8234116801449
 30
0.0
  0
LINE
  5
1B3
330
1F
100
AcDbEntity
  8
0
  6
K5LT32768
 62
     7
370
    15
100
AcDbLine
 10
106.4262342399
 20
197.8234116801
 30
0.0
 11
100.3649332431
 21
197.8234116801
 31
0.0
  0
SPLINE
  5
1B4
330
1F
100
AcDbEntity
  8
0
  6
K5LT32768
 62
     7
370
    15
100
AcDbSpline
210
0.0
220
0.0
230
1.0
 70
     8
 71
     3
 72
     8
 73
     4
 74
     0
 42
0.0
 43
0.0
 12
1.0
 22
0.0
 32
0.0
 13
1.0
 23
0.0
 33
0.0
 40
0.0
 40
0.0
 40
0.0
 40
0.0
 40
1.0
 40
1.0
 40
1.0
 40
1.0
 10
100.3649332431379
 20
197.8234116801449
 30
0.0
 10
99.81475149414354
 20
197.8234116801449
 30
0.0
 10
99.3648220237699
 20
198.1610310376993
 30
0.0
 10
99.3648220237699
 20
198.5734089672837
 30
0.0
  0
SPLINE
  5
1B5
330
1F
100
AcDbEntity
  8
0
  6
K5LT32768
 62
     7
370
    15
100
AcDbSpline
210
0.0
220
0.0
230
1.0
 70
     8
 71
     3
 72
     8
 73
     4
 74
     0
 42
0.0
 43
0.0
 12
1.0
 22
0.0
 32
0.0
 13
1.0
 23
0.0
 33
0.0
 40
0.0
 40
0.0
 40
0.0
 40
0.0
 40
1.0
 40
1.0
 40
1.0
 40
1.0
 10
99.3648220237699
 20
198.5734089672837
 30
0.0
 10
99.3648220237699
 20
198.9857868968681
 30
0.0
 10
98.91489255339629
 20
199.3234062544226
 30
0.0
 10
98.36471080440188
 20
199.3234062544226
 30
0.0
  0
LINE
  5
1B6
330
1F
100
AcDbEntity
  8
0
  6
K5LT32768
 62
     7
370
    15
100
AcDbLine
 10
98.3647108044
 20
199.3234062544
 30
0.0
 11
91.3649657975
 21
199.3234062544
 31
0.0
  0
SPLINE
  5
1B7
330
1F
100
AcDbEntity
  8
0
  6
K5LT32768
 62
     7
370
    15
100
AcDbSpline
210
0.0
220
0.0
230
1.0
 70
     8
 71
     3
 72
    10
 73
     6
 74
     0
 42
0.0
 43
0.0
 12
1.0
 22
0.0
 32
0.0
 13
1.0
 23
0.0
 33
0.0
 40
0.0
 40
0.0
 40
0.0
 40
0.0
 40
0.5
 40
0.5
 40
1.0
 40
1.0
 40
1.0
 40
1.0
 10
86.92664928382389
 20
179.3232489243532
 30
0.0
 10
86.92664928382389
 20
174.9049139645203
 30
0.0
 10
90.50817055028963
 20
171.323048188506
 30
0.0
 10
99.34484046995546
 20
171.323048188506
 30
0.0
 10
102.9263617364212
 20
174.9049139645203
 30
0.0
 10
102.9263617364212
 20
179.3232489243532
 30
0.0
  0
SPLINE
  5
1B8
330
1F
100
AcDbEntity
  8
0
  6
K5LT32768
 62
     7
370
    15
100
AcDbSpline
210
0.0
220
0.0
230
1.0
 70
     8
 71
     3
 72
    10
 73
     6
 74
     0
 42
0.0
 43
0.0
 12
1.0
 22
0.0
 32
0.0
 13
1.0
 23
0.0
 33
0.0
 40
0.0
 40
0.0
 40
0.0
 40
0.0
 40
0.5
 40
0.5
 40
1.0
 40
1.0
 40
1.0
 40
1.0
 10
102.9263617364212
 20
179.3232489243532
 30
0.0
 10
102.9263617364212
 20
183.7415838841861
 30
0.0
 10
99.34484046995546
 20
187.3234496602004
 30
0.0
 10
90.50817055028963
 20
187.3234496602004
 30
0.0
 10
86.92664928382389
 20
183.7415838841861
 30
0.0
 10
86.92664928382389
 20
179.3232489243532
 30
0.0
  0
LINE
  5
1B9
330
1F
100
AcDbEntity
  8
0
  6
K5LT32768
 62
     7
370
    15
100
AcDbLine
 10
105.3459960691
 20
67.3478702067
 30
0.0
 11
107.0267761016
 21
65.8354951775
 31
0.0
  0
LINE
  5
1BA
330
1F
100
AcDbEntity
  8
0
  6
K5LT32768
 62
     7
370
    15
100
AcDbLine
 10
107.0267761016
 20
65.8354951775
 30
0.0
 11
107.0267761016
 21
61.6973100975
 31
0.0
  0
LINE
  5
1BB
330
1F
100
AcDbEntity
  8
0
  6
K5LT32768
 62
     7
370
    15
100
AcDbLine
 10
107.0267761016
 20
61.6973100975
 30
0.0
 11
106.5248310919
 21
61.6973100975
 31
0.0
  0
LINE
  5
1BC
330
1F
100
AcDbEntity
  8
0
  6
K5LT32768
 62
     7
370
    15
100
AcDbLine
 10
106.5248310919
 20
61.6973100975
 30
0.0
 11
106.5248310919
 21
65.7210451753
 31
0.0
  0
LINE
  5
1BD
330
1F
100
AcDbEntity
  8
0
  6
K5LT32768
 62
     7
370
    15
100
AcDbLine
 10
106.5248310919
 20
65.7210451753
 30
0.0
 11
105.3476310691
 21
66.9015151981
 31
0.0
  0
LINE
  5
1BE
330
1F
100
AcDbEntity
  8
0
  6
K5LT32768
 62
     7
370
    15
100
AcDbLine
 10
105.3476310691
 20
66.9015151981
 30
0.0
 11
104.2113060472
 21
65.755380176
 31
0.0
  0
LINE
  5
1BF
330
1F
100
AcDbEntity
  8
0
  6
K5LT32768
 62
     7
370
    15
100
AcDbLine
 10
104.2113060472
 20
65.755380176
 30
0.0
 11
104.2113060472
 21
64.362360149
 31
0.0
  0
LINE
  5
1C0
330
1F
100
AcDbEntity
  8
0
  6
K5LT32768
 62
     7
370
    15
100
AcDbLine
 10
104.2113060472
 20
64.362360149
 30
0.0
 11
103.7093610374
 21
64.362360149
 31
0.0
  0
LINE
  5
1C1
330
1F
100
AcDbEntity
  8
0
  6
K5LT32768
 62
     7
370
    15
100
AcDbLine
 10
103.7093610374
 20
64.362360149
 30
0.0
 11
103.7093610374
 21
65.7210451753
 31
0.0
  0
LINE
  5
1C2
330
1F
100
AcDbEntity
  8
0
  6
K5LT32768
 62
     7
370
    15
100
AcDbLine
 10
103.7093610374
 20
65.7210451753
 30
0.0
 11
102.5370660148
 21
66.9015151981
 31
0.0
  0
LINE
  5
1C3
330
1F
100
AcDbEntity
  8
0
  6
K5LT32768
 62
     7
370
    15
100
AcDbLine
 10
102.5370660148
 20
66.9015151981
 30
0.0
 11
101.4023759928
 21
65.755380176
 31
0.0
  0
LINE
  5
1C4
330
1F
100
AcDbEntity
  8
0
  6
K5LT32768
 62
     7
370
    15
100
AcDbLine
 10
101.4023759928
 20
65.755380176
 30
0.0
 11
101.4023759928
 21
61.6973100975
 31
0.0
  0
LINE
  5
1C5
330
1F
100
AcDbEntity
  8
0
  6
K5LT32768
 62
     7
370
    15
100
AcDbLine
 10
101.4023759928
 20
61.6973100975
 30
0.0
 11
100.8987959831
 21
61.6973100975
 31
0.0
  0
LINE
  5
1C6
330
1F
100
AcDbEntity
  8
0
  6
K5LT32768
 62
     7
370
    15
100
AcDbLine
 10
100.8987959831
 20
61.6973100975
 30
0.0
 11
100.8987959831
 21
67.2236102043
 31
0.0
  0
LINE
  5
1C7
330
1F
100
AcDbEntity
  8
0
  6
K5LT32768
 62
     7
370
    15
100
AcDbLine
 10
100.8987959831
 20
67.2236102043
 30
0.0
 11
101.4023759928
 21
67.2236102043
 31
0.0
  0
LINE
  5
1C8
330
1F
100
AcDbEntity
  8
0
  6
K5LT32768
 62
     7
370
    15
100
AcDbLine
 10
101.4023759928
 20
67.2236102043
 30
0.0
 11
101.4023759928
 21
66.1085401828
 31
0.0
  0
LINE
  5
1C9
330
1F
100
AcDbEntity
  8
0
  6
K5LT32768
 62
     7
370
    15
100
AcDbLine
 10
101.4023759928
 20
66.1085401828
 30
0.0
 11
102.5370660148
 21
67.3478702067
 31
0.0
  0
LINE
  5
1CA
330
1F
100
AcDbEntity
  8
0
  6
K5LT32768
 62
     7
370
    15
100
AcDbLine
 10
102.5370660148
 20
67.3478702067
 30
0.0
 11
103.943166042
 21
66.016980181
 31
0.0
  0
LINE
  5
1CB
330
1F
100
AcDbEntity
  8
0
  6
K5LT32768
 62
     7
370
    15
100
AcDbLine
 10
103.943166042
 20
66.016980181
 30
0.0
 11
105.3459960691
 21
67.3478702067
 31
0.0
  0
LINE
  5
1CC
330
1F
100
AcDbEntity
  8
0
  6
K5LT32768
 62
     7
370
    15
100
AcDbLine
 10
93.961490849
 20
62.0749951048
 30
0.0
 11
98.2451909318
 21
62.0749951048
 31
0.0
  0
LINE
  5
1CD
330
1F
100
AcDbEntity
  8
0
  6
K5LT32768
 62
     7
370
    15
100
AcDbLine
 10
98.2451909318
 20
62.0749951048
 30
0.0
 11
98.2451909318
 21
61.6973100975
 31
0.0
  0
LINE
  5
1CE
330
1F
100
AcDbEntity
  8
0
  6
K5LT32768
 62
     7
370
    15
100
AcDbLine
 10
98.2451909318
 20
61.6973100975
 30
0.0
 11
93.7391308447
 21
61.6973100975
 31
0.0
  0
LINE
  5
1CF
330
1F
100
AcDbEntity
  8
0
  6
K5LT32768
 62
     7
370
    15
100
AcDbLine
 10
93.7391308447
 20
61.6973100975
 30
0.0
 11
92.2136758152
 21
63.0936001245
 31
0.0
  0
LINE
  5
1D0
330
1F
100
AcDbEntity
  8
0
  6
K5LT32768
 62
     7
370
    15
100
AcDbLine
 10
92.2136758152
 20
63.0936001245
 30
0.0
 11
92.2136758152
 21
65.8404001776
 31
0.0
  0
LINE
  5
1D1
330
1F
100
AcDbEntity
  8
0
  6
K5LT32768
 62
     7
370
    15
100
AcDbLine
 10
92.2136758152
 20
65.8404001776
 30
0.0
 11
93.7424008447
 21
67.2432302047
 31
0.0
  0
LINE
  5
1D2
330
1F
100
AcDbEntity
  8
0
  6
K5LT32768
 62
     7
370
    15
100
AcDbLine
 10
93.7424008447
 20
67.2432302047
 30
0.0
 11
98.2451909318
 21
67.2432302047
 31
0.0
  0
LINE
  5
1D3
330
1F
100
AcDbEntity
  8
0
  6
K5LT32768
 62
     7
370
    15
100
AcDbLine
 10
98.2451909318
 20
67.2432302047
 30
0.0
 11
98.2451909318
 21
66.8606401973
 31
0.0
  0
LINE
  5
1D4
330
1F
100
AcDbEntity
  8
0
  6
K5LT32768
 62
     7
370
    15
100
AcDbLine
 10
98.2451909318
 20
66.8606401973
 30
0.0
 11
93.964760849
 21
66.8606401973
 31
0.0
  0
LINE
  5
1D5
330
1F
100
AcDbEntity
  8
0
  6
K5LT32768
 62
     7
370
    15
100
AcDbLine
 10
93.964760849
 20
66.8606401973
 30
0.0
 11
92.7172558249
 21
65.7145051752
 31
0.0
  0
LINE
  5
1D6
330
1F
100
AcDbEntity
  8
0
  6
K5LT32768
 62
     7
370
    15
100
AcDbLine
 10
92.7172558249
 20
65.7145051752
 30
0.0
 11
92.7172558249
 21
63.2194951269
 31
0.0
  0
LINE
  5
1D7
330
1F
100
AcDbEntity
  8
0
  6
K5LT32768
 62
     7
370
    15
100
AcDbLine
 10
92.7172558249
 20
63.2194951269
 30
0.0
 11
93.961490849
 21
62.0749951048
 31
0.0
  0
LINE
  5
1D8
330
1F
100
AcDbEntity
  8
0
  6
K5LT32768
 62
     7
370
    15
100
AcDbLine
 10
88.0918407355
 20
67.2432302047
 30
0.0
 11
89.6565357657
 21
65.8060651769
 31
0.0
  0
LINE
  5
1D9
330
1F
100
AcDbEntity
  8
0
  6
K5LT32768
 62
     7
370
    15
100
AcDbLine
 10
89.6565357657
 20
65.8060651769
 30
0.0
 11
89.6565357657
 21
63.1263001251
 31
0.0
  0
LINE
  5
1DA
330
1F
100
AcDbEntity
  8
0
  6
K5LT32768
 62
     7
370
    15
100
AcDbLine
 10
89.6565357657
 20
63.1263001251
 30
0.0
 11
88.0951107355
 21
61.6973100975
 31
0.0
  0
LINE
  5
1DB
330
1F
100
AcDbEntity
  8
0
  6
K5LT32768
 62
     7
370
    15
100
AcDbLine
 10
88.0951107355
 20
61.6973100975
 30
0.0
 11
85.0556456768
 21
61.6973100975
 31
0.0
  0
LINE
  5
1DC
330
1F
100
AcDbEntity
  8
0
  6
K5LT32768
 62
     7
370
    15
100
AcDbLine
 10
85.0556456768
 20
61.6973100975
 30
0.0
 11
83.5514456477
 21
63.1508251256
 31
0.0
  0
LINE
  5
1DD
330
1F
100
AcDbEntity
  8
0
  6
K5LT32768
 62
     7
370
    15
100
AcDbLine
 10
83.5514456477
 20
63.1508251256
 30
0.0
 11
83.827760653
 21
63.3862651301
 31
0.0
  0
LINE
  5
1DE
330
1F
100
AcDbEntity
  8
0
  6
K5LT32768
 62
     7
370
    15
100
AcDbLine
 10
83.827760653
 20
63.3862651301
 30
0.0
 11
85.2796406811
 21
62.0799001049
 31
0.0
  0
LINE
  5
1DF
330
1F
100
AcDbEntity
  8
0
  6
K5LT32768
 62
     7
370
    15
100
AcDbLine
 10
85.2796406811
 20
62.0799001049
 30
0.0
 11
87.8678457312
 21
62.0799001049
 31
0.0
  0
LINE
  5
1E0
330
1F
100
AcDbEntity
  8
0
  6
K5LT32768
 62
     7
370
    15
100
AcDbLine
 10
87.8678457312
 20
62.0799001049
 30
0.0
 11
89.154590756
 21
63.2930701283
 31
0.0
  0
LINE
  5
1E1
330
1F
100
AcDbEntity
  8
0
  6
K5LT32768
 62
     7
370
    15
100
AcDbLine
 10
89.154590756
 20
63.2930701283
 30
0.0
 11
89.154590756
 21
65.8044301769
 31
0.0
  0
LINE
  5
1E2
330
1F
100
AcDbEntity
  8
0
  6
K5LT32768
 62
     7
370
    15
100
AcDbLine
 10
89.154590756
 20
65.8044301769
 30
0.0
 11
87.8678457312
 21
67.0192352004
 31
0.0
  0
LINE
  5
1E3
330
1F
100
AcDbEntity
  8
0
  6
K5LT32768
 62
     7
370
    15
100
AcDbLine
 10
87.8678457312
 20
67.0192352004
 30
0.0
 11
83.5285556473
 21
67.0192352004
 31
0.0
  0
LINE
  5
1E4
330
1F
100
AcDbEntity
  8
0
  6
K5LT32768
 62
     7
370
    15
100
AcDbLine
 10
83.5285556473
 20
67.0192352004
 30
0.0
 11
83.5285556473
 21
70.0685102593
 31
0.0
  0
LINE
  5
1E5
330
1F
100
AcDbEntity
  8
0
  6
K5LT32768
 62
     7
370
    15
100
AcDbLine
 10
83.5285556473
 20
70.0685102593
 30
0.0
 11
89.5600707639
 21
70.0685102593
 31
0.0
  0
LINE
  5
1E6
330
1F
100
AcDbEntity
  8
0
  6
K5LT32768
 62
     7
370
    15
100
AcDbLine
 10
89.5600707639
 20
70.0685102593
 30
0.0
 11
89.5600707639
 21
69.6744752517
 31
0.0
  0
LINE
  5
1E7
330
1F
100
AcDbEntity
  8
0
  6
K5LT32768
 62
     7
370
    15
100
AcDbLine
 10
89.5600707639
 20
69.6744752517
 30
0.0
 11
84.032135657
 21
69.6744752517
 31
0.0
  0
LINE
  5
1E8
330
1F
100
AcDbEntity
  8
0
  6
K5LT32768
 62
     7
370
    15
100
AcDbLine
 10
84.032135657
 20
69.6744752517
 30
0.0
 11
84.032135657
 21
67.2432302047
 31
0.0
  0
LINE
  5
1E9
330
1F
100
AcDbEntity
  8
0
  6
K5LT32768
 62
     7
370
    15
100
AcDbLine
 10
84.032135657
 20
67.2432302047
 30
0.0
 11
88.0918407355
 21
67.2432302047
 31
0.0
  0
LINE
  5
1EA
330
1F
100
AcDbEntity
  8
0
  6
K5LT32768
 62
     7
370
    15
100
AcDbLine
 10
119.9265299179
 20
38.4782714748
 30
0.0
 11
119.9265299179
 21
88.4817653859
 31
0.0
  0
LINE
  5
1EB
330
1F
100
AcDbEntity
  8
0
  6
K5LT32768
 62
     7
370
    15
100
AcDbLine
 10
119.9265299179
 20
88.4817653859
 30
0.0
 11
69.9264811023
 21
88.4817653859
 31
0.0
  0
LINE
  5
1EC
330
1F
100
AcDbEntity
  8
0
  6
K5LT32768
 62
     7
370
    15
100
AcDbLine
 10
69.9264811023
 20
88.4817653859
 30
0.0
 11
69.9264811023
 21
38.4782714748
 31
0.0
  0
LINE
  5
1ED
330
1F
100
AcDbEntity
  8
0
  6
K5LT32768
 62
     7
370
    15
100
AcDbLine
 10
69.9264811023
 20
38.4782714748
 30
0.0
 11
119.9265299179
 21
38.4782714748
 31
0.0
  0
SPLINE
  5
1EE
330
1F
100
AcDbEntity
  8
0
  6
K5LT32768
 62
     7
370
    15
100
AcDbSpline
210
0.0
220
0.0
230
1.0
 70
     8
 71
     3
 72
    11
 73
     7
 74
     0
 42
0.0
 43
0.0
 12
1.0
 22
0.0
 32
0.0
 13
1.0
 23
0.0
 33
0.0
 40
0.0
 40
0.0
 40
0.0
 40
0.0
 40
0.5
 40
0.5
 40
0.5
 40
1.0
 40
1.0
 40
1.0
 40
1.0
 10
193.2733018180011
 20
238.0137233562952
 30
0.0
 10
194.1021917917522
 20
238.0137233562952
 30
0.0
 10
194.7732963922789
 20
238.6855169759189
 30
0.0
 10
194.7732963922789
 20
239.513717930573
 30
0.0
 10
194.7732963922789
 20
240.3426079043241
 30
0.0
 10
194.1021917917522
 20
241.0137125048508
 30
0.0
 10
193.2733018180011
 20
241.0137125048508
 30
0.0
  0
LINE
  5
1EF
330
1F
100
AcDbEntity
  8
0
  6
K5LT32768
 62
     7
370
    15
100
AcDbLine
 10
178.2737005848
 20
238.0137233563
 30
0.0
 11
193.273301818
 21
238.0137233563
 31
0.0
  0
SPLINE
  5
1F0
330
1F
100
AcDbEntity
  8
0
  6
K5LT32768
 62
     7
370
    15
100
AcDbSpline
210
0.0
220
0.0
230
1.0
 70
     8
 71
     3
 72
    11
 73
     7
 74
     0
 42
0.0
 43
0.0
 12
1.0
 22
0.0
 32
0.0
 13
1.0
 23
0.0
 33
0.0
 40
0.0
 40
0.0
 40
0.0
 40
0.0
 40
0.5
 40
0.5
 40
0.5
 40
1.0
 40
1.0
 40
1.0
 40
1.0
 10
178.2737005847719
 20
241.0137125048508
 30
0.0
 10
177.4451551205693
 20
241.0137125048508
 30
0.0
 10
176.7737060104941
 20
240.3426079043241
 30
0.0
 10
176.7737060104941
 20
239.513717930573
 30
0.0
 10
176.7737060104941
 20
238.6855169759189
 30
0.0
 10
177.4451551205693
 20
238.0137233562952
 30
0.0
 10
178.2737005847719
 20
238.0137233562952
 30
0.0
  0
LINE
  5
1F1
330
1F
100
AcDbEntity
  8
0
  6
K5LT32768
 62
     7
370
    15
100
AcDbLine
 10
193.273301818
 20
241.0137125049
 30
0.0
 11
178.2737005848
 21
241.0137125049
 31
0.0
  0
SPLINE
  5
1F2
330
1F
100
AcDbEntity
  8
0
  6
K5LT32768
 62
     7
370
    15
100
AcDbSpline
210
0.0
220
0.0
230
1.0
 70
     8
 71
     3
 72
    11
 73
     7
 74
     0
 42
0.0
 43
0.0
 12
1.0
 22
0.0
 32
0.0
 13
1.0
 23
0.0
 33
0.0
 40
0.0
 40
0.0
 40
0.0
 40
0.0
 40
0.5
 40
0.5
 40
0.5
 40
1.0
 40
1.0
 40
1.0
 40
1.0
 10
193.2733018180011
 20
268.0136148418508
 30
0.0
 10
194.1021917917522
 20
268.0136148418508
 30
0.0
 10
194.7732963922789
 20
268.6854084614745
 30
0.0
 10
194.7732963922789
 20
269.5136094161285
 30
0.0
 10
194.7732963922789
 20
270.3424993898797
 30
0.0
 10
194.1021917917522
 20
271.0136039904064
 30
0.0
 10
193.2733018180011
 20
271.0136039904064
 30
0.0
  0
LINE
  5
1F3
330
1F
100
AcDbEntity
  8
0
  6
K5LT32768
 62
     7
370
    15
100
AcDbLine
 10
178.2737005848
 20
268.0136148419
 30
0.0
 11
193.273301818
 21
268.0136148419
 31
0.0
  0
SPLINE
  5
1F4
330
1F
100
AcDbEntity
  8
0
  6
K5LT32768
 62
     7
370
    15
100
AcDbSpline
210
0.0
220
0.0
230
1.0
 70
     8
 71
     3
 72
    11
 73
     7
 74
     0
 42
0.0
 43
0.0
 12
1.0
 22
0.0
 32
0.0
 13
1.0
 23
0.0
 33
0.0
 40
0.0
 40
0.0
 40
0.0
 40
0.0
 40
0.5
 40
0.5
 40
0.5
 40
1.0
 40
1.0
 40
1.0
 40
1.0
 10
178.2737005847719
 20
271.0136039904064
 30
0.0
 10
177.4451551205693
 20
271.0136039904064
 30
0.0
 10
176.7737060104941
 20
270.3424993898797
 30
0.0
 10
176.7737060104941
 20
269.5136094161285
 30
0.0
 10
176.7737060104941
 20
268.6854084614745
 30
0.0
 10
177.4451551205693
 20
268.0136148418508
 30
0.0
 10
178.2737005847719
 20
268.0136148418508
 30
0.0
  0
LINE
  5
1F5
330
1F
100
AcDbEntity
  8
0
  6
K5LT32768
 62
     7
370
    15
100
AcDbLine
 10
193.273301818
 20
271.0136039904
 30
0.0
 11
178.2737005848
 21
271.0136039904
 31
0.0
  0
SPLINE
  5
1F6
330
1F
100
AcDbEntity
  8
0
  6
K5LT32768
 62
     7
370
    15
100
AcDbSpline
210
0.0
220
0.0
230
1.0
 70
     8
 71
     3
 72
    11
 73
     7
 74
     0
 42
0.0
 43
0.0
 12
1.0
 22
0.0
 32
0.0
 13
1.0
 23
0.0
 33
0.0
 40
0.0
 40
0.0
 40
0.0
 40
0.0
 40
0.5
 40
0.5
 40
0.5
 40
1.0
 40
1.0
 40
1.0
 40
1.0
 10
193.2733018180011
 20
256.0136582476285
 30
0.0
 10
194.1021917917522
 20
256.0136582476285
 30
0.0
 10
194.7732963922789
 20
256.6854518672523
 30
0.0
 10
194.7732963922789
 20
257.5136528219063
 30
0.0
 10
194.7732963922789
 20
258.3425427956574
 30
0.0
 10
194.1021917917522
 20
259.0136473961842
 30
0.0
 10
193.2733018180011
 20
259.0136473961842
 30
0.0
  0
LINE
  5
1F7
330
1F
100
AcDbEntity
  8
0
  6
K5LT32768
 62
     7
370
    15
100
AcDbLine
 10
178.2737005848
 20
256.0136582476
 30
0.0
 11
193.273301818
 21
256.0136582476
 31
0.0
  0
SPLINE
  5
1F8
330
1F
100
AcDbEntity
  8
0
  6
K5LT32768
 62
     7
370
    15
100
AcDbSpline
210
0.0
220
0.0
230
1.0
 70
     8
 71
     3
 72
    11
 73
     7
 74
     0
 42
0.0
 43
0.0
 12
1.0
 22
0.0
 32
0.0
 13
1.0
 23
0.0
 33
0.0
 40
0.0
 40
0.0
 40
0.0
 40
0.0
 40
0.5
 40
0.5
 40
0.5
 40
1.0
 40
1.0
 40
1.0
 40
1.0
 10
178.2737005847719
 20
259.0136473961842
 30
0.0
 10
177.4451551205693
 20
259.0136473961842
 30
0.0
 10
176.7737060104941
 20
258.3425427956574
 30
0.0
 10
176.7737060104941
 20
257.5136528219063
 30
0.0
 10
176.7737060104941
 20
256.6854518672523
 30
0.0
 10
177.4451551205693
 20
256.0136582476285
 30
0.0
 10
178.2737005847719
 20
256.0136582476285
 30
0.0
  0
LINE
  5
1F9
330
1F
100
AcDbEntity
  8
0
  6
K5LT32768
 62
     7
370
    15
100
AcDbLine
 10
193.273301818
 20
259.0136473962
 30
0.0
 11
178.2737005848
 21
259.0136473962
 31
0.0
  0
SPLINE
  5
1FA
330
1F
100
AcDbEntity
  8
0
  6
K5LT32768
 62
     7
370
    15
100
AcDbSpline
210
0.0
220
0.0
230
1.0
 70
     8
 71
     3
 72
    11
 73
     7
 74
     0
 42
0.0
 43
0.0
 12
1.0
 22
0.0
 32
0.0
 13
1.0
 23
0.0
 33
0.0
 40
0.0
 40
0.0
 40
0.0
 40
0.0
 40
0.5
 40
0.5
 40
0.5
 40
1.0
 40
1.0
 40
1.0
 40
1.0
 10
199.2732801151122
 20
231.5135171947258
 30
0.0
 10
199.2732801151122
 20
230.6853162400717
 30
0.0
 10
199.945073734736
 20
230.013522620448
 30
0.0
 10
200.77327468939
 20
230.013522620448
 30
0.0
 10
201.6021646631411
 20
230.013522620448
 30
0.0
 10
202.2732692636678
 20
230.6853162400717
 30
0.0
 10
202.2732692636678
 20
231.5135171947258
 30
0.0
  0
LINE
  5
1FB
330
1F
100
AcDbEntity
  8
0
  6
K5LT32768
 62
     7
370
    15
100
AcDbLine
 10
199.2732801151
 20
271.5138318549
 30
0.0
 11
199.2732801151
 21
231.5135171947
 31
0.0
  0
SPLINE
  5
1FC
330
1F
100
AcDbEntity
  8
0
  6
K5LT32768
 62
     7
370
    15
100
AcDbSpline
210
0.0
220
0.0
230
1.0
 70
     8
 71
     3
 72
    11
 73
     7
 74
     0
 42
0.0
 43
0.0
 12
1.0
 22
0.0
 32
0.0
 13
1.0
 23
0.0
 33
0.0
 40
0.0
 40
0.0
 40
0.0
 40
0.0
 40
0.5
 40
0.5
 40
0.5
 40
1.0
 40
1.0
 40
1.0
 40
1.0
 10
202.2732692636678
 20
271.5138318548646
 30
0.0
 10
202.2732692636678
 20
272.3420328095187
 30
0.0
 10
201.6021646631411
 20
273.0138264291424
 30
0.0
 10
200.77327468939
 20
273.0138264291424
 30
0.0
 10
199.945073734736
 20
273.0138264291424
 30
0.0
 10
199.2732801151122
 20
272.3420328095187
 30
0.0
 10
199.2732801151122
 20
271.5138318548646
 30
0.0
  0
LINE
  5
1FD
330
1F
100
AcDbEntity
  8
0
  6
K5LT32768
 62
     7
370
    15
100
AcDbLine
 10
202.2732692637
 20
231.5135171947
 30
0.0
 11
202.2732692637
 21
271.5138318549
 31
0.0
  0
SPLINE
  5
1FE
330
1F
100
AcDbEntity
  8
0
  6
K5LT32768
 62
     7
370
    15
100
AcDbSpline
210
0.0
220
0.0
230
1.0
 70
     8
 71
     3
 72
     8
 73
     4
 74
     0
 42
0.0
 43
0.0
 12
1.0
 22
0.0
 32
0.0
 13
1.0
 23
0.0
 33
0.0
 40
0.0
 40
0.0
 40
0.0
 40
0.0
 40
1.0
 40
1.0
 40
1.0
 40
1.0
 10
189.9856471964272
 20
106.6015896000857
 30
0.0
 10
189.2046440499211
 20
105.8202419440311
 30
0.0
 10
189.2046440499211
 20
104.5538248436532
 30
0.0
 10
189.9856471964272
 20
103.7731662066956
 30
0.0
  0
LINE
  5
1FF
330
1F
100
AcDbEntity
  8
0
  6
K5LT32768
 62
     7
370
    15
100
AcDbLine
 10
203.3288465203
 20
119.9444444145
 30
0.0
 11
189.9856471964
 21
106.6015896001
 31
0.0
  0
SPLINE
  5
200
330
1F
100
AcDbEntity
  8
0
  6
K5LT32768
 62
     7
370
    15
100
AcDbSpline
210
0.0
220
0.0
230
1.0
 70
     8
 71
     3
 72
    11
 73
     7
 74
     0
 42
0.0
 43
0.0
 12
1.0
 22
0.0
 32
0.0
 13
1.0
 23
0.0
 33
0.0
 40
0.0
 40
0.0
 40
0.0
 40
0.0
 40
0.5
 40
0.5
 40
0.5
 40
1.0
 40
1.0
 40
1.0
 40
1.0
 10
206.7429361462309
 20
118.5305772273118
 30
0.0
 10
206.7429361462309
 20
119.6350748398829
 30
0.0
 10
205.8475558296145
 20
120.5301106469508
 30
0.0
 10
204.7430582170434
 20
120.5301106469508
 30
0.0
 10
204.2125135123149
 20
120.5301106469508
 30
0.0
 10
203.704017418692
 20
120.3199598223506
 30
0.0
 10
203.3288465203483
 20
119.9444444144583
 30
0.0
  0
LINE
  5
201
330
1F
100
AcDbEntity
  8
0
  6
K5LT32768
 62
     7
370
    15
100
AcDbLine
 10
206.7429361462
 20
91.8441785795
 30
0.0
 11
206.7429361462
 21
118.5305772273
 31
0.0
  0
SPLINE
  5
202
330
1F
100
AcDbEntity
  8
0
  6
K5LT32768
 62
     7
370
    15
100
AcDbSpline
210
0.0
220
0.0
230
1.0
 70
     8
 71
     3
 72
     8
 73
     4
 74
     0
 42
0.0
 43
0.0
 12
1.0
 22
0.0
 32
0.0
 13
1.0
 23
0.0
 33
0.0
 40
0.0
 40
0.0
 40
0.0
 40
0.0
 40
1.0
 40
1.0
 40
1.0
 40
1.0
 10
206.1572699137385
 20
90.42962237322593
 30
0.0
 10
206.5324408120822
 20
90.80513778111816
 30
0.0
 10
206.7429361462309
 20
91.31363387474104
 30
0.0
 10
206.7429361462309
 20
91.84417857946951
 30
0.0
  0
SPLINE
  5
203
330
1F
100
AcDbEntity
  8
0
  6
K5LT32768
 62
     7
370
    15
100
AcDbSpline
210
0.0
220
0.0
230
1.0
 70
     8
 71
     3
 72
     8
 73
     4
 74
     0
 42
0.0
 43
0.0
 12
1.0
 22
0.0
 32
0.0
 13
1.0
 23
0.0
 33
0.0
 40
0.0
 40
0.0
 40
0.0
 40
0.0
 40
1.0
 40
1.0
 40
1.0
 40
1.0
 10
203.3288465203483
 20
90.42962237322593
 30
0.0
 10
204.1098496668545
 20
89.64896373626833
 30
0.0
 10
205.3762667672323
 20
89.64896373626833
 30
0.0
 10
206.1572699137385
 20
90.42962237322593
 30
0.0
  0
LINE
  5
204
330
1F
100
AcDbEntity
  8
0
  6
K5LT32768
 62
     7
370
    15
100
AcDbLine
 10
189.9856471964
 20
103.7731662067
 30
0.0
 11
203.3288465203
 21
90.4296223732
 31
0.0
  0
SPLINE
  5
205
330
1F
100
AcDbEntity
  8
0
  6
K5LT32768
 62
     7
370
    15
100
AcDbSpline
210
0.0
220
0.0
230
1.0
 70
     8
 71
     3
 72
     8
 73
     4
 74
     0
 42
0.0
 43
0.0
 12
1.0
 22
0.0
 32
0.0
 13
1.0
 23
0.0
 33
0.0
 40
0.0
 40
0.0
 40
0.0
 40
0.0
 40
1.0
 40
1.0
 40
1.0
 40
1.0
 10
187.1572238030371
 20
39.94450411327777
 30
0.0
 10
186.376220656531
 20
40.72585176933243
 30
0.0
 10
185.1098035561531
 20
40.72585176933243
 30
0.0
 10
184.328800409647
 20
39.94450411327777
 30
0.0
  0
LINE
  5
206
330
1F
100
AcDbEntity
  8
0
  6
K5LT32768
 62
     7
370
    15
100
AcDbLine
 10
200.500423127
 20
26.6016492989
 30
0.0
 11
187.157223803
 21
39.9445041133
 31
0.0
  0
SPLINE
  5
207
330
1F
100
AcDbEntity
  8
0
  6
K5LT32768
 62
     7
370
    15
100
AcDbSpline
210
0.0
220
0.0
230
1.0
 70
     8
 71
     3
 72
    11
 73
     7
 74
     0
 42
0.0
 43
0.0
 12
1.0
 22
0.0
 32
0.0
 13
1.0
 23
0.0
 33
0.0
 40
0.0
 40
0.0
 40
0.0
 40
0.0
 40
0.5
 40
0.5
 40
0.5
 40
1.0
 40
1.0
 40
1.0
 40
1.0
 10
199.0862114302632
 20
23.18687065392551
 30
0.0
 10
200.1907090428343
 20
23.18687065392551
 30
0.0
 10
201.0860893594507
 20
24.08259548009046
 30
0.0
 10
201.0860893594507
 20
25.18709309266156
 30
0.0
 10
201.0860893594507
 20
25.71763779739004
 30
0.0
 10
200.875594025302
 20
26.22613389101291
 30
0.0
 10
200.5004231269582
 20
26.60164929890514
 30
0.0
  0
LINE
  5
208
330
1F
100
AcDbEntity
  8
0
  6
K5LT32768
 62
     7
370
    15
100
AcDbLine
 10
172.3998127824
 20
23.1868706539
 30
0.0
 11
199.0862114303
 21
23.1868706539
 31
0.0
  0
SPLINE
  5
209
330
1F
100
AcDbEntity
  8
0
  6
K5LT32768
 62
     7
370
    15
100
AcDbSpline
210
0.0
220
0.0
230
1.0
 70
     8
 71
     3
 72
     8
 73
     4
 74
     0
 42
0.0
 43
0.0
 12
1.0
 22
0.0
 32
0.0
 13
1.0
 23
0.0
 33
0.0
 40
0.0
 40
0.0
 40
0.0
 40
0.0
 40
1.0
 40
1.0
 40
1.0
 40
1.0
 10
170.9856010857258
 20
23.77322590551503
 30
0.0
 10
171.3607719840695
 20
23.3977104976228
 30
0.0
 10
171.8692680776924
 20
23.18687065392551
 30
0.0
 10
172.3998127824209
 20
23.18687065392551
 30
0.0
  0
SPLINE
  5
20A
330
1F
100
AcDbEntity
  8
0
  6
K5LT32768
 62
     7
370
    15
100
AcDbSpline
210
0.0
220
0.0
230
1.0
 70
     8
 71
     3
 72
     8
 73
     4
 74
     0
 42
0.0
 43
0.0
 12
1.0
 22
0.0
 32
0.0
 13
1.0
 23
0.0
 33
0.0
 40
0.0
 40
0.0
 40
0.0
 40
0.0
 40
1.0
 40
1.0
 40
1.0
 40
1.0
 10
170.9856010857258
 20
26.60164929890514
 30
0.0
 10
170.2045979392197
 20
25.82030164285048
 30
0.0
 10
170.2045979392197
 20
24.55388454247264
 30
0.0
 10
170.9856010857258
 20
23.77322590551503
 30
0.0
  0
LINE
  5
20B
330
1F
100
AcDbEntity
  8
0
  6
K5LT32768
 62
     7
370
    15
100
AcDbLine
 10
184.3288004096
 20
39.9445041133
 30
0.0
 11
170.9856010857
 21
26.6016492989
 31
0.0
  0
SPLINE
  5
20C
330
1F
100
AcDbEntity
  8
0
  6
K5LT32768
 62
     7
370
    15
100
AcDbSpline
210
0.0
220
0.0
230
1.0
 70
     8
 71
     3
 72
     8
 73
     4
 74
     0
 42
0.0
 43
0.0
 12
1.0
 22
0.0
 32
0.0
 13
1.0
 23
0.0
 33
0.0
 40
0.0
 40
0.0
 40
0.0
 40
0.0
 40
1.0
 40
1.0
 40
1.0
 40
1.0
 10
203.2430636427656
 20
298.8847709756261
 30
0.0
 10
203.2430636427656
 20
298.3325221693405
 30
0.0
 10
203.6905815462996
 20
297.884659756258
 30
0.0
 10
204.2431748621337
 20
297.884659756258
 30
0.0
  0
LINE
  5
20D
330
1F
100
AcDbEntity
  8
0
  6
K5LT32768
 62
     7
370
    15
100
AcDbLine
 10
203.2430636428
 20
301.2152058166
 30
0.0
 11
203.2430636428
 21
298.8847709756
 31
0.0
  0
SPLINE
  5
20E
330
1F
100
AcDbEntity
  8
0
  6
K5LT32768
 62
     7
370
    15
100
AcDbSpline
210
0.0
220
0.0
230
1.0
 70
     8
 71
     3
 72
     8
 73
     4
 74
     0
 42
0.0
 43
0.0
 12
1.0
 22
0.0
 32
0.0
 13
1.0
 23
0.0
 33
0.0
 40
0.0
 40
0.0
 40
0.0
 40
0.0
 40
1.0
 40
1.0
 40
1.0
 40
1.0
 10
204.2431748621337
 20
302.2153170359913
 30
0.0
 10
203.6905815462996
 20
302.2153170359913
 30
0.0
 10
203.2430636427656
 20
301.7676268776831
 30
0.0
 10
203.2430636427656
 20
301.2152058166233
 30
0.0
  0
LINE
  5
20F
330
1F
100
AcDbEntity
  8
0
  6
K5LT32768
 62
     7
370
    15
100
AcDbLine
 10
208.743158585
 20
302.215317036
 30
0.0
 11
204.2431748621
 21
302.215317036
 31
0.0
  0
SPLINE
  5
210
330
1F
100
AcDbEntity
  8
0
  6
K5LT32768
 62
     7
370
    15
100
AcDbSpline
210
0.0
220
0.0
230
1.0
 70
     8
 71
     3
 72
     8
 73
     4
 74
     0
 42
0.0
 43
0.0
 12
1.0
 22
0.0
 32
0.0
 13
1.0
 23
0.0
 33
0.0
 40
0.0
 40
0.0
 40
0.0
 40
0.0
 40
1.0
 40
1.0
 40
1.0
 40
1.0
 10
210.7430365141545
 20
300.2152668520295
 30
0.0
 10
210.7430365141545
 20
301.3199367193749
 30
0.0
 10
209.8476561975381
 20
302.2153170359913
 30
0.0
 10
208.743158584967
 20
302.2153170359913
 30
0.0
  0
LINE
  5
211
330
1F
100
AcDbEntity
  8
0
  6
K5LT32768
 62
     7
370
    15
100
AcDbLine
 10
210.7430365142
 20
292.215238371
 30
0.0
 11
210.7430365142
 21
300.215266852
 31
0.0
  0
SPLINE
  5
212
330
1F
100
AcDbEntity
  8
0
  6
K5LT32768
 62
     7
370
    15
100
AcDbSpline
210
0.0
220
0.0
230
1.0
 70
     8
 71
     3
 72
     8
 73
     4
 74
     0
 42
0.0
 43
0.0
 12
1.0
 22
0.0
 32
0.0
 13
1.0
 23
0.0
 33
0.0
 40
0.0
 40
0.0
 40
0.0
 40
0.0
 40
1.0
 40
1.0
 40
1.0
 40
1.0
 10
208.743158584967
 20
290.2153604417692
 30
0.0
 10
209.8476561975381
 20
290.2153604417692
 30
0.0
 10
210.7430365141545
 20
291.1107407583855
 30
0.0
 10
210.7430365141545
 20
292.2152383709566
 30
0.0
  0
LINE
  5
213
330
1F
100
AcDbEntity
  8
0
  6
K5LT32768
 62
     7
370
    15
100
AcDbLine
 10
192.7431016228
 20
290.2153604418
 30
0.0
 11
208.743158585
 21
290.2153604418
 31
0.0
  0
SPLINE
  5
214
330
1F
100
AcDbEntity
  8
0
  6
K5LT32768
 62
     7
370
    15
100
AcDbSpline
210
0.0
220
0.0
230
1.0
 70
     8
 71
     3
 72
     8
 73
     4
 74
     0
 42
0.0
 43
0.0
 12
1.0
 22
0.0
 32
0.0
 13
1.0
 23
0.0
 33
0.0
 40
0.0
 40
0.0
 40
0.0
 40
0.0
 40
1.0
 40
1.0
 40
1.0
 40
1.0
 10
190.7428791840851
 20
292.2152383709566
 30
0.0
 10
190.7428791840851
 20
291.1107407583855
 30
0.0
 10
191.6386040102501
 20
290.2153604417692
 30
0.0
 10
192.7431016228212
 20
290.2153604417692
 30
0.0
  0
LINE
  5
215
330
1F
100
AcDbEntity
  8
0
  6
K5LT32768
 62
     7
370
    15
100
AcDbLine
 10
190.7428791841
 20
300.215266852
 30
0.0
 11
190.7428791841
 21
292.215238371
 31
0.0
  0
SPLINE
  5
216
330
1F
100
AcDbEntity
  8
0
  6
K5LT32768
 62
     7
370
    15
100
AcDbSpline
210
0.0
220
0.0
230
1.0
 70
     8
 71
     3
 72
     8
 73
     4
 74
     0
 42
0.0
 43
0.0
 12
1.0
 22
0.0
 32
0.0
 13
1.0
 23
0.0
 33
0.0
 40
0.0
 40
0.0
 40
0.0
 40
0.0
 40
1.0
 40
1.0
 40
1.0
 40
1.0
 10
192.7431016228212
 20
302.2153170359913
 30
0.0
 10
191.6386040102501
 20
302.2153170359913
 30
0.0
 10
190.7428791840851
 20
301.3199367193749
 30
0.0
 10
190.7428791840851
 20
300.2152668520295
 30
0.0
  0
LINE
  5
217
330
1F
100
AcDbEntity
  8
0
  6
K5LT32768
 62
     7
370
    15
100
AcDbLine
 10
197.2430853457
 20
302.215317036
 30
0.0
 11
192.7431016228
 21
302.215317036
 31
0.0
  0
SPLINE
  5
218
330
1F
100
AcDbEntity
  8
0
  6
K5LT32768
 62
     7
370
    15
100
AcDbSpline
210
0.0
220
0.0
230
1.0
 70
     8
 71
     3
 72
     8
 73
     4
 74
     0
 42
0.0
 43
0.0
 12
1.0
 22
0.0
 32
0.0
 13
1.0
 23
0.0
 33
0.0
 40
0.0
 40
0.0
 40
0.0
 40
0.0
 40
1.0
 40
1.0
 40
1.0
 40
1.0
 10
198.242852055474
 20
301.2152058166233
 30
0.0
 10
198.242852055474
 20
301.7676268776831
 30
0.0
 10
197.7953341519401
 20
302.2153170359913
 30
0.0
 10
197.2430853456545
 20
302.2153170359913
 30
0.0
  0
LINE
  5
219
330
1F
100
AcDbEntity
  8
0
  6
K5LT32768
 62
     7
370
    15
100
AcDbLine
 10
198.2428520555
 20
298.8847709756
 30
0.0
 11
198.2428520555
 21
301.2152058166
 31
0.0
  0
SPLINE
  5
21A
330
1F
100
AcDbEntity
  8
0
  6
K5LT32768
 62
     7
370
    15
100
AcDbSpline
210
0.0
220
0.0
230
1.0
 70
     8
 71
     3
 72
     8
 73
     4
 74
     0
 42
0.0
 43
0.0
 12
1.0
 22
0.0
 32
0.0
 13
1.0
 23
0.0
 33
0.0
 40
0.0
 40
0.0
 40
0.0
 40
0.0
 40
1.0
 40
1.0
 40
1.0
 40
1.0
 10
197.2430853456545
 20
297.884659756258
 30
0.0
 10
197.7953341519401
 20
297.884659756258
 30
0.0
 10
198.242852055474
 20
298.3325221693405
 30
0.0
 10
198.242852055474
 20
298.8847709756261
 30
0.0
  0
LINE
  5
21B
330
1F
100
AcDbEntity
  8
0
  6
K5LT32768
 62
     7
370
    15
100
AcDbLine
 10
195.7430907714
 20
297.8846597563
 30
0.0
 11
197.2430853457
 21
297.8846597563
 31
0.0
  0
SPLINE
  5
21C
330
1F
100
AcDbEntity
  8
0
  6
K5LT32768
 62
     7
370
    15
100
AcDbSpline
210
0.0
220
0.0
230
1.0
 70
     8
 71
     3
 72
     8
 73
     4
 74
     0
 42
0.0
 43
0.0
 12
1.0
 22
0.0
 32
0.0
 13
1.0
 23
0.0
 33
0.0
 40
0.0
 40
0.0
 40
0.0
 40
0.0
 40
1.0
 40
1.0
 40
1.0
 40
1.0
 10
194.7429795520087
 20
296.8847207916642
 30
0.0
 10
194.7429795520087
 20
297.4369695979498
 30
0.0
 10
195.1908419650912
 20
297.884659756258
 30
0.0
 10
195.7430907713767
 20
297.884659756258
 30
0.0
  0
LINE
  5
21D
330
1F
100
AcDbEntity
  8
0
  6
K5LT32768
 62
     7
370
    15
100
AcDbLine
 10
194.742979552
 20
295.2152275195
 30
0.0
 11
194.742979552
 21
296.8847207917
 31
0.0
  0
SPLINE
  5
21E
330
1F
100
AcDbEntity
  8
0
  6
K5LT32768
 62
     7
370
    15
100
AcDbSpline
210
0.0
220
0.0
230
1.0
 70
     8
 71
     3
 72
     8
 73
     4
 74
     0
 42
0.0
 43
0.0
 12
1.0
 22
0.0
 32
0.0
 13
1.0
 23
0.0
 33
0.0
 40
0.0
 40
0.0
 40
0.0
 40
0.0
 40
1.0
 40
1.0
 40
1.0
 40
1.0
 10
195.7430907713767
 20
294.2152885549184
 30
0.0
 10
195.1908419650912
 20
294.2152885549184
 30
0.0
 10
194.7429795520087
 20
294.6629787132266
 30
0.0
 10
194.7429795520087
 20
295.2152275195122
 30
0.0
  0
LINE
  5
21F
330
1F
100
AcDbEntity
  8
0
  6
K5LT32768
 62
     7
370
    15
100
AcDbLine
 10
205.7431694364
 20
294.2152885549
 30
0.0
 11
195.7430907714
 21
294.2152885549
 31
0.0
  0
SPLINE
  5
220
330
1F
100
AcDbEntity
  8
0
  6
K5LT32768
 62
     7
370
    15
100
AcDbSpline
210
0.0
220
0.0
230
1.0
 70
     8
 71
     3
 72
     8
 73
     4
 74
     0
 42
0.0
 43
0.0
 12
1.0
 22
0.0
 32
0.0
 13
1.0
 23
0.0
 33
0.0
 40
0.0
 40
0.0
 40
0.0
 40
0.0
 40
1.0
 40
1.0
 40
1.0
 40
1.0
 10
206.7429361462309
 20
295.2152275195122
 30
0.0
 10
206.7429361462309
 20
294.6629787132266
 30
0.0
 10
206.295418242697
 20
294.2152885549184
 30
0.0
 10
205.7431694364114
 20
294.2152885549184
 30
0.0
  0
LINE
  5
221
330
1F
100
AcDbEntity
  8
0
  6
K5LT32768
 62
     7
370
    15
100
AcDbLine
 10
206.7429361462
 20
296.8847207917
 30
0.0
 11
206.7429361462
 21
295.2152275195
 31
0.0
  0
SPLINE
  5
222
330
1F
100
AcDbEntity
  8
0
  6
K5LT32768
 62
     7
370
    15
100
AcDbSpline
210
0.0
220
0.0
230
1.0
 70
     8
 71
     3
 72
     8
 73
     4
 74
     0
 42
0.0
 43
0.0
 12
1.0
 22
0.0
 32
0.0
 13
1.0
 23
0.0
 33
0.0
 40
0.0
 40
0.0
 40
0.0
 40
0.0
 40
1.0
 40
1.0
 40
1.0
 40
1.0
 10
205.7431694364114
 20
297.884659756258
 30
0.0
 10
206.295418242697
 20
297.884659756258
 30
0.0
 10
206.7429361462309
 20
297.4369695979498
 30
0.0
 10
206.7429361462309
 20
296.8847207916642
 30
0.0
  0
LINE
  5
223
330
1F
100
AcDbEntity
  8
0
  6
K5LT32768
 62
     7
370
    15
100
AcDbLine
 10
204.2431748621
 20
297.8846597563
 30
0.0
 11
205.7431694364
 21
297.8846597563
 31
0.0
  0
SPLINE
  5
224
330
1F
100
AcDbEntity
  8
0
  6
K5LT32768
 62
     7
370
    15
100
AcDbSpline
210
0.0
220
0.0
230
1.0
 70
     8
 71
     3
 72
    10
 73
     6
 74
     0
 42
0.0
 43
0.0
 12
1.0
 22
0.0
 32
0.0
 13
1.0
 23
0.0
 33
0.0
 40
0.0
 40
0.0
 40
0.0
 40
0.0
 40
0.5
 40
0.5
 40
1.0
 40
1.0
 40
1.0
 40
1.0
 10
214.7431368820781
 20
31.68729925423095
 30
0.0
 10
214.7431368820781
 20
30.58280164165986
 30
0.0
 10
215.6385171986946
 20
29.6870768154949
 30
0.0
 10
217.8475124238367
 20
29.6870768154949
 30
0.0
 10
218.7428927404532
 20
30.58280164165986
 30
0.0
 10
218.7428927404532
 20
31.68729925423095
 30
0.0
  0
LINE
  5
225
330
1F
100
AcDbEntity
  8
0
  6
K5LT32768
 62
     7
370
    15
100
AcDbLine
 10
214.7431368821
 20
56.6869791525
 30
0.0
 11
214.7431368821
 21
31.6872992542
 31
0.0
  0
SPLINE
  5
226
330
1F
100
AcDbEntity
  8
0
  6
K5LT32768
 62
     7
370
    15
100
AcDbSpline
210
0.0
220
0.0
230
1.0
 70
     8
 71
     3
 72
    10
 73
     6
 74
     0
 42
0.0
 43
0.0
 12
1.0
 22
0.0
 32
0.0
 13
1.0
 23
0.0
 33
0.0
 40
0.0
 40
0.0
 40
0.0
 40
0.0
 40
0.5
 40
0.5
 40
1.0
 40
1.0
 40
1.0
 40
1.0
 10
218.7428927404532
 20
56.68697915249493
 30
0.0
 10
218.7428927404532
 20
57.79147676506602
 30
0.0
 10
217.8475124238367
 20
58.68720159123098
 30
0.0
 10
215.6385171986946
 20
58.68720159123098
 30
0.0
 10
214.7431368820781
 20
57.79147676506602
 30
0.0
 10
214.7431368820781
 20
56.68697915249493
 30
0.0
  0
LINE
  5
227
330
1F
100
AcDbEntity
  8
0
  6
K5LT32768
 62
     7
370
    15
100
AcDbLine
 10
218.7428927405
 20
31.6872992542
 30
0.0
 11
218.7428927405
 21
56.6869791525
 31
0.0
  0
SPLINE
  5
228
330
1F
100
AcDbEntity
  8
0
  6
K5LT32768
 62
     7
370
    15
100
AcDbSpline
210
0.0
220
0.0
230
1.0
 70
     8
 71
     3
 72
    10
 73
     6
 74
     0
 42
0.0
 43
0.0
 12
1.0
 22
0.0
 32
0.0
 13
1.0
 23
0.0
 33
0.0
 40
0.0
 40
0.0
 40
0.0
 40
0.0
 40
0.5
 40
0.5
 40
1.0
 40
1.0
 40
1.0
 40
1.0
 10
152.7427869626824
 20
89.43743487347399
 30
0.0
 10
152.7427869626824
 20
88.33293726090288
 30
0.0
 10
153.6385117888473
 20
87.43721243473793
 30
0.0
 10
155.8475070139895
 20
87.43721243473793
 30
0.0
 10
156.742887330606
 20
88.33293726090288
 30
0.0
 10
156.742887330606
 20
89.43743487347399
 30
0.0
  0
LINE
  5
229
330
1F
100
AcDbEntity
  8
0
  6
K5LT32768
 62
     7
370
    15
100
AcDbLine
 10
152.7427869627
 20
111.4371256232
 30
0.0
 11
152.7427869627
 21
89.4374348735
 31
0.0
  0
SPLINE
  5
22A
330
1F
100
AcDbEntity
  8
0
  6
K5LT32768
 62
     7
370
    15
100
AcDbSpline
210
0.0
220
0.0
230
1.0
 70
     8
 71
     3
 72
    10
 73
     6
 74
     0
 42
0.0
 43
0.0
 12
1.0
 22
0.0
 32
0.0
 13
1.0
 23
0.0
 33
0.0
 40
0.0
 40
0.0
 40
0.0
 40
0.0
 40
0.5
 40
0.5
 40
1.0
 40
1.0
 40
1.0
 40
1.0
 10
156.742887330606
 20
111.4371256231824
 30
0.0
 10
156.742887330606
 20
112.5416232357535
 30
0.0
 10
155.8475070139895
 20
113.4373480619184
 30
0.0
 10
153.6385117888473
 20
113.4373480619184
 30
0.0
 10
152.7427869626824
 20
112.5416232357535
 30
0.0
 10
152.7427869626824
 20
111.4371256231824
 30
0.0
  0
LINE
  5
22B
330
1F
100
AcDbEntity
  8
0
  6
K5LT32768
 62
     7
370
    15
100
AcDbLine
 10
156.7428873306
 20
89.4374348735
 30
0.0
 11
156.7428873306
 21
111.4371256232
 31
0.0
  0
SPLINE
  5
22C
330
1F
100
AcDbEntity
  8
0
  6
K5LT32768
 62
     7
370
    15
100
AcDbSpline
210
0.0
220
0.0
230
1.0
 70
     8
 71
     3
 72
    10
 73
     6
 74
     0
 42
0.0
 43
0.0
 12
1.0
 22
0.0
 32
0.0
 13
1.0
 23
0.0
 33
0.0
 40
0.0
 40
0.0
 40
0.0
 40
0.0
 40
0.5
 40
0.5
 40
1.0
 40
1.0
 40
1.0
 40
1.0
 10
152.7427869626824
 20
31.68729925423095
 30
0.0
 10
152.7427869626824
 20
30.58280164165986
 30
0.0
 10
153.6385117888473
 20
29.6870768154949
 30
0.0
 10
155.8475070139895
 20
29.6870768154949
 30
0.0
 10
156.742887330606
 20
30.58280164165986
 30
0.0
 10
156.742887330606
 20
31.68729925423095
 30
0.0
  0
LINE
  5
22D
330
1F
100
AcDbEntity
  8
0
  6
K5LT32768
 62
     7
370
    15
100
AcDbLine
 10
152.7427869627
 20
56.6869791525
 30
0.0
 11
152.7427869627
 21
31.6872992542
 31
0.0
  0
SPLINE
  5
22E
330
1F
100
AcDbEntity
  8
0
  6
K5LT32768
 62
     7
370
    15
100
AcDbSpline
210
0.0
220
0.0
230
1.0
 70
     8
 71
     3
 72
    10
 73
     6
 74
     0
 42
0.0
 43
0.0
 12
1.0
 22
0.0
 32
0.0
 13
1.0
 23
0.0
 33
0.0
 40
0.0
 40
0.0
 40
0.0
 40
0.0
 40
0.5
 40
0.5
 40
1.0
 40
1.0
 40
1.0
 40
1.0
 10
156.742887330606
 20
56.68697915249493
 30
0.0
 10
156.742887330606
 20
57.79147676506602
 30
0.0
 10
155.8475070139895
 20
58.68720159123098
 30
0.0
 10
153.6385117888473
 20
58.68720159123098
 30
0.0
 10
152.7427869626824
 20
57.79147676506602
 30
0.0
 10
152.7427869626824
 20
56.68697915249493
 30
0.0
  0
LINE
  5
22F
330
1F
100
AcDbEntity
  8
0
  6
K5LT32768
 62
     7
370
    15
100
AcDbLine
 10
156.7428873306
 20
31.6872992542
 30
0.0
 11
156.7428873306
 21
56.6869791525
 31
0.0
  0
SPLINE
  5
230
330
1F
100
AcDbEntity
  8
0
  6
K5LT32768
 62
     7
370
    15
100
AcDbSpline
210
0.0
220
0.0
230
1.0
 70
     8
 71
     3
 72
     8
 73
     4
 74
     0
 42
0.0
 43
0.0
 12
1.0
 22
0.0
 32
0.0
 13
1.0
 23
0.0
 33
0.0
 40
0.0
 40
0.0
 40
0.0
 40
0.0
 40
1.0
 40
1.0
 40
1.0
 40
1.0
 10
181.5003770162569
 20
42.77292750666788
 30
0.0
 10
182.281380162763
 20
43.55427516272255
 30
0.0
 10
182.281380162763
 20
44.82069226310038
 30
0.0
 10
181.5003770162569
 20
45.60135090005799
 30
0.0
  0
LINE
  5
231
330
1F
100
AcDbEntity
  8
0
  6
K5LT32768
 62
     7
370
    15
100
AcDbLine
 10
168.1571776923
 20
29.4300726923
 30
0.0
 11
181.5003770163
 21
42.7729275067
 31
0.0
  0
SPLINE
  5
232
330
1F
100
AcDbEntity
  8
0
  6
K5LT32768
 62
     7
370
    15
100
AcDbSpline
210
0.0
220
0.0
230
1.0
 70
     8
 71
     3
 72
    11
 73
     7
 74
     0
 42
0.0
 43
0.0
 12
1.0
 22
0.0
 32
0.0
 13
1.0
 23
0.0
 33
0.0
 40
0.0
 40
0.0
 40
0.0
 40
0.0
 40
0.5
 40
0.5
 40
0.5
 40
1.0
 40
1.0
 40
1.0
 40
1.0
 10
164.7430880664531
 20
30.84393987944179
 30
0.0
 10
164.7430880664531
 20
29.7394422668707
 30
0.0
 10
165.6384683830696
 20
28.84371744070574
 30
0.0
 10
166.7429659956406
 20
28.84371744070574
 30
0.0
 10
167.2735107003691
 20
28.84371744070574
 30
0.0
 10
167.782006793992
 20
29.05455728440304
 30
0.0
 10
168.1571776923357
 20
29.43007269229526
 30
0.0
  0
LINE
  5
233
330
1F
100
AcDbEntity
  8
0
  6
K5LT32768
 62
     7
370
    15
100
AcDbLine
 10
164.7430880665
 20
57.5303385273
 30
0.0
 11
164.7430880665
 21
30.8439398794
 31
0.0
  0
SPLINE
  5
234
330
1F
100
AcDbEntity
  8
0
  6
K5LT32768
 62
     7
370
    15
100
AcDbSpline
210
0.0
220
0.0
230
1.0
 70
     8
 71
     3
 72
     8
 73
     4
 74
     0
 42
0.0
 43
0.0
 12
1.0
 22
0.0
 32
0.0
 13
1.0
 23
0.0
 33
0.0
 40
0.0
 40
0.0
 40
0.0
 40
0.0
 40
1.0
 40
1.0
 40
1.0
 40
1.0
 10
165.3287542989456
 20
58.94489473352767
 30
0.0
 10
164.9535834006019
 20
58.56937932563544
 30
0.0
 10
164.7430880664531
 20
58.06088323201256
 30
0.0
 10
164.7430880664531
 20
57.53033852728409
 30
0.0
  0
SPLINE
  5
235
330
1F
100
AcDbEntity
  8
0
  6
K5LT32768
 62
     7
370
    15
100
AcDbSpline
210
0.0
220
0.0
230
1.0
 70
     8
 71
     3
 72
     8
 73
     4
 74
     0
 42
0.0
 43
0.0
 12
1.0
 22
0.0
 32
0.0
 13
1.0
 23
0.0
 33
0.0
 40
0.0
 40
0.0
 40
0.0
 40
0.0
 40
1.0
 40
1.0
 40
1.0
 40
1.0
 10
168.1571776923357
 20
58.94489473352767
 30
0.0
 10
167.3761745458296
 20
59.72555337048528
 30
0.0
 10
166.1097574454517
 20
59.72555337048528
 30
0.0
 10
165.3287542989456
 20
58.94489473352767
 30
0.0
  0
LINE
  5
236
330
1F
100
AcDbEntity
  8
0
  6
K5LT32768
 62
     7
370
    15
100
AcDbLine
 10
181.5003770163
 20
45.6013509001
 30
0.0
 11
168.1571776923
 21
58.9448947335
 31
0.0
  0
SPLINE
  5
237
330
1F
100
AcDbEntity
  8
0
  6
K5LT32768
 62
     7
370
    15
100
AcDbSpline
210
0.0
220
0.0
230
1.0
 70
     8
 71
     3
 72
     8
 73
     4
 74
     0
 42
0.0
 43
0.0
 12
1.0
 22
0.0
 32
0.0
 13
1.0
 23
0.0
 33
0.0
 40
0.0
 40
0.0
 40
0.0
 40
0.0
 40
1.0
 40
1.0
 40
1.0
 40
1.0
 10
170.9856010857258
 20
87.60119897983581
 30
0.0
 10
170.2045979392197
 20
86.8205403428782
 30
0.0
 10
170.2045979392197
 20
85.55412324250037
 30
0.0
 10
170.9856010857258
 20
84.7727755864457
 30
0.0
  0
LINE
  5
238
330
1F
100
AcDbEntity
  8
0
  6
K5LT32768
 62
     7
370
    15
100
AcDbLine
 10
184.3288004096
 20
100.9447428133
 30
0.0
 11
170.9856010857
 21
87.6011989798
 31
0.0
  0
SPLINE
  5
239
330
1F
100
AcDbEntity
  8
0
  6
K5LT32768
 62
     7
370
    15
100
AcDbSpline
210
0.0
220
0.0
230
1.0
 70
     8
 71
     3
 72
     8
 73
     4
 74
     0
 42
0.0
 43
0.0
 12
1.0
 22
0.0
 32
0.0
 13
1.0
 23
0.0
 33
0.0
 40
0.0
 40
0.0
 40
0.0
 40
0.0
 40
1.0
 40
1.0
 40
1.0
 40
1.0
 10
187.1572238030371
 20
100.9447428133055
 30
0.0
 10
186.376220656531
 20
101.7254014502631
 30
0.0
 10
185.1098035561531
 20
101.7254014502631
 30
0.0
 10
184.328800409647
 20
100.9447428133055
 30
0.0
  0
LINE
  5
23A
330
1F
100
AcDbEntity
  8
0
  6
K5LT32768
 62
     7
370
    15
100
AcDbLine
 10
200.500423127
 20
87.6011989798
 30
0.0
 11
187.157223803
 21
100.9447428133
 31
0.0
  0
SPLINE
  5
23B
330
1F
100
AcDbEntity
  8
0
  6
K5LT32768
 62
     7
370
    15
100
AcDbSpline
210
0.0
220
0.0
230
1.0
 70
     8
 71
     3
 72
    11
 73
     7
 74
     0
 42
0.0
 43
0.0
 12
1.0
 22
0.0
 32
0.0
 13
1.0
 23
0.0
 33
0.0
 40
0.0
 40
0.0
 40
0.0
 40
0.0
 40
0.5
 40
0.5
 40
0.5
 40
1.0
 40
1.0
 40
1.0
 40
1.0
 10
199.0862114302632
 20
84.18710935395323
 30
0.0
 10
200.1907090428343
 20
84.18710935395323
 30
0.0
 10
201.0860893594507
 20
85.08283418011818
 30
0.0
 10
201.0860893594507
 20
86.18733179268928
 30
0.0
 10
201.0860893594507
 20
86.71787649741776
 30
0.0
 10
200.875594025302
 20
87.22637259104063
 30
0.0
 10
200.5004231269582
 20
87.60119897983581
 30
0.0
  0
LINE
  5
23C
330
1F
100
AcDbEntity
  8
0
  6
K5LT32768
 62
     7
370
    15
100
AcDbLine
 10
172.3998127824
 20
84.187109354
 30
0.0
 11
199.0862114303
 21
84.187109354
 31
0.0
  0
SPLINE
  5
23D
330
1F
100
AcDbEntity
  8
0
  6
K5LT32768
 62
     7
370
    15
100
AcDbSpline
210
0.0
220
0.0
230
1.0
 70
     8
 71
     3
 72
     8
 73
     4
 74
     0
 42
0.0
 43
0.0
 12
1.0
 22
0.0
 32
0.0
 13
1.0
 23
0.0
 33
0.0
 40
0.0
 40
0.0
 40
0.0
 40
0.0
 40
1.0
 40
1.0
 40
1.0
 40
1.0
 10
170.9856010857258
 20
84.7727755864457
 30
0.0
 10
171.3607719840695
 20
84.39794919765052
 30
0.0
 10
171.8692680776924
 20
84.18710935395323
 30
0.0
 10
172.3998127824209
 20
84.18710935395323
 30
0.0
  0
SPLINE
  5
23E
330
1F
100
AcDbEntity
  8
0
  6
K5LT32768
 62
     7
370
    15
100
AcDbSpline
210
0.0
220
0.0
230
1.0
 70
     8
 71
     3
 72
     8
 73
     4
 74
     0
 42
0.0
 43
0.0
 12
1.0
 22
0.0
 32
0.0
 13
1.0
 23
0.0
 33
0.0
 40
0.0
 40
0.0
 40
0.0
 40
0.0
 40
1.0
 40
1.0
 40
1.0
 40
1.0
 10
220.7431151791892
 20
288.6998629378077
 30
0.0
 10
221.5713161338433
 20
288.6998629378077
 30
0.0
 10
222.243109753467
 20
289.3714843026572
 30
0.0
 10
222.243109753467
 20
290.1998575120855
 30
0.0
  0
SPLINE
  5
23F
330
1F
100
AcDbEntity
  8
0
  6
K5LT32768
 62
     7
370
    15
100
AcDbSpline
210
0.0
220
0.0
230
1.0
 70
     8
 71
     3
 72
     8
 73
     4
 74
     0
 42
0.0
 43
0.0
 12
1.0
 22
0.0
 32
0.0
 13
1.0
 23
0.0
 33
0.0
 40
0.0
 40
0.0
 40
0.0
 40
0.0
 40
1.0
 40
1.0
 40
1.0
 40
1.0
 10
219.2431206049114
 20
290.1998575120855
 30
0.0
 10
219.2431206049114
 20
289.3714843026572
 30
0.0
 10
219.9145697149866
 20
288.6998629378077
 30
0.0
 10
220.7431151791892
 20
288.6998629378077
 30
0.0
  0
SPLINE
  5
240
330
1F
100
AcDbEntity
  8
0
  6
K5LT32768
 62
     7
370
    15
100
AcDbSpline
210
0.0
220
0.0
230
1.0
 70
     8
 71
     3
 72
     8
 73
     4
 74
     0
 42
0.0
 43
0.0
 12
1.0
 22
0.0
 32
0.0
 13
1.0
 23
0.0
 33
0.0
 40
0.0
 40
0.0
 40
0.0
 40
0.0
 40
1.0
 40
1.0
 40
1.0
 40
1.0
 10
220.7431151791892
 20
291.6998520863633
 30
0.0
 10
219.9145697149866
 20
291.6998520863633
 30
0.0
 10
219.2431206049114
 20
291.0282307215138
 30
0.0
 10
219.2431206049114
 20
290.1998575120855
 30
0.0
  0
SPLINE
  5
241
330
1F
100
AcDbEntity
  8
0
  6
K5LT32768
 62
     7
370
    15
100
AcDbSpline
210
0.0
220
0.0
230
1.0
 70
     8
 71
     3
 72
     8
 73
     4
 74
     0
 42
0.0
 43
0.0
 12
1.0
 22
0.0
 32
0.0
 13
1.0
 23
0.0
 33
0.0
 40
0.0
 40
0.0
 40
0.0
 40
0.0
 40
1.0
 40
1.0
 40
1.0
 40
1.0
 10
222.243109753467
 20
290.1998575120855
 30
0.0
 10
222.243109753467
 20
291.0282307215138
 30
0.0
 10
221.5713161338433
 20
291.6998520863633
 30
0.0
 10
220.7431151791892
 20
291.6998520863633
 30
0.0
  0
SPLINE
  5
242
330
1F
100
AcDbEntity
  8
0
  6
K5LT32768
 62
     7
370
    15
100
AcDbSpline
210
0.0
220
0.0
230
1.0
 70
     8
 71
     3
 72
     8
 73
     4
 74
     0
 42
0.0
 43
0.0
 12
1.0
 22
0.0
 32
0.0
 13
1.0
 23
0.0
 33
0.0
 40
0.0
 40
0.0
 40
0.0
 40
0.0
 40
1.0
 40
1.0
 40
1.0
 40
1.0
 10
154.7430094014184
 20
73.18691946955049
 30
0.0
 10
155.5712103560725
 20
73.18691946955049
 30
0.0
 10
156.2430039756962
 20
73.85871308917422
 30
0.0
 10
156.2430039756962
 20
74.68691404382828
 30
0.0
  0
SPLINE
  5
243
330
1F
100
AcDbEntity
  8
0
  6
K5LT32768
 62
     7
370
    15
100
AcDbSpline
210
0.0
220
0.0
230
1.0
 70
     8
 71
     3
 72
     8
 73
     4
 74
     0
 42
0.0
 43
0.0
 12
1.0
 22
0.0
 32
0.0
 13
1.0
 23
0.0
 33
0.0
 40
0.0
 40
0.0
 40
0.0
 40
0.0
 40
1.0
 40
1.0
 40
1.0
 40
1.0
 10
153.2430148271407
 20
74.68691404382828
 30
0.0
 10
153.2430148271407
 20
73.85871308917422
 30
0.0
 10
153.9144639372158
 20
73.18691946955049
 30
0.0
 10
154.7430094014184
 20
73.18691946955049
 30
0.0
  0
SPLINE
  5
244
330
1F
100
AcDbEntity
  8
0
  6
K5LT32768
 62
     7
370
    15
100
AcDbSpline
210
0.0
220
0.0
230
1.0
 70
     8
 71
     3
 72
     8
 73
     4
 74
     0
 42
0.0
 43
0.0
 12
1.0
 22
0.0
 32
0.0
 13
1.0
 23
0.0
 33
0.0
 40
0.0
 40
0.0
 40
0.0
 40
0.0
 40
1.0
 40
1.0
 40
1.0
 40
1.0
 10
154.7430094014184
 20
76.18690861810606
 30
0.0
 10
153.9144639372158
 20
76.18690861810606
 30
0.0
 10
153.2430148271407
 20
75.51580401757938
 30
0.0
 10
153.2430148271407
 20
74.68691404382828
 30
0.0
  0
SPLINE
  5
245
330
1F
100
AcDbEntity
  8
0
  6
K5LT32768
 62
     7
370
    15
100
AcDbSpline
210
0.0
220
0.0
230
1.0
 70
     8
 71
     3
 72
     8
 73
     4
 74
     0
 42
0.0
 43
0.0
 12
1.0
 22
0.0
 32
0.0
 13
1.0
 23
0.0
 33
0.0
 40
0.0
 40
0.0
 40
0.0
 40
0.0
 40
1.0
 40
1.0
 40
1.0
 40
1.0
 10
156.2430039756962
 20
74.68691404382828
 30
0.0
 10
156.2430039756962
 20
75.51580401757938
 30
0.0
 10
155.5712103560725
 20
76.18690861810606
 30
0.0
 10
154.7430094014184
 20
76.18690861810606
 30
0.0
  0
SPLINE
  5
246
330
1F
100
AcDbEntity
  8
0
  6
K5LT32768
 62
     7
370
    15
100
AcDbSpline
210
0.0
220
0.0
230
1.0
 70
     8
 71
     3
 72
     8
 73
     4
 74
     0
 42
0.0
 43
0.0
 12
1.0
 22
0.0
 32
0.0
 13
1.0
 23
0.0
 33
0.0
 40
0.0
 40
0.0
 40
0.0
 40
0.0
 40
1.0
 40
1.0
 40
1.0
 40
1.0
 10
231.3416069300118
 20
248.5136853762396
 30
0.0
 10
232.1701523942144
 20
248.5136853762396
 30
0.0
 10
232.8416015042896
 20
249.1853067410891
 30
0.0
 10
232.8416015042896
 20
250.0136799505174
 30
0.0
  0
SPLINE
  5
247
330
1F
100
AcDbEntity
  8
0
  6
K5LT32768
 62
     7
370
    15
100
AcDbSpline
210
0.0
220
0.0
230
1.0
 70
     8
 71
     3
 72
     8
 73
     4
 74
     0
 42
0.0
 43
0.0
 12
1.0
 22
0.0
 32
0.0
 13
1.0
 23
0.0
 33
0.0
 40
0.0
 40
0.0
 40
0.0
 40
0.0
 40
1.0
 40
1.0
 40
1.0
 40
1.0
 10
229.841612355734
 20
250.0136799505174
 30
0.0
 10
229.841612355734
 20
249.1853067410891
 30
0.0
 10
230.5134059753578
 20
248.5136853762396
 30
0.0
 10
231.3416069300118
 20
248.5136853762396
 30
0.0
  0
SPLINE
  5
248
330
1F
100
AcDbEntity
  8
0
  6
K5LT32768
 62
     7
370
    15
100
AcDbSpline
210
0.0
220
0.0
230
1.0
 70
     8
 71
     3
 72
     8
 73
     4
 74
     0
 42
0.0
 43
0.0
 12
1.0
 22
0.0
 32
0.0
 13
1.0
 23
0.0
 33
0.0
 40
0.0
 40
0.0
 40
0.0
 40
0.0
 40
1.0
 40
1.0
 40
1.0
 40
1.0
 10
231.3416069300118
 20
251.5136745247952
 30
0.0
 10
230.5134059753578
 20
251.5136745247952
 30
0.0
 10
229.841612355734
 20
250.8420531599457
 30
0.0
 10
229.841612355734
 20
250.0136799505174
 30
0.0
  0
SPLINE
  5
249
330
1F
100
AcDbEntity
  8
0
  6
K5LT32768
 62
     7
370
    15
100
AcDbSpline
210
0.0
220
0.0
230
1.0
 70
     8
 71
     3
 72
     8
 73
     4
 74
     0
 42
0.0
 43
0.0
 12
1.0
 22
0.0
 32
0.0
 13
1.0
 23
0.0
 33
0.0
 40
0.0
 40
0.0
 40
0.0
 40
0.0
 40
1.0
 40
1.0
 40
1.0
 40
1.0
 10
232.8416015042896
 20
250.0136799505174
 30
0.0
 10
232.8416015042896
 20
250.8420531599457
 30
0.0
 10
232.1701523942144
 20
251.5136745247952
 30
0.0
 10
231.3416069300118
 20
251.5136745247952
 30
0.0
  0
SPLINE
  5
24A
330
1F
100
AcDbEntity
  8
0
  6
K5LT32768
 62
     7
370
    15
100
AcDbSpline
210
0.0
220
0.0
230
1.0
 70
     8
 71
     3
 72
     8
 73
     4
 74
     0
 42
0.0
 43
0.0
 12
1.0
 22
0.0
 32
0.0
 13
1.0
 23
0.0
 33
0.0
 40
0.0
 40
0.0
 40
0.0
 40
0.0
 40
1.0
 40
1.0
 40
1.0
 40
1.0
 10
132.9617377054749
 20
228.7801784367286
 30
0.0
 10
133.7902831696774
 20
228.7801784367286
 30
0.0
 10
134.4617322797526
 20
229.451799801578
 30
0.0
 10
134.4617322797526
 20
230.2801730110064
 30
0.0
  0
SPLINE
  5
24B
330
1F
100
AcDbEntity
  8
0
  6
K5LT32768
 62
     7
370
    15
100
AcDbSpline
210
0.0
220
0.0
230
1.0
 70
     8
 71
     3
 72
     8
 73
     4
 74
     0
 42
0.0
 43
0.0
 12
1.0
 22
0.0
 32
0.0
 13
1.0
 23
0.0
 33
0.0
 40
0.0
 40
0.0
 40
0.0
 40
0.0
 40
1.0
 40
1.0
 40
1.0
 40
1.0
 10
131.4617431311971
 20
230.2801730110064
 30
0.0
 10
131.4617431311971
 20
229.451799801578
 30
0.0
 10
132.1331922412723
 20
228.7801784367286
 30
0.0
 10
132.9617377054749
 20
228.7801784367286
 30
0.0
  0
SPLINE
  5
24C
330
1F
100
AcDbEntity
  8
0
  6
K5LT32768
 62
     7
370
    15
100
AcDbSpline
210
0.0
220
0.0
230
1.0
 70
     8
 71
     3
 72
     8
 73
     4
 74
     0
 42
0.0
 43
0.0
 12
1.0
 22
0.0
 32
0.0
 13
1.0
 23
0.0
 33
0.0
 40
0.0
 40
0.0
 40
0.0
 40
0.0
 40
1.0
 40
1.0
 40
1.0
 40
1.0
 10
132.9617377054749
 20
231.7801675852841
 30
0.0
 10
132.1331922412723
 20
231.7801675852841
 30
0.0
 10
131.4617431311971
 20
231.1085462204347
 30
0.0
 10
131.4617431311971
 20
230.2801730110064
 30
0.0
  0
SPLINE
  5
24D
330
1F
100
AcDbEntity
  8
0
  6
K5LT32768
 62
     7
370
    15
100
AcDbSpline
210
0.0
220
0.0
230
1.0
 70
     8
 71
     3
 72
     8
 73
     4
 74
     0
 42
0.0
 43
0.0
 12
1.0
 22
0.0
 32
0.0
 13
1.0
 23
0.0
 33
0.0
 40
0.0
 40
0.0
 40
0.0
 40
0.0
 40
1.0
 40
1.0
 40
1.0
 40
1.0
 10
134.4617322797526
 20
230.2801730110064
 30
0.0
 10
134.4617322797526
 20
231.1085462204347
 30
0.0
 10
133.7902831696774
 20
231.7801675852841
 30
0.0
 10
132.9617377054749
 20
231.7801675852841
 30
0.0
  0
SPLINE
  5
24E
330
1F
100
AcDbEntity
  8
0
  6
K5LT32768
 62
     7
370
    15
100
AcDbSpline
210
0.0
220
0.0
230
1.0
 70
     8
 71
     3
 72
     8
 73
     4
 74
     0
 42
0.0
 43
0.0
 12
1.0
 22
0.0
 32
0.0
 13
1.0
 23
0.0
 33
0.0
 40
0.0
 40
0.0
 40
0.0
 40
0.0
 40
1.0
 40
1.0
 40
1.0
 40
1.0
 10
238.5242865072092
 20
228.7801784367286
 30
0.0
 10
239.3524874618633
 20
228.7801784367286
 30
0.0
 10
240.024281081487
 20
229.451799801578
 30
0.0
 10
240.024281081487
 20
230.2801730110064
 30
0.0
  0
SPLINE
  5
24F
330
1F
100
AcDbEntity
  8
0
  6
K5LT32768
 62
     7
370
    15
100
AcDbSpline
210
0.0
220
0.0
230
1.0
 70
     8
 71
     3
 72
     8
 73
     4
 74
     0
 42
0.0
 43
0.0
 12
1.0
 22
0.0
 32
0.0
 13
1.0
 23
0.0
 33
0.0
 40
0.0
 40
0.0
 40
0.0
 40
0.0
 40
1.0
 40
1.0
 40
1.0
 40
1.0
 10
237.0242919329314
 20
230.2801730110064
 30
0.0
 10
237.0242919329314
 20
229.451799801578
 30
0.0
 10
237.6957410430066
 20
228.7801784367286
 30
0.0
 10
238.5242865072092
 20
228.7801784367286
 30
0.0
  0
SPLINE
  5
250
330
1F
100
AcDbEntity
  8
0
  6
K5LT32768
 62
     7
370
    15
100
AcDbSpline
210
0.0
220
0.0
230
1.0
 70
     8
 71
     3
 72
     8
 73
     4
 74
     0
 42
0.0
 43
0.0
 12
1.0
 22
0.0
 32
0.0
 13
1.0
 23
0.0
 33
0.0
 40
0.0
 40
0.0
 40
0.0
 40
0.0
 40
1.0
 40
1.0
 40
1.0
 40
1.0
 10
238.5242865072092
 20
231.7801675852841
 30
0.0
 10
237.6957410430066
 20
231.7801675852841
 30
0.0
 10
237.0242919329314
 20
231.1085462204347
 30
0.0
 10
237.0242919329314
 20
230.2801730110064
 30
0.0
  0
SPLINE
  5
251
330
1F
100
AcDbEntity
  8
0
  6
K5LT32768
 62
     7
370
    15
100
AcDbSpline
210
0.0
220
0.0
230
1.0
 70
     8
 71
     3
 72
     8
 73
     4
 74
     0
 42
0.0
 43
0.0
 12
1.0
 22
0.0
 32
0.0
 13
1.0
 23
0.0
 33
0.0
 40
0.0
 40
0.0
 40
0.0
 40
0.0
 40
1.0
 40
1.0
 40
1.0
 40
1.0
 10
240.024281081487
 20
230.2801730110064
 30
0.0
 10
240.024281081487
 20
231.1085462204347
 30
0.0
 10
239.3524874618633
 20
231.7801675852841
 30
0.0
 10
238.5242865072092
 20
231.7801675852841
 30
0.0
  0
SPLINE
  5
252
330
1F
100
AcDbEntity
  8
0
  6
K5LT32768
 62
     7
370
    15
100
AcDbSpline
210
0.0
220
0.0
230
1.0
 70
     8
 71
     3
 72
     8
 73
     4
 74
     0
 42
0.0
 43
0.0
 12
1.0
 22
0.0
 32
0.0
 13
1.0
 23
0.0
 33
0.0
 40
0.0
 40
0.0
 40
0.0
 40
0.0
 40
1.0
 40
1.0
 40
1.0
 40
1.0
 10
232.494680388925
 20
145.2211099897364
 30
0.0
 10
233.322881343579
 20
145.2211099897364
 30
0.0
 10
233.9946749632027
 20
145.8922145902631
 30
0.0
 10
233.9946749632027
 20
146.7211045640142
 30
0.0
  0
SPLINE
  5
253
330
1F
100
AcDbEntity
  8
0
  6
K5LT32768
 62
     7
370
    15
100
AcDbSpline
210
0.0
220
0.0
230
1.0
 70
     8
 71
     3
 72
     8
 73
     4
 74
     0
 42
0.0
 43
0.0
 12
1.0
 22
0.0
 32
0.0
 13
1.0
 23
0.0
 33
0.0
 40
0.0
 40
0.0
 40
0.0
 40
0.0
 40
1.0
 40
1.0
 40
1.0
 40
1.0
 10
230.9946858146472
 20
146.7211045640142
 30
0.0
 10
230.9946858146472
 20
145.8922145902631
 30
0.0
 10
231.6661349247224
 20
145.2211099897364
 30
0.0
 10
232.494680388925
 20
145.2211099897364
 30
0.0
  0
SPLINE
  5
254
330
1F
100
AcDbEntity
  8
0
  6
K5LT32768
 62
     7
370
    15
100
AcDbSpline
210
0.0
220
0.0
230
1.0
 70
     8
 71
     3
 72
     8
 73
     4
 74
     0
 42
0.0
 43
0.0
 12
1.0
 22
0.0
 32
0.0
 13
1.0
 23
0.0
 33
0.0
 40
0.0
 40
0.0
 40
0.0
 40
0.0
 40
1.0
 40
1.0
 40
1.0
 40
1.0
 10
232.494680388925
 20
148.2212713930662
 30
0.0
 10
231.6661349247224
 20
148.2212713930662
 30
0.0
 10
230.9946858146472
 20
147.5493055186682
 30
0.0
 10
230.9946858146472
 20
146.7211045640142
 30
0.0
  0
SPLINE
  5
255
330
1F
100
AcDbEntity
  8
0
  6
K5LT32768
 62
     7
370
    15
100
AcDbSpline
210
0.0
220
0.0
230
1.0
 70
     8
 71
     3
 72
     8
 73
     4
 74
     0
 42
0.0
 43
0.0
 12
1.0
 22
0.0
 32
0.0
 13
1.0
 23
0.0
 33
0.0
 40
0.0
 40
0.0
 40
0.0
 40
0.0
 40
1.0
 40
1.0
 40
1.0
 40
1.0
 10
233.9946749632027
 20
146.7211045640142
 30
0.0
 10
233.9946749632027
 20
147.5493055186682
 30
0.0
 10
233.322881343579
 20
148.2212713930662
 30
0.0
 10
232.494680388925
 20
148.2212713930662
 30
0.0
  0
SPLINE
  5
256
330
1F
100
AcDbEntity
  8
0
  6
K5LT32768
 62
     7
370
    15
100
AcDbSpline
210
0.0
220
0.0
230
1.0
 70
     8
 71
     3
 72
     8
 73
     4
 74
     0
 42
0.0
 43
0.0
 12
1.0
 22
0.0
 32
0.0
 13
1.0
 23
0.0
 33
0.0
 40
0.0
 40
0.0
 40
0.0
 40
0.0
 40
1.0
 40
1.0
 40
1.0
 40
1.0
 10
216.7430148112657
 20
73.18691946955049
 30
0.0
 10
217.5715602754682
 20
73.18691946955049
 30
0.0
 10
218.2430093855434
 20
73.85871308917422
 30
0.0
 10
218.2430093855434
 20
74.68691404382828
 30
0.0
  0
SPLINE
  5
257
330
1F
100
AcDbEntity
  8
0
  6
K5LT32768
 62
     7
370
    15
100
AcDbSpline
210
0.0
220
0.0
230
1.0
 70
     8
 71
     3
 72
     8
 73
     4
 74
     0
 42
0.0
 43
0.0
 12
1.0
 22
0.0
 32
0.0
 13
1.0
 23
0.0
 33
0.0
 40
0.0
 40
0.0
 40
0.0
 40
0.0
 40
1.0
 40
1.0
 40
1.0
 40
1.0
 10
215.2430202369879
 20
74.68691404382828
 30
0.0
 10
215.2430202369879
 20
73.85871308917422
 30
0.0
 10
215.9144693470631
 20
73.18691946955049
 30
0.0
 10
216.7430148112657
 20
73.18691946955049
 30
0.0
  0
SPLINE
  5
258
330
1F
100
AcDbEntity
  8
0
  6
K5LT32768
 62
     7
370
    15
100
AcDbSpline
210
0.0
220
0.0
230
1.0
 70
     8
 71
     3
 72
     8
 73
     4
 74
     0
 42
0.0
 43
0.0
 12
1.0
 22
0.0
 32
0.0
 13
1.0
 23
0.0
 33
0.0
 40
0.0
 40
0.0
 40
0.0
 40
0.0
 40
1.0
 40
1.0
 40
1.0
 40
1.0
 10
216.7430148112657
 20
76.18690861810606
 30
0.0
 10
215.9144693470631
 20
76.18690861810606
 30
0.0
 10
215.2430202369879
 20
75.51580401757938
 30
0.0
 10
215.2430202369879
 20
74.68691404382828
 30
0.0
  0
SPLINE
  5
259
330
1F
100
AcDbEntity
  8
0
  6
K5LT32768
 62
     7
370
    15
100
AcDbSpline
210
0.0
220
0.0
230
1.0
 70
     8
 71
     3
 72
     8
 73
     4
 74
     0
 42
0.0
 43
0.0
 12
1.0
 22
0.0
 32
0.0
 13
1.0
 23
0.0
 33
0.0
 40
0.0
 40
0.0
 40
0.0
 40
0.0
 40
1.0
 40
1.0
 40
1.0
 40
1.0
 10
218.2430093855434
 20
74.68691404382828
 30
0.0
 10
218.2430093855434
 20
75.51580401757938
 30
0.0
 10
217.5715602754682
 20
76.18690861810606
 30
0.0
 10
216.7430148112657
 20
76.18690861810606
 30
0.0
  0
SPLINE
  5
25A
330
1F
100
AcDbEntity
  8
0
  6
K5LT32768
 62
     7
370
    15
100
AcDbSpline
210
0.0
220
0.0
230
1.0
 70
     8
 71
     3
 72
     8
 73
     4
 74
     0
 42
0.0
 43
0.0
 12
1.0
 22
0.0
 32
0.0
 13
1.0
 23
0.0
 33
0.0
 40
0.0
 40
0.0
 40
0.0
 40
0.0
 40
1.0
 40
1.0
 40
1.0
 40
1.0
 10
236.3459526318858
 20
255.2147406045991
 30
0.0
 10
235.9470105746938
 20
256.3109699880056
 30
0.0
 10
235.743060921967
 20
257.4685220710496
 30
0.0
 10
235.743060921967
 20
258.6350314023551
 30
0.0
  0
LINE
  5
25B
330
1F
100
AcDbEntity
  8
0
  6
K5LT32768
 62
     7
370
    15
100
AcDbLine
 10
235.743060922
 20
258.6350314024
 30
0.0
 11
235.743060922
 21
321.199860217
 31
0.0
  0
SPLINE
  5
25C
330
1F
100
AcDbEntity
  8
0
  6
K5LT32768
 62
     7
370
    15
100
AcDbSpline
210
0.0
220
0.0
230
1.0
 70
     8
 71
     3
 72
     8
 73
     4
 74
     0
 42
0.0
 43
0.0
 12
1.0
 22
0.0
 32
0.0
 13
1.0
 23
0.0
 33
0.0
 40
0.0
 40
0.0
 40
0.0
 40
0.0
 40
1.0
 40
1.0
 40
1.0
 40
1.0
 10
235.743060921967
 20
321.1998602170091
 30
0.0
 10
235.743060921967
 20
323.4090276969255
 30
0.0
 10
233.9523002887342
 20
325.1999605849327
 30
0.0
 10
231.7429605540434
 20
325.1999605849327
 30
0.0
  0
LINE
  5
25D
330
1F
100
AcDbEntity
  8
0
  6
K5LT32768
 62
     7
370
    15
100
AcDbLine
 10
231.742960554
 20
325.1999605849
 30
0.0
 11
215.8665825198
 21
325.1999605849
 31
0.0
  0
SPLINE
  5
25E
330
1F
100
AcDbEntity
  8
0
  6
K5LT32768
 62
     7
370
    15
100
AcDbSpline
210
0.0
220
0.0
230
1.0
 70
     8
 71
     3
 72
     8
 73
     4
 74
     0
 42
0.0
 43
0.0
 12
1.0
 22
0.0
 32
0.0
 13
1.0
 23
0.0
 33
0.0
 40
0.0
 40
0.0
 40
0.0
 40
0.0
 40
1.0
 40
1.0
 40
1.0
 40
1.0
 10
215.8665825198181
 20
325.1999605849327
 30
0.0
 10
214.6346163742927
 20
325.1999605849327
 30
0.0
 10
213.4715521384724
 20
324.6323811037378
 30
0.0
 10
212.7136311317174
 20
323.6613809412201
 30
0.0
  0
SPLINE
  5
25F
330
1F
100
AcDbEntity
  8
0
  6
K5LT32768
 62
     7
370
    15
100
AcDbSpline
210
0.0
220
0.0
230
1.0
 70
     8
 71
     3
 72
     8
 73
     4
 74
     0
 42
0.0
 43
0.0
 12
1.0
 22
0.0
 32
0.0
 13
1.0
 23
0.0
 33
0.0
 40
0.0
 40
0.0
 40
0.0
 40
0.0
 40
1.0
 40
1.0
 40
1.0
 40
1.0
 10
212.7136311317174
 20
323.6613809412201
 30
0.0
 10
212.2399305024956
 20
323.0545273714934
 30
0.0
 10
211.5130153551079
 20
322.6998547912868
 30
0.0
 10
210.7430365141545
 20
322.6998547912868
 30
0.0
  0
LINE
  5
260
330
1F
100
AcDbEntity
  8
0
  6
K5LT32768
 62
     7
370
    15
100
AcDbLine
 10
210.7430365142
 20
322.6998547913
 30
0.0
 11
190.7428791841
 21
322.6998547913
 31
0.0
  0
SPLINE
  5
261
330
1F
100
AcDbEntity
  8
0
  6
K5LT32768
 62
     7
370
    15
100
AcDbSpline
210
0.0
220
0.0
230
1.0
 70
     8
 71
     3
 72
     8
 73
     4
 74
     0
 42
0.0
 43
0.0
 12
1.0
 22
0.0
 32
0.0
 13
1.0
 23
0.0
 33
0.0
 40
0.0
 40
0.0
 40
0.0
 40
0.0
 40
1.0
 40
1.0
 40
1.0
 40
1.0
 10
190.7428791840851
 20
322.6998547912868
 30
0.0
 10
189.9732448526803
 20
322.6998547912868
 30
0.0
 10
189.2463297052926
 20
323.0545273714934
 30
0.0
 10
188.7722845665222
 20
323.6613809412201
 30
0.0
  0
SPLINE
  5
262
330
1F
100
AcDbEntity
  8
0
  6
K5LT32768
 62
     7
370
    15
100
AcDbSpline
210
0.0
220
0.0
230
1.0
 70
     8
 71
     3
 72
     8
 73
     4
 74
     0
 42
0.0
 43
0.0
 12
1.0
 22
0.0
 32
0.0
 13
1.0
 23
0.0
 33
0.0
 40
0.0
 40
0.0
 40
0.0
 40
0.0
 40
1.0
 40
1.0
 40
1.0
 40
1.0
 10
188.7722845665222
 20
323.6613809412201
 30
0.0
 10
188.0143635597672
 20
324.6323811037378
 30
0.0
 10
186.8512993239469
 20
325.1999605849327
 30
0.0
 10
185.6196776879701
 20
325.1999605849327
 30
0.0
  0
LINE
  5
263
330
1F
100
AcDbEntity
  8
0
  6
K5LT32768
 62
     7
370
    15
100
AcDbLine
 10
185.619677688
 20
325.1999605849
 30
0.0
 11
174.7428222219
 21
325.1999605849
 31
0.0
  0
SPLINE
  5
264
330
1F
100
AcDbEntity
  8
0
  6
K5LT32768
 62
     7
370
    15
100
AcDbSpline
210
0.0
220
0.0
230
1.0
 70
     8
 71
     3
 72
     8
 73
     4
 74
     0
 42
0.0
 43
0.0
 12
1.0
 22
0.0
 32
0.0
 13
1.0
 23
0.0
 33
0.0
 40
0.0
 40
0.0
 40
0.0
 40
0.0
 40
1.0
 40
1.0
 40
1.0
 40
1.0
 10
174.7428222219393
 20
325.1999605849327
 30
0.0
 10
172.5338269967971
 20
325.1999605849327
 30
0.0
 10
170.7430663635643
 20
323.4090276969255
 30
0.0
 10
170.7430663635643
 20
321.1998602170091
 30
0.0
  0
LINE
  5
265
330
1F
100
AcDbEntity
  8
0
  6
K5LT32768
 62
     7
370
    15
100
AcDbLine
 10
170.7430663636
 20
321.199860217
 30
0.0
 11
170.7430663636
 21
320.1997489976
 31
0.0
  0
SPLINE
  5
266
330
1F
100
AcDbEntity
  8
0
  6
K5LT32768
 62
     7
370
    15
100
AcDbSpline
210
0.0
220
0.0
230
1.0
 70
     8
 71
     3
 72
     8
 73
     4
 74
     0
 42
0.0
 43
0.0
 12
1.0
 22
0.0
 32
0.0
 13
1.0
 23
0.0
 33
0.0
 40
0.0
 40
0.0
 40
0.0
 40
0.0
 40
1.0
 40
1.0
 40
1.0
 40
1.0
 10
170.7430663635643
 20
320.1997489976412
 30
0.0
 10
170.7430663635643
 20
317.9907537724989
 30
0.0
 10
168.9519612207829
 20
316.1998208844917
 30
0.0
 10
166.7429659956406
 20
316.1998208844917
 30
0.0
  0
LINE
  5
267
330
1F
100
AcDbEntity
  8
0
  6
K5LT32768
 62
     7
370
    15
100
AcDbLine
 10
166.7429659956
 20
316.1998208845
 30
0.0
 11
139.7430636586
 21
316.1998208845
 31
0.0
  0
SPLINE
  5
268
330
1F
100
AcDbEntity
  8
0
  6
K5LT32768
 62
     7
370
    15
100
AcDbSpline
210
0.0
220
0.0
230
1.0
 70
     8
 71
     3
 72
     8
 73
     4
 74
     0
 42
0.0
 43
0.0
 12
1.0
 22
0.0
 32
0.0
 13
1.0
 23
0.0
 33
0.0
 40
0.0
 40
0.0
 40
0.0
 40
0.0
 40
1.0
 40
1.0
 40
1.0
 40
1.0
 10
139.7430636586406
 20
316.1998208844917
 30
0.0
 10
137.5337239239499
 20
316.1998208844917
 30
0.0
 10
135.7429632907171
 20
314.4090602512588
 30
0.0
 10
135.7429632907171
 20
312.1998927713424
 30
0.0
  0
LINE
  5
269
330
1F
100
AcDbEntity
  8
0
  6
K5LT32768
 62
     7
370
    15
100
AcDbLine
 10
135.7429632907
 20
312.1998927713
 30
0.0
 11
135.7429632907
 21
258.6350314024
 31
0.0
  0
SPLINE
  5
26A
330
1F
100
AcDbEntity
  8
0
  6
K5LT32768
 62
     7
370
    15
100
AcDbSpline
210
0.0
220
0.0
230
1.0
 70
     8
 71
     3
 72
     8
 73
     4
 74
     0
 42
0.0
 43
0.0
 12
1.0
 22
0.0
 32
0.0
 13
1.0
 23
0.0
 33
0.0
 40
0.0
 40
0.0
 40
0.0
 40
0.0
 40
1.0
 40
1.0
 40
1.0
 40
1.0
 10
135.7429632907171
 20
258.6350314023551
 30
0.0
 10
135.7429632907171
 20
257.4685220710496
 30
0.0
 10
135.5386691284417
 20
256.3109699880056
 30
0.0
 10
135.1397270712498
 20
255.2147406045991
 30
0.0
  0
LINE
  5
26B
330
1F
100
AcDbEntity
  8
0
  6
K5LT32768
 62
     7
370
    15
100
AcDbLine
 10
135.1397270712
 20
255.2147406046
 30
0.0
 11
126.4501627288
 21
231.3402288918
 31
0.0
  0
SPLINE
  5
26C
330
1F
100
AcDbEntity
  8
0
  6
K5LT32768
 62
     7
370
    15
100
AcDbSpline
210
0.0
220
0.0
230
1.0
 70
     8
 71
     3
 72
     8
 73
     4
 74
     0
 42
0.0
 43
0.0
 12
1.0
 22
0.0
 32
0.0
 13
1.0
 23
0.0
 33
0.0
 40
0.0
 40
0.0
 40
0.0
 40
0.0
 40
1.0
 40
1.0
 40
1.0
 40
1.0
 10
126.4501627288041
 20
231.3402288918177
 30
0.0
 10
125.7084336708298
 20
229.3019381479697
 30
0.0
 10
126.0322726464433
 20
227.027658363382
 30
0.0
 10
127.3135036574077
 20
225.2773776021008
 30
0.0
  0
SPLINE
  5
26D
330
1F
100
AcDbEntity
  8
0
  6
K5LT32768
 62
     7
370
    15
100
AcDbSpline
210
0.0
220
0.0
230
1.0
 70
     8
 71
     3
 72
     8
 73
     4
 74
     0
 42
0.0
 43
0.0
 12
1.0
 22
0.0
 32
0.0
 13
1.0
 23
0.0
 33
0.0
 40
0.0
 40
0.0
 40
0.0
 40
0.0
 40
1.0
 40
1.0
 40
1.0
 40
1.0
 10
127.3135036574077
 20
225.2773776021008
 30
0.0
 10
143.2484483148824
 20
203.5107475619695
 30
0.0
 10
145.2579725114286
 20
174.5250921872715
 30
0.0
 10
132.4790798279913
 20
150.7678859757629
 30
0.0
  0
SPLINE
  5
26E
330
1F
100
AcDbEntity
  8
0
  6
K5LT32768
 62
     7
370
    15
100
AcDbSpline
210
0.0
220
0.0
230
1.0
 70
     8
 71
     3
 72
     8
 73
     4
 74
     0
 42
0.0
 43
0.0
 12
1.0
 22
0.0
 32
0.0
 13
1.0
 23
0.0
 33
0.0
 40
0.0
 40
0.0
 40
0.0
 40
0.0
 40
1.0
 40
1.0
 40
1.0
 40
1.0
 10
132.4790798279913
 20
150.7678859757629
 30
0.0
 10
131.2185193899384
 20
148.424532026696
 30
0.0
 10
131.5137640730243
 20
145.5490830799322
 30
0.0
 10
133.2242539814509
 20
143.5102755717613
 30
0.0
  0
LINE
  5
26F
330
1F
100
AcDbEntity
  8
0
  6
K5LT32768
 62
     7
370
    15
100
AcDbLine
 10
133.2242539815
 20
143.5102755718
 30
0.0
 11
150.2750650666
 21
123.1911023998
 31
0.0
  0
SPLINE
  5
270
330
1F
100
AcDbEntity
  8
0
  6
K5LT32768
 62
     7
370
    15
100
AcDbSpline
210
0.0
220
0.0
230
1.0
 70
     8
 71
     3
 72
     8
 73
     4
 74
     0
 42
0.0
 43
0.0
 12
1.0
 22
0.0
 32
0.0
 13
1.0
 23
0.0
 33
0.0
 40
0.0
 40
0.0
 40
0.0
 40
0.0
 40
1.0
 40
1.0
 40
1.0
 40
1.0
 10
150.2750650665979
 20
123.1911023997578
 30
0.0
 10
150.5771999406543
 20
122.8307454120007
 30
0.0
 10
150.7429090334948
 20
122.3753037888506
 30
0.0
 10
150.7429090334948
 20
121.9053927646626
 30
0.0
  0
LINE
  5
271
330
1F
100
AcDbEntity
  8
0
  6
K5LT32768
 62
     7
370
    15
100
AcDbLine
 10
150.7429090335
 20
121.9053927647
 30
0.0
 11
150.7429090335
 21
89.4374348735
 31
0.0
  0
SPLINE
  5
272
330
1F
100
AcDbEntity
  8
0
  6
K5LT32768
 62
     7
370
    15
100
AcDbSpline
210
0.0
220
0.0
230
1.0
 70
     8
 71
     3
 72
     8
 73
     4
 74
     0
 42
0.0
 43
0.0
 12
1.0
 22
0.0
 32
0.0
 13
1.0
 23
0.0
 33
0.0
 40
0.0
 40
0.0
 40
0.0
 40
0.0
 40
1.0
 40
1.0
 40
1.0
 40
1.0
 10
150.7429090334948
 20
89.43743487347399
 30
0.0
 10
150.7429090334948
 20
87.74175887563402
 30
0.0
 10
151.8115776530193
 20
86.23073999580345
 30
0.0
 10
153.4097574486267
 20
85.66574433622246
 30
0.0
  0
SPLINE
  5
273
330
1F
100
AcDbEntity
  8
0
  6
K5LT32768
 62
     7
370
    15
100
AcDbSpline
210
0.0
220
0.0
230
1.0
 70
     8
 71
     3
 72
     8
 73
     4
 74
     0
 42
0.0
 43
0.0
 12
1.0
 22
0.0
 32
0.0
 13
1.0
 23
0.0
 33
0.0
 40
0.0
 40
0.0
 40
0.0
 40
0.0
 40
1.0
 40
1.0
 40
1.0
 40
1.0
 10
153.4097574486267
 20
85.66574433622246
 30
0.0
 10
154.2086750916562
 20
85.38324650643197
 30
0.0
 10
154.7430094014184
 20
84.6280815760652
 30
0.0
 10
154.7430094014184
 20
83.78058808669374
 30
0.0
  0
LINE
  5
274
330
1F
100
AcDbEntity
  8
0
  6
K5LT32768
 62
     7
370
    15
100
AcDbLine
 10
154.7430094014
 20
83.7805880867
 30
0.0
 11
154.7430094014
 21
80.3437608306
 31
0.0
  0
SPLINE
  5
275
330
1F
100
AcDbEntity
  8
0
  6
K5LT32768
 62
     7
370
    15
100
AcDbSpline
210
0.0
220
0.0
230
1.0
 70
     8
 71
     3
 72
     8
 73
     4
 74
     0
 42
0.0
 43
0.0
 12
1.0
 22
0.0
 32
0.0
 13
1.0
 23
0.0
 33
0.0
 40
0.0
 40
0.0
 40
0.0
 40
0.0
 40
1.0
 40
1.0
 40
1.0
 40
1.0
 10
154.7430094014184
 20
80.3437608306085
 30
0.0
 10
154.7430094014184
 20
79.49626734123704
 30
0.0
 10
154.2086750916562
 20
78.74110241087028
 30
0.0
 10
153.4097574486267
 20
78.4586045810798
 30
0.0
  0
SPLINE
  5
276
330
1F
100
AcDbEntity
  8
0
  6
K5LT32768
 62
     7
370
    15
100
AcDbSpline
210
0.0
220
0.0
230
1.0
 70
     8
 71
     3
 72
     8
 73
     4
 74
     0
 42
0.0
 43
0.0
 12
1.0
 22
0.0
 32
0.0
 13
1.0
 23
0.0
 33
0.0
 40
0.0
 40
0.0
 40
0.0
 40
0.0
 40
1.0
 40
1.0
 40
1.0
 40
1.0
 10
153.4097574486267
 20
78.4586045810798
 30
0.0
 10
151.3268527182447
 20
77.72204316633338
 30
0.0
 10
150.2354464685175
 20
75.43656682141864
 30
0.0
 10
150.9716633737154
 20
73.35366209103658
 30
0.0
  0
SPLINE
  5
277
330
1F
100
AcDbEntity
  8
0
  6
K5LT32768
 62
     7
370
    15
100
AcDbSpline
210
0.0
220
0.0
230
1.0
 70
     8
 71
     3
 72
     8
 73
     4
 74
     0
 42
0.0
 43
0.0
 12
1.0
 22
0.0
 32
0.0
 13
1.0
 23
0.0
 33
0.0
 40
0.0
 40
0.0
 40
0.0
 40
0.0
 40
1.0
 40
1.0
 40
1.0
 40
1.0
 10
150.9716633737154
 20
73.35366209103658
 30
0.0
 10
151.3743950359411
 20
72.21471352361299
 30
0.0
 10
152.2704643716546
 20
71.31898869744803
 30
0.0
 10
153.4097574486267
 20
70.9159125256738
 30
0.0
  0
SPLINE
  5
278
330
1F
100
AcDbEntity
  8
0
  6
K5LT32768
 62
     7
370
    15
100
AcDbSpline
210
0.0
220
0.0
230
1.0
 70
     8
 71
     3
 72
     8
 73
     4
 74
     0
 42
0.0
 43
0.0
 12
1.0
 22
0.0
 32
0.0
 13
1.0
 23
0.0
 33
0.0
 40
0.0
 40
0.0
 40
0.0
 40
0.0
 40
1.0
 40
1.0
 40
1.0
 40
1.0
 10
153.4097574486267
 20
70.9159125256738
 30
0.0
 10
154.2086750916562
 20
70.63341469588332
 30
0.0
 10
154.7430094014184
 20
69.87824976551656
 30
0.0
 10
154.7430094014184
 20
69.03006725704805
 30
0.0
  0
LINE
  5
279
330
1F
100
AcDbEntity
  8
0
  6
K5LT32768
 62
     7
370
    15
100
AcDbLine
 10
154.7430094014
 20
69.030067257
 30
0.0
 11
154.7430094014
 21
62.3438259393
 31
0.0
  0
SPLINE
  5
27A
330
1F
100
AcDbEntity
  8
0
  6
K5LT32768
 62
     7
370
    15
100
AcDbSpline
210
0.0
220
0.0
230
1.0
 70
     8
 71
     3
 72
     8
 73
     4
 74
     0
 42
0.0
 43
0.0
 12
1.0
 22
0.0
 32
0.0
 13
1.0
 23
0.0
 33
0.0
 40
0.0
 40
0.0
 40
0.0
 40
0.0
 40
1.0
 40
1.0
 40
1.0
 40
1.0
 10
154.7430094014184
 20
62.34382593927516
 30
0.0
 10
154.7430094014184
 20
61.4963324499037
 30
0.0
 10
154.2086750916562
 20
60.74116751953693
 30
0.0
 10
153.4097574486267
 20
60.45866968974644
 30
0.0
  0
SPLINE
  5
27B
330
1F
100
AcDbEntity
  8
0
  6
K5LT32768
 62
     7
370
    15
100
AcDbSpline
210
0.0
220
0.0
230
1.0
 70
     8
 71
     3
 72
     8
 73
     4
 74
     0
 42
0.0
 43
0.0
 12
1.0
 22
0.0
 32
0.0
 13
1.0
 23
0.0
 33
0.0
 40
0.0
 40
0.0
 40
0.0
 40
0.0
 40
1.0
 40
1.0
 40
1.0
 40
1.0
 10
153.4097574486267
 20
60.45866968974644
 30
0.0
 10
151.8115776530193
 20
59.89367403016548
 30
0.0
 10
150.7429090334948
 20
58.38265515033489
 30
0.0
 10
150.7429090334948
 20
56.68697915249493
 30
0.0
  0
LINE
  5
27C
330
1F
100
AcDbEntity
  8
0
  6
K5LT32768
 62
     7
370
    15
100
AcDbLine
 10
150.7429090335
 20
56.6869791525
 30
0.0
 11
150.7429090335
 21
31.6872992542
 31
0.0
  0
SPLINE
  5
27D
330
1F
100
AcDbEntity
  8
0
  6
K5LT32768
 62
     7
370
    15
100
AcDbSpline
210
0.0
220
0.0
230
1.0
 70
     8
 71
     3
 72
     8
 73
     4
 74
     0
 42
0.0
 43
0.0
 12
1.0
 22
0.0
 32
0.0
 13
1.0
 23
0.0
 33
0.0
 40
0.0
 40
0.0
 40
0.0
 40
0.0
 40
1.0
 40
1.0
 40
1.0
 40
1.0
 10
150.7429090334948
 20
31.68729925423095
 30
0.0
 10
150.7429090334948
 20
29.99231227548804
 30
0.0
 10
151.8115776530193
 20
28.48129339565746
 30
0.0
 10
153.4097574486267
 20
27.91629773607648
 30
0.0
  0
SPLINE
  5
27E
330
1F
100
AcDbEntity
  8
0
  6
K5LT32768
 62
     7
370
    15
100
AcDbSpline
210
0.0
220
0.0
230
1.0
 70
     8
 71
     3
 72
     8
 73
     4
 74
     0
 42
0.0
 43
0.0
 12
1.0
 22
0.0
 32
0.0
 13
1.0
 23
0.0
 33
0.0
 40
0.0
 40
0.0
 40
0.0
 40
0.0
 40
1.0
 40
1.0
 40
1.0
 40
1.0
 10
153.4097574486267
 20
27.91629773607648
 30
0.0
 10
154.2086750916562
 20
27.63311088718894
 30
0.0
 10
154.7430094014184
 20
26.87794595682218
 30
0.0
 10
154.7430094014184
 20
26.03045246745072
 30
0.0
  0
LINE
  5
27F
330
1F
100
AcDbEntity
  8
0
  6
K5LT32768
 62
     7
370
    15
100
AcDbLine
 10
154.7430094014
 20
26.0304524675
 30
0.0
 11
154.7430094014
 21
19.3442111497
 31
0.0
  0
SPLINE
  5
280
330
1F
100
AcDbEntity
  8
0
  6
K5LT32768
 62
     7
370
    15
100
AcDbSpline
210
0.0
220
0.0
230
1.0
 70
     8
 71
     3
 72
     8
 73
     4
 74
     0
 42
0.0
 43
0.0
 12
1.0
 22
0.0
 32
0.0
 13
1.0
 23
0.0
 33
0.0
 40
0.0
 40
0.0
 40
0.0
 40
0.0
 40
1.0
 40
1.0
 40
1.0
 40
1.0
 10
154.7430094014184
 20
19.34421114967784
 30
0.0
 10
154.7430094014184
 20
18.49671766030638
 30
0.0
 10
154.2086750916562
 20
17.74086371084256
 30
0.0
 10
153.4097574486267
 20
17.45836588105207
 30
0.0
  0
SPLINE
  5
281
330
1F
100
AcDbEntity
  8
0
  6
K5LT32768
 62
     7
370
    15
100
AcDbSpline
210
0.0
220
0.0
230
1.0
 70
     8
 71
     3
 72
     8
 73
     4
 74
     0
 42
0.0
 43
0.0
 12
1.0
 22
0.0
 32
0.0
 13
1.0
 23
0.0
 33
0.0
 40
0.0
 40
0.0
 40
0.0
 40
0.0
 40
1.0
 40
1.0
 40
1.0
 40
1.0
 10
153.4097574486267
 20
17.45836588105207
 30
0.0
 10
151.3268527182447
 20
16.72180446630566
 30
0.0
 10
150.2354464685175
 20
14.43632812139092
 30
0.0
 10
150.9716633737154
 20
12.35411241010592
 30
0.0
  0
SPLINE
  5
282
330
1F
100
AcDbEntity
  8
0
  6
K5LT32768
 62
     7
370
    15
100
AcDbSpline
210
0.0
220
0.0
230
1.0
 70
     8
 71
     3
 72
     8
 73
     4
 74
     0
 42
0.0
 43
0.0
 12
1.0
 22
0.0
 32
0.0
 13
1.0
 23
0.0
 33
0.0
 40
0.0
 40
0.0
 40
0.0
 40
0.0
 40
1.0
 40
1.0
 40
1.0
 40
1.0
 10
150.9716633737154
 20
12.35411241010592
 30
0.0
 10
151.5366590332964
 20
10.75558810494999
 30
0.0
 10
153.047677913127
 20
9.686919485425493
 30
0.0
 10
154.7430094014184
 20
9.686919485425493
 30
0.0
  0
LINE
  5
283
330
1F
100
AcDbEntity
  8
0
  6
K5LT32768
 62
     7
370
    15
100
AcDbLine
 10
154.7430094014
 20
9.6869194854
 30
0.0
 11
216.7430148113
 21
9.6869194854
 31
0.0
  0
SPLINE
  5
284
330
1F
100
AcDbEntity
  8
0
  6
K5LT32768
 62
     7
370
    15
100
AcDbSpline
210
0.0
220
0.0
230
1.0
 70
     8
 71
     3
 72
    11
 73
     7
 74
     0
 42
0.0
 43
0.0
 12
1.0
 22
0.0
 32
0.0
 13
1.0
 23
0.0
 33
0.0
 40
0.0
 40
0.0
 40
0.0
 40
0.0
 40
0.5
 40
0.5
 40
0.5
 40
1.0
 40
1.0
 40
1.0
 40
1.0
 10
216.7430148112657
 20
9.686919485425493
 30
0.0
 10
218.9520100364078
 20
9.686919485425493
 30
0.0
 10
220.7431151791892
 20
11.47836913775541
 30
0.0
 10
220.7431151791892
 20
13.6873643628976
 30
0.0
 10
220.7431151791892
 20
15.38235134164052
 30
0.0
 10
219.6744465596647
 20
16.8933702214711
 30
0.0
 10
218.0762667640573
 20
17.45836588105207
 30
0.0
  0
SPLINE
  5
285
330
1F
100
AcDbEntity
  8
0
  6
K5LT32768
 62
     7
370
    15
100
AcDbSpline
210
0.0
220
0.0
230
1.0
 70
     8
 71
     3
 72
     8
 73
     4
 74
     0
 42
0.0
 43
0.0
 12
1.0
 22
0.0
 32
0.0
 13
1.0
 23
0.0
 33
0.0
 40
0.0
 40
0.0
 40
0.0
 40
0.0
 40
1.0
 40
1.0
 40
1.0
 40
1.0
 10
218.0762667640573
 20
17.45836588105207
 30
0.0
 10
217.2773491210279
 20
17.74086371084256
 30
0.0
 10
216.7430148112657
 20
18.49671766030638
 30
0.0
 10
216.7430148112657
 20
19.34421114967784
 30
0.0
  0
LINE
  5
286
330
1F
100
AcDbEntity
  8
0
  6
K5LT32768
 62
     7
370
    15
100
AcDbLine
 10
216.7430148113
 20
19.3442111497
 30
0.0
 11
216.7430148113
 21
26.0304524675
 31
0.0
  0
SPLINE
  5
287
330
1F
100
AcDbEntity
  8
0
  6
K5LT32768
 62
     7
370
    15
100
AcDbSpline
210
0.0
220
0.0
230
1.0
 70
     8
 71
     3
 72
     8
 73
     4
 74
     0
 42
0.0
 43
0.0
 12
1.0
 22
0.0
 32
0.0
 13
1.0
 23
0.0
 33
0.0
 40
0.0
 40
0.0
 40
0.0
 40
0.0
 40
1.0
 40
1.0
 40
1.0
 40
1.0
 10
216.7430148112657
 20
26.03045246745072
 30
0.0
 10
216.7430148112657
 20
26.87794595682218
 30
0.0
 10
217.2773491210279
 20
27.63311088718894
 30
0.0
 10
218.0762667640573
 20
27.91629773607648
 30
0.0
  0
SPLINE
  5
288
330
1F
100
AcDbEntity
  8
0
  6
K5LT32768
 62
     7
370
    15
100
AcDbSpline
210
0.0
220
0.0
230
1.0
 70
     8
 71
     3
 72
     8
 73
     4
 74
     0
 42
0.0
 43
0.0
 12
1.0
 22
0.0
 32
0.0
 13
1.0
 23
0.0
 33
0.0
 40
0.0
 40
0.0
 40
0.0
 40
0.0
 40
1.0
 40
1.0
 40
1.0
 40
1.0
 10
218.0762667640573
 20
27.91629773607648
 30
0.0
 10
219.6744465596647
 20
28.48129339565746
 30
0.0
 10
220.7431151791892
 20
29.99231227548804
 30
0.0
 10
220.7431151791892
 20
31.68729925423095
 30
0.0
  0
LINE
  5
289
330
1F
100
AcDbEntity
  8
0
  6
K5LT32768
 62
     7
370
    15
100
AcDbLine
 10
220.7431151792
 20
31.6872992542
 30
0.0
 11
220.7431151792
 21
56.6869791525
 31
0.0
  0
SPLINE
  5
28A
330
1F
100
AcDbEntity
  8
0
  6
K5LT32768
 62
     7
370
    15
100
AcDbSpline
210
0.0
220
0.0
230
1.0
 70
     8
 71
     3
 72
     8
 73
     4
 74
     0
 42
0.0
 43
0.0
 12
1.0
 22
0.0
 32
0.0
 13
1.0
 23
0.0
 33
0.0
 40
0.0
 40
0.0
 40
0.0
 40
0.0
 40
1.0
 40
1.0
 40
1.0
 40
1.0
 10
220.7431151791892
 20
56.68697915249493
 30
0.0
 10
220.7431151791892
 20
58.38265515033489
 30
0.0
 10
219.6744465596647
 20
59.89367403016548
 30
0.0
 10
218.0762667640573
 20
60.45866968974644
 30
0.0
  0
SPLINE
  5
28B
330
1F
100
AcDbEntity
  8
0
  6
K5LT32768
 62
     7
370
    15
100
AcDbSpline
210
0.0
220
0.0
230
1.0
 70
     8
 71
     3
 72
     8
 73
     4
 74
     0
 42
0.0
 43
0.0
 12
1.0
 22
0.0
 32
0.0
 13
1.0
 23
0.0
 33
0.0
 40
0.0
 40
0.0
 40
0.0
 40
0.0
 40
1.0
 40
1.0
 40
1.0
 40
1.0
 10
218.0762667640573
 20
60.45866968974644
 30
0.0
 10
217.2773491210279
 20
60.74116751953693
 30
0.0
 10
216.7430148112657
 20
61.4963324499037
 30
0.0
 10
216.7430148112657
 20
62.34382593927516
 30
0.0
  0
LINE
  5
28C
330
1F
100
AcDbEntity
  8
0
  6
K5LT32768
 62
     7
370
    15
100
AcDbLine
 10
216.7430148113
 20
62.3438259393
 30
0.0
 11
216.7430148113
 21
69.030067257
 31
0.0
  0
SPLINE
  5
28D
330
1F
100
AcDbEntity
  8
0
  6
K5LT32768
 62
     7
370
    15
100
AcDbSpline
210
0.0
220
0.0
230
1.0
 70
     8
 71
     3
 72
     8
 73
     4
 74
     0
 42
0.0
 43
0.0
 12
1.0
 22
0.0
 32
0.0
 13
1.0
 23
0.0
 33
0.0
 40
0.0
 40
0.0
 40
0.0
 40
0.0
 40
1.0
 40
1.0
 40
1.0
 40
1.0
 10
216.7430148112657
 20
69.03006725704805
 30
0.0
 10
216.7430148112657
 20
69.87824976551656
 30
0.0
 10
217.2773491210279
 20
70.63341469588332
 30
0.0
 10
218.0762667640573
 20
70.9159125256738
 30
0.0
  0
SPLINE
  5
28E
330
1F
100
AcDbEntity
  8
0
  6
K5LT32768
 62
     7
370
    15
100
AcDbSpline
210
0.0
220
0.0
230
1.0
 70
     8
 71
     3
 72
     8
 73
     4
 74
     0
 42
0.0
 43
0.0
 12
1.0
 22
0.0
 32
0.0
 13
1.0
 23
0.0
 33
0.0
 40
0.0
 40
0.0
 40
0.0
 40
0.0
 40
1.0
 40
1.0
 40
1.0
 40
1.0
 10
218.0762667640573
 20
70.9159125256738
 30
0.0
 10
220.1591714944394
 20
71.65247394042022
 30
0.0
 10
221.2505777441665
 20
73.93795028533496
 30
0.0
 10
220.5143608389687
 20
76.02085501571702
 30
0.0
  0
SPLINE
  5
28F
330
1F
100
AcDbEntity
  8
0
  6
K5LT32768
 62
     7
370
    15
100
AcDbSpline
210
0.0
220
0.0
230
1.0
 70
     8
 71
     3
 72
     8
 73
     4
 74
     0
 42
0.0
 43
0.0
 12
1.0
 22
0.0
 32
0.0
 13
1.0
 23
0.0
 33
0.0
 40
0.0
 40
0.0
 40
0.0
 40
0.0
 40
1.0
 40
1.0
 40
1.0
 40
1.0
 10
220.5143608389687
 20
76.02085501571702
 30
0.0
 10
220.1116291767429
 20
77.15980358314062
 30
0.0
 10
219.2155598410295
 20
78.05552840930558
 30
0.0
 10
218.0762667640573
 20
78.4586045810798
 30
0.0
  0
SPLINE
  5
290
330
1F
100
AcDbEntity
  8
0
  6
K5LT32768
 62
     7
370
    15
100
AcDbSpline
210
0.0
220
0.0
230
1.0
 70
     8
 71
     3
 72
     8
 73
     4
 74
     0
 42
0.0
 43
0.0
 12
1.0
 22
0.0
 32
0.0
 13
1.0
 23
0.0
 33
0.0
 40
0.0
 40
0.0
 40
0.0
 40
0.0
 40
1.0
 40
1.0
 40
1.0
 40
1.0
 10
218.0762667640573
 20
78.4586045810798
 30
0.0
 10
217.2773491210279
 20
78.74110241087028
 30
0.0
 10
216.7430148112657
 20
79.49626734123704
 30
0.0
 10
216.7430148112657
 20
80.3437608306085
 30
0.0
  0
LINE
  5
291
330
1F
100
AcDbEntity
  8
0
  6
K5LT32768
 62
     7
370
    15
100
AcDbLine
 10
216.7430148113
 20
80.3437608306
 30
0.0
 11
216.7430148113
 21
83.7805880867
 31
0.0
  0
SPLINE
  5
292
330
1F
100
AcDbEntity
  8
0
  6
K5LT32768
 62
     7
370
    15
100
AcDbSpline
210
0.0
220
0.0
230
1.0
 70
     8
 71
     3
 72
     8
 73
     4
 74
     0
 42
0.0
 43
0.0
 12
1.0
 22
0.0
 32
0.0
 13
1.0
 23
0.0
 33
0.0
 40
0.0
 40
0.0
 40
0.0
 40
0.0
 40
1.0
 40
1.0
 40
1.0
 40
1.0
 10
216.7430148112657
 20
83.78058808669374
 30
0.0
 10
216.7430148112657
 20
84.6280815760652
 30
0.0
 10
217.2773491210279
 20
85.38324650643197
 30
0.0
 10
218.0762667640573
 20
85.66574433622246
 30
0.0
  0
SPLINE
  5
293
330
1F
100
AcDbEntity
  8
0
  6
K5LT32768
 62
     7
370
    15
100
AcDbSpline
210
0.0
220
0.0
230
1.0
 70
     8
 71
     3
 72
     8
 73
     4
 74
     0
 42
0.0
 43
0.0
 12
1.0
 22
0.0
 32
0.0
 13
1.0
 23
0.0
 33
0.0
 40
0.0
 40
0.0
 40
0.0
 40
0.0
 40
1.0
 40
1.0
 40
1.0
 40
1.0
 10
218.0762667640573
 20
85.66574433622246
 30
0.0
 10
219.6744465596647
 20
86.23073999580345
 30
0.0
 10
220.7431151791892
 20
87.74175887563402
 30
0.0
 10
220.7431151791892
 20
89.43743487347399
 30
0.0
  0
LINE
  5
294
330
1F
100
AcDbEntity
  8
0
  6
K5LT32768
 62
     7
370
    15
100
AcDbLine
 10
220.7431151792
 20
89.4374348735
 30
0.0
 11
220.7431151792
 21
121.9053927647
 31
0.0
  0
SPLINE
  5
295
330
1F
100
AcDbEntity
  8
0
  6
K5LT32768
 62
     7
370
    15
100
AcDbSpline
210
0.0
220
0.0
230
1.0
 70
     8
 71
     3
 72
     8
 73
     4
 74
     0
 42
0.0
 43
0.0
 12
1.0
 22
0.0
 32
0.0
 13
1.0
 23
0.0
 33
0.0
 40
0.0
 40
0.0
 40
0.0
 40
0.0
 40
1.0
 40
1.0
 40
1.0
 40
1.0
 10
220.7431151791892
 20
121.9053927646626
 30
0.0
 10
220.7431151791892
 20
122.3753037888506
 30
0.0
 10
220.9088242720298
 20
122.8307454120007
 30
0.0
 10
221.2109591460862
 20
123.1911023997578
 30
0.0
  0
LINE
  5
296
330
1F
100
AcDbEntity
  8
0
  6
K5LT32768
 62
     7
370
    15
100
AcDbLine
 10
221.2109591461
 20
123.1911023998
 30
0.0
 11
238.2617702312
 21
143.5102755718
 31
0.0
  0
SPLINE
  5
297
330
1F
100
AcDbEntity
  8
0
  6
K5LT32768
 62
     7
370
    15
100
AcDbSpline
210
0.0
220
0.0
230
1.0
 70
     8
 71
     3
 72
     8
 73
     4
 74
     0
 42
0.0
 43
0.0
 12
1.0
 22
0.0
 32
0.0
 13
1.0
 23
0.0
 33
0.0
 40
0.0
 40
0.0
 40
0.0
 40
0.0
 40
1.0
 40
1.0
 40
1.0
 40
1.0
 10
238.2617702312332
 20
143.5102755717613
 30
0.0
 10
239.9722601396597
 20
145.5490830799322
 30
0.0
 10
240.2675048227456
 20
148.424532026696
 30
0.0
 10
239.0069443846927
 20
150.7678859757629
 30
0.0
  0
SPLINE
  5
298
330
1F
100
AcDbEntity
  8
0
  6
K5LT32768
 62
     7
370
    15
100
AcDbSpline
210
0.0
220
0.0
230
1.0
 70
     8
 71
     3
 72
     8
 73
     4
 74
     0
 42
0.0
 43
0.0
 12
1.0
 22
0.0
 32
0.0
 13
1.0
 23
0.0
 33
0.0
 40
0.0
 40
0.0
 40
0.0
 40
0.0
 40
1.0
 40
1.0
 40
1.0
 40
1.0
 10
239.0069443846927
 20
150.7678859757629
 30
0.0
 10
226.2280517012555
 20
174.5250921872715
 30
0.0
 10
228.2375758978017
 20
203.5107475619695
 30
0.0
 10
244.1725205552763
 20
225.2773776021008
 30
0.0
  0
SPLINE
  5
299
330
1F
100
AcDbEntity
  8
0
  6
K5LT32768
 62
     7
370
    15
100
AcDbSpline
210
0.0
220
0.0
230
1.0
 70
     8
 71
     3
 72
     8
 73
     4
 74
     0
 42
0.0
 43
0.0
 12
1.0
 22
0.0
 32
0.0
 13
1.0
 23
0.0
 33
0.0
 40
0.0
 40
0.0
 40
0.0
 40
0.0
 40
1.0
 40
1.0
 40
1.0
 40
1.0
 10
244.1725205552763
 20
225.2773776021008
 30
0.0
 10
245.4537515662407
 20
227.027658363382
 30
0.0
 10
245.7775905418542
 20
229.3019381479697
 30
0.0
 10
245.0358614838799
 20
231.3402288918177
 30
0.0
  0
LINE
  5
29A
330
1F
100
AcDbEntity
  8
0
  6
K5LT32768
 62
     7
370
    15
100
AcDbLine
 10
245.0358614839
 20
231.3402288918
 30
0.0
 11
236.3459526319
 21
255.2147406046
 31
0.0
  0
SPLINE
  5
29B
330
1F
100
AcDbEntity
  8
0
  6
K5LT32768
 62
     7
370
    15
100
AcDbSpline
210
0.0
220
0.0
230
1.0
 70
     8
 71
     3
 72
     8
 73
     4
 74
     0
 42
0.0
 43
0.0
 12
1.0
 22
0.0
 32
0.0
 13
1.0
 23
0.0
 33
0.0
 40
0.0
 40
0.0
 40
0.0
 40
0.0
 40
1.0
 40
1.0
 40
1.0
 40
1.0
 10
180.7428005190504
 20
288.6998629378077
 30
0.0
 10
181.571345983253
 20
288.6998629378077
 30
0.0
 10
182.2427950933282
 20
289.3714843026572
 30
0.0
 10
182.2427950933282
 20
290.1998575120855
 30
0.0
  0
SPLINE
  5
29C
330
1F
100
AcDbEntity
  8
0
  6
K5LT32768
 62
     7
370
    15
100
AcDbSpline
210
0.0
220
0.0
230
1.0
 70
     8
 71
     3
 72
     8
 73
     4
 74
     0
 42
0.0
 43
0.0
 12
1.0
 22
0.0
 32
0.0
 13
1.0
 23
0.0
 33
0.0
 40
0.0
 40
0.0
 40
0.0
 40
0.0
 40
1.0
 40
1.0
 40
1.0
 40
1.0
 10
179.2428059447726
 20
290.1998575120855
 30
0.0
 10
179.2428059447726
 20
289.3714843026572
 30
0.0
 10
179.9145995643964
 20
288.6998629378077
 30
0.0
 10
180.7428005190504
 20
288.6998629378077
 30
0.0
  0
SPLINE
  5
29D
330
1F
100
AcDbEntity
  8
0
  6
K5LT32768
 62
     7
370
    15
100
AcDbSpline
210
0.0
220
0.0
230
1.0
 70
     8
 71
     3
 72
     8
 73
     4
 74
     0
 42
0.0
 43
0.0
 12
1.0
 22
0.0
 32
0.0
 13
1.0
 23
0.0
 33
0.0
 40
0.0
 40
0.0
 40
0.0
 40
0.0
 40
1.0
 40
1.0
 40
1.0
 40
1.0
 10
180.7428005190504
 20
291.6998520863633
 30
0.0
 10
179.9145995643964
 20
291.6998520863633
 30
0.0
 10
179.2428059447726
 20
291.0282307215138
 30
0.0
 10
179.2428059447726
 20
290.1998575120855
 30
0.0
  0
SPLINE
  5
29E
330
1F
100
AcDbEntity
  8
0
  6
K5LT32768
 62
     7
370
    15
100
AcDbSpline
210
0.0
220
0.0
230
1.0
 70
     8
 71
     3
 72
     8
 73
     4
 74
     0
 42
0.0
 43
0.0
 12
1.0
 22
0.0
 32
0.0
 13
1.0
 23
0.0
 33
0.0
 40
0.0
 40
0.0
 40
0.0
 40
0.0
 40
1.0
 40
1.0
 40
1.0
 40
1.0
 10
182.2427950933282
 20
290.1998575120855
 30
0.0
 10
182.2427950933282
 20
291.0282307215138
 30
0.0
 10
181.571345983253
 20
291.6998520863633
 30
0.0
 10
180.7428005190504
 20
291.6998520863633
 30
0.0
  0
SPLINE
  5
29F
330
1F
100
AcDbEntity
  8
0
  6
K5LT32768
 62
     7
370
    15
100
AcDbSpline
210
0.0
220
0.0
230
1.0
 70
     8
 71
     3
 72
     8
 73
     4
 74
     0
 42
0.0
 43
0.0
 12
1.0
 22
0.0
 32
0.0
 13
1.0
 23
0.0
 33
0.0
 40
0.0
 40
0.0
 40
0.0
 40
0.0
 40
1.0
 40
1.0
 40
1.0
 40
1.0
 10
154.7430094014184
 20
12.18736978861982
 30
0.0
 10
155.5712103560725
 20
12.18736978861982
 30
0.0
 10
156.2430039756962
 20
12.85847438914649
 30
0.0
 10
156.2430039756962
 20
13.6873643628976
 30
0.0
  0
SPLINE
  5
2A0
330
1F
100
AcDbEntity
  8
0
  6
K5LT32768
 62
     7
370
    15
100
AcDbSpline
210
0.0
220
0.0
230
1.0
 70
     8
 71
     3
 72
     8
 73
     4
 74
     0
 42
0.0
 43
0.0
 12
1.0
 22
0.0
 32
0.0
 13
1.0
 23
0.0
 33
0.0
 40
0.0
 40
0.0
 40
0.0
 40
0.0
 40
1.0
 40
1.0
 40
1.0
 40
1.0
 10
153.2430148271407
 20
13.6873643628976
 30
0.0
 10
153.2430148271407
 20
12.85847438914649
 30
0.0
 10
153.9144639372158
 20
12.18736978861982
 30
0.0
 10
154.7430094014184
 20
12.18736978861982
 30
0.0
  0
SPLINE
  5
2A1
330
1F
100
AcDbEntity
  8
0
  6
K5LT32768
 62
     7
370
    15
100
AcDbSpline
210
0.0
220
0.0
230
1.0
 70
     8
 71
     3
 72
     8
 73
     4
 74
     0
 42
0.0
 43
0.0
 12
1.0
 22
0.0
 32
0.0
 13
1.0
 23
0.0
 33
0.0
 40
0.0
 40
0.0
 40
0.0
 40
0.0
 40
1.0
 40
1.0
 40
1.0
 40
1.0
 10
154.7430094014184
 20
15.18735893717538
 30
0.0
 10
153.9144639372158
 20
15.18735893717538
 30
0.0
 10
153.2430148271407
 20
14.51556531755167
 30
0.0
 10
153.2430148271407
 20
13.6873643628976
 30
0.0
  0
SPLINE
  5
2A2
330
1F
100
AcDbEntity
  8
0
  6
K5LT32768
 62
     7
370
    15
100
AcDbSpline
210
0.0
220
0.0
230
1.0
 70
     8
 71
     3
 72
     8
 73
     4
 74
     0
 42
0.0
 43
0.0
 12
1.0
 22
0.0
 32
0.0
 13
1.0
 23
0.0
 33
0.0
 40
0.0
 40
0.0
 40
0.0
 40
0.0
 40
1.0
 40
1.0
 40
1.0
 40
1.0
 10
156.2430039756962
 20
13.6873643628976
 30
0.0
 10
156.2430039756962
 20
14.51556531755167
 30
0.0
 10
155.5712103560725
 20
15.18735893717538
 30
0.0
 10
154.7430094014184
 20
15.18735893717538
 30
0.0
  0
SPLINE
  5
2A3
330
1F
100
AcDbEntity
  8
0
  6
K5LT32768
 62
     7
370
    15
100
AcDbSpline
210
0.0
220
0.0
230
1.0
 70
     8
 71
     3
 72
     8
 73
     4
 74
     0
 42
0.0
 43
0.0
 12
1.0
 22
0.0
 32
0.0
 13
1.0
 23
0.0
 33
0.0
 40
0.0
 40
0.0
 40
0.0
 40
0.0
 40
1.0
 40
1.0
 40
1.0
 40
1.0
 10
140.1440727731237
 20
248.5136853762396
 30
0.0
 10
140.9726182373263
 20
248.5136853762396
 30
0.0
 10
141.6440673474015
 20
249.1853067410892
 30
0.0
 10
141.6440673474015
 20
250.0136799505175
 30
0.0
  0
SPLINE
  5
2A4
330
1F
100
AcDbEntity
  8
0
  6
K5LT32768
 62
     7
370
    15
100
AcDbSpline
210
0.0
220
0.0
230
1.0
 70
     8
 71
     3
 72
     8
 73
     4
 74
     0
 42
0.0
 43
0.0
 12
1.0
 22
0.0
 32
0.0
 13
1.0
 23
0.0
 33
0.0
 40
0.0
 40
0.0
 40
0.0
 40
0.0
 40
1.0
 40
1.0
 40
1.0
 40
1.0
 10
138.6440781988459
 20
250.0136799505174
 30
0.0
 10
138.6440781988459
 20
249.1853067410891
 30
0.0
 10
139.3158718184696
 20
248.5136853762396
 30
0.0
 10
140.1440727731237
 20
248.5136853762396
 30
0.0
  0
SPLINE
  5
2A5
330
1F
100
AcDbEntity
  8
0
  6
K5LT32768
 62
     7
370
    15
100
AcDbSpline
210
0.0
220
0.0
230
1.0
 70
     8
 71
     3
 72
     8
 73
     4
 74
     0
 42
0.0
 43
0.0
 12
1.0
 22
0.0
 32
0.0
 13
1.0
 23
0.0
 33
0.0
 40
0.0
 40
0.0
 40
0.0
 40
0.0
 40
1.0
 40
1.0
 40
1.0
 40
1.0
 10
140.1440727731237
 20
251.5136745247952
 30
0.0
 10
139.3158718184696
 20
251.5136745247952
 30
0.0
 10
138.6440781988459
 20
250.8420531599457
 30
0.0
 10
138.6440781988459
 20
250.0136799505174
 30
0.0
  0
SPLINE
  5
2A6
330
1F
100
AcDbEntity
  8
0
  6
K5LT32768
 62
     7
370
    15
100
AcDbSpline
210
0.0
220
0.0
230
1.0
 70
     8
 71
     3
 72
     8
 73
     4
 74
     0
 42
0.0
 43
0.0
 12
1.0
 22
0.0
 32
0.0
 13
1.0
 23
0.0
 33
0.0
 40
0.0
 40
0.0
 40
0.0
 40
0.0
 40
1.0
 40
1.0
 40
1.0
 40
1.0
 10
141.6440673474015
 20
250.0136799505174
 30
0.0
 10
141.6440673474015
 20
250.8420531599457
 30
0.0
 10
140.9726182373263
 20
251.5136745247952
 30
0.0
 10
140.1440727731237
 20
251.5136745247952
 30
0.0
  0
SPLINE
  5
2A7
330
1F
100
AcDbEntity
  8
0
  6
K5LT32768
 62
     7
370
    15
100
AcDbSpline
210
0.0
220
0.0
230
1.0
 70
     8
 71
     3
 72
     8
 73
     4
 74
     0
 42
0.0
 43
0.0
 12
1.0
 22
0.0
 32
0.0
 13
1.0
 23
0.0
 33
0.0
 40
0.0
 40
0.0
 40
0.0
 40
0.0
 40
1.0
 40
1.0
 40
1.0
 40
1.0
 10
138.9913438237591
 20
145.2211099897364
 30
0.0
 10
139.8198892879617
 20
145.2211099897364
 30
0.0
 10
140.4913383980369
 20
145.8922145902631
 30
0.0
 10
140.4913383980369
 20
146.7211045640142
 30
0.0
  0
SPLINE
  5
2A8
330
1F
100
AcDbEntity
  8
0
  6
K5LT32768
 62
     7
370
    15
100
AcDbSpline
210
0.0
220
0.0
230
1.0
 70
     8
 71
     3
 72
     8
 73
     4
 74
     0
 42
0.0
 43
0.0
 12
1.0
 22
0.0
 32
0.0
 13
1.0
 23
0.0
 33
0.0
 40
0.0
 40
0.0
 40
0.0
 40
0.0
 40
1.0
 40
1.0
 40
1.0
 40
1.0
 10
137.4913492494813
 20
146.7211045640142
 30
0.0
 10
137.4913492494813
 20
145.8922145902631
 30
0.0
 10
138.1627983595565
 20
145.2211099897364
 30
0.0
 10
138.9913438237591
 20
145.2211099897364
 30
0.0
  0
SPLINE
  5
2A9
330
1F
100
AcDbEntity
  8
0
  6
K5LT32768
 62
     7
370
    15
100
AcDbSpline
210
0.0
220
0.0
230
1.0
 70
     8
 71
     3
 72
     8
 73
     4
 74
     0
 42
0.0
 43
0.0
 12
1.0
 22
0.0
 32
0.0
 13
1.0
 23
0.0
 33
0.0
 40
0.0
 40
0.0
 40
0.0
 40
0.0
 40
1.0
 40
1.0
 40
1.0
 40
1.0
 10
138.9913438237591
 20
148.2212713930662
 30
0.0
 10
138.1627983595565
 20
148.2212713930662
 30
0.0
 10
137.4913492494813
 20
147.5493055186682
 30
0.0
 10
137.4913492494813
 20
146.7211045640142
 30
0.0
  0
SPLINE
  5
2AA
330
1F
100
AcDbEntity
  8
0
  6
K5LT32768
 62
     7
370
    15
100
AcDbSpline
210
0.0
220
0.0
230
1.0
 70
     8
 71
     3
 72
     8
 73
     4
 74
     0
 42
0.0
 43
0.0
 12
1.0
 22
0.0
 32
0.0
 13
1.0
 23
0.0
 33
0.0
 40
0.0
 40
0.0
 40
0.0
 40
0.0
 40
1.0
 40
1.0
 40
1.0
 40
1.0
 10
140.4913383980369
 20
146.7211045640142
 30
0.0
 10
140.4913383980369
 20
147.5493055186682
 30
0.0
 10
139.8198892879617
 20
148.2212713930662
 30
0.0
 10
138.9913438237591
 20
148.2212713930662
 30
0.0
  0
SPLINE
  5
2AB
330
1F
100
AcDbEntity
  8
0
  6
K5LT32768
 62
     7
370
    15
100
AcDbSpline
210
0.0
220
0.0
230
1.0
 70
     8
 71
     3
 72
     8
 73
     4
 74
     0
 42
0.0
 43
0.0
 12
1.0
 22
0.0
 32
0.0
 13
1.0
 23
0.0
 33
0.0
 40
0.0
 40
0.0
 40
0.0
 40
0.0
 40
1.0
 40
1.0
 40
1.0
 40
1.0
 10
152.489916954065
 20
129.1345811309108
 30
0.0
 10
153.3184624182676
 20
129.1345811309108
 30
0.0
 10
153.9899115283428
 20
129.8063747505345
 30
0.0
 10
153.9899115283428
 20
130.6345757051886
 30
0.0
  0
SPLINE
  5
2AC
330
1F
100
AcDbEntity
  8
0
  6
K5LT32768
 62
     7
370
    15
100
AcDbSpline
210
0.0
220
0.0
230
1.0
 70
     8
 71
     3
 72
     8
 73
     4
 74
     0
 42
0.0
 43
0.0
 12
1.0
 22
0.0
 32
0.0
 13
1.0
 23
0.0
 33
0.0
 40
0.0
 40
0.0
 40
0.0
 40
0.0
 40
1.0
 40
1.0
 40
1.0
 40
1.0
 10
150.9899223797873
 20
130.6345757051886
 30
0.0
 10
150.9899223797873
 20
129.8063747505345
 30
0.0
 10
151.6613714898624
 20
129.1345811309108
 30
0.0
 10
152.489916954065
 20
129.1345811309108
 30
0.0
  0
SPLINE
  5
2AD
330
1F
100
AcDbEntity
  8
0
  6
K5LT32768
 62
     7
370
    15
100
AcDbSpline
210
0.0
220
0.0
230
1.0
 70
     8
 71
     3
 72
     8
 73
     4
 74
     0
 42
0.0
 43
0.0
 12
1.0
 22
0.0
 32
0.0
 13
1.0
 23
0.0
 33
0.0
 40
0.0
 40
0.0
 40
0.0
 40
0.0
 40
1.0
 40
1.0
 40
1.0
 40
1.0
 10
152.489916954065
 20
132.1345702794664
 30
0.0
 10
151.6613714898624
 20
132.1345702794664
 30
0.0
 10
150.9899223797873
 20
131.4627766598426
 30
0.0
 10
150.9899223797873
 20
130.6345757051886
 30
0.0
  0
SPLINE
  5
2AE
330
1F
100
AcDbEntity
  8
0
  6
K5LT32768
 62
     7
370
    15
100
AcDbSpline
210
0.0
220
0.0
230
1.0
 70
     8
 71
     3
 72
     8
 73
     4
 74
     0
 42
0.0
 43
0.0
 12
1.0
 22
0.0
 32
0.0
 13
1.0
 23
0.0
 33
0.0
 40
0.0
 40
0.0
 40
0.0
 40
0.0
 40
1.0
 40
1.0
 40
1.0
 40
1.0
 10
153.9899115283428
 20
130.6345757051886
 30
0.0
 10
153.9899115283428
 20
131.4627766598426
 30
0.0
 10
153.3184624182676
 20
132.1345702794664
 30
0.0
 10
152.489916954065
 20
132.1345702794664
 30
0.0
  0
SPLINE
  5
2AF
330
1F
100
AcDbEntity
  8
0
  6
K5LT32768
 62
     7
370
    15
100
AcDbSpline
210
0.0
220
0.0
230
1.0
 70
     8
 71
     3
 72
     8
 73
     4
 74
     0
 42
0.0
 43
0.0
 12
1.0
 22
0.0
 32
0.0
 13
1.0
 23
0.0
 33
0.0
 40
0.0
 40
0.0
 40
0.0
 40
0.0
 40
1.0
 40
1.0
 40
1.0
 40
1.0
 10
218.996107258619
 20
129.1345811309108
 30
0.0
 10
219.8246527228216
 20
129.1345811309108
 30
0.0
 10
220.4961018328968
 20
129.8063747505345
 30
0.0
 10
220.4961018328968
 20
130.6345757051886
 30
0.0
  0
SPLINE
  5
2B0
330
1F
100
AcDbEntity
  8
0
  6
K5LT32768
 62
     7
370
    15
100
AcDbSpline
210
0.0
220
0.0
230
1.0
 70
     8
 71
     3
 72
     8
 73
     4
 74
     0
 42
0.0
 43
0.0
 12
1.0
 22
0.0
 32
0.0
 13
1.0
 23
0.0
 33
0.0
 40
0.0
 40
0.0
 40
0.0
 40
0.0
 40
1.0
 40
1.0
 40
1.0
 40
1.0
 10
217.4961126843413
 20
130.6345757051886
 30
0.0
 10
217.4961126843413
 20
129.8063747505345
 30
0.0
 10
218.1675617944165
 20
129.1345811309108
 30
0.0
 10
218.996107258619
 20
129.1345811309108
 30
0.0
  0
SPLINE
  5
2B1
330
1F
100
AcDbEntity
  8
0
  6
K5LT32768
 62
     7
370
    15
100
AcDbSpline
210
0.0
220
0.0
230
1.0
 70
     8
 71
     3
 72
     8
 73
     4
 74
     0
 42
0.0
 43
0.0
 12
1.0
 22
0.0
 32
0.0
 13
1.0
 23
0.0
 33
0.0
 40
0.0
 40
0.0
 40
0.0
 40
0.0
 40
1.0
 40
1.0
 40
1.0
 40
1.0
 10
218.996107258619
 20
132.1345702794664
 30
0.0
 10
218.1675617944165
 20
132.1345702794664
 30
0.0
 10
217.4961126843413
 20
131.4627766598426
 30
0.0
 10
217.4961126843413
 20
130.6345757051886
 30
0.0
  0
SPLINE
  5
2B2
330
1F
100
AcDbEntity
  8
0
  6
K5LT32768
 62
     7
370
    15
100
AcDbSpline
210
0.0
220
0.0
230
1.0
 70
     8
 71
     3
 72
     8
 73
     4
 74
     0
 42
0.0
 43
0.0
 12
1.0
 22
0.0
 32
0.0
 13
1.0
 23
0.0
 33
0.0
 40
0.0
 40
0.0
 40
0.0
 40
0.0
 40
1.0
 40
1.0
 40
1.0
 40
1.0
 10
220.4961018328968
 20
130.6345757051886
 30
0.0
 10
220.4961018328968
 20
131.4627766598426
 30
0.0
 10
219.8246527228216
 20
132.1345702794664
 30
0.0
 10
218.996107258619
 20
132.1345702794664
 30
0.0
  0
SPLINE
  5
2B3
330
1F
100
AcDbEntity
  8
0
  6
K5LT32768
 62
     7
370
    15
100
AcDbSpline
210
0.0
220
0.0
230
1.0
 70
     8
 71
     3
 72
     8
 73
     4
 74
     0
 42
0.0
 43
0.0
 12
1.0
 22
0.0
 32
0.0
 13
1.0
 23
0.0
 33
0.0
 40
0.0
 40
0.0
 40
0.0
 40
0.0
 40
1.0
 40
1.0
 40
1.0
 40
1.0
 10
216.7430148112657
 20
12.18736978861982
 30
0.0
 10
217.5715602754682
 20
12.18736978861982
 30
0.0
 10
218.2430093855434
 20
12.85847438914649
 30
0.0
 10
218.2430093855434
 20
13.6873643628976
 30
0.0
  0
SPLINE
  5
2B4
330
1F
100
AcDbEntity
  8
0
  6
K5LT32768
 62
     7
370
    15
100
AcDbSpline
210
0.0
220
0.0
230
1.0
 70
     8
 71
     3
 72
     8
 73
     4
 74
     0
 42
0.0
 43
0.0
 12
1.0
 22
0.0
 32
0.0
 13
1.0
 23
0.0
 33
0.0
 40
0.0
 40
0.0
 40
0.0
 40
0.0
 40
1.0
 40
1.0
 40
1.0
 40
1.0
 10
215.2430202369879
 20
13.6873643628976
 30
0.0
 10
215.2430202369879
 20
12.85847438914649
 30
0.0
 10
215.9144693470631
 20
12.18736978861982
 30
0.0
 10
216.7430148112657
 20
12.18736978861982
 30
0.0
  0
SPLINE
  5
2B5
330
1F
100
AcDbEntity
  8
0
  6
K5LT32768
 62
     7
370
    15
100
AcDbSpline
210
0.0
220
0.0
230
1.0
 70
     8
 71
     3
 72
     8
 73
     4
 74
     0
 42
0.0
 43
0.0
 12
1.0
 22
0.0
 32
0.0
 13
1.0
 23
0.0
 33
0.0
 40
0.0
 40
0.0
 40
0.0
 40
0.0
 40
1.0
 40
1.0
 40
1.0
 40
1.0
 10
216.7430148112657
 20
15.18735893717538
 30
0.0
 10
215.9144693470631
 20
15.18735893717538
 30
0.0
 10
215.2430202369879
 20
14.51556531755167
 30
0.0
 10
215.2430202369879
 20
13.6873643628976
 30
0.0
  0
SPLINE
  5
2B6
330
1F
100
AcDbEntity
  8
0
  6
K5LT32768
 62
     7
370
    15
100
AcDbSpline
210
0.0
220
0.0
230
1.0
 70
     8
 71
     3
 72
     8
 73
     4
 74
     0
 42
0.0
 43
0.0
 12
1.0
 22
0.0
 32
0.0
 13
1.0
 23
0.0
 33
0.0
 40
0.0
 40
0.0
 40
0.0
 40
0.0
 40
1.0
 40
1.0
 40
1.0
 40
1.0
 10
218.2430093855434
 20
13.6873643628976
 30
0.0
 10
218.2430093855434
 20
14.51556531755167
 30
0.0
 10
217.5715602754682
 20
15.18735893717538
 30
0.0
 10
216.7430148112657
 20
15.18735893717538
 30
0.0
  0
SPLINE
  5
2B7
330
1F
100
AcDbEntity
  8
0
  6
K5LT32768
 62
     7
370
    15
100
AcDbSpline
210
0.0
220
0.0
230
1.0
 70
     8
 71
     3
 72
     8
 73
     4
 74
     0
 42
0.0
 43
0.0
 12
1.0
 22
0.0
 32
0.0
 13
1.0
 23
0.0
 33
0.0
 40
0.0
 40
0.0
 40
0.0
 40
0.0
 40
1.0
 40
1.0
 40
1.0
 40
1.0
 10
184.328800409647
 20
109.4300129934758
 30
0.0
 10
185.1098035561531
 20
108.6486653374212
 30
0.0
 10
186.376220656531
 20
108.6486653374212
 30
0.0
 10
187.1572238030371
 20
109.4300129934758
 30
0.0
  0
LINE
  5
2B8
330
1F
100
AcDbEntity
  8
0
  6
K5LT32768
 62
     7
370
    15
100
AcDbLine
 10
170.9856010857
 20
122.7728678078
 30
0.0
 11
184.3288004096
 21
109.4300129935
 31
0.0
  0
SPLINE
  5
2B9
330
1F
100
AcDbEntity
  8
0
  6
K5LT32768
 62
     7
370
    15
100
AcDbSpline
210
0.0
220
0.0
230
1.0
 70
     8
 71
     3
 72
    11
 73
     7
 74
     0
 42
0.0
 43
0.0
 12
1.0
 22
0.0
 32
0.0
 13
1.0
 23
0.0
 33
0.0
 40
0.0
 40
0.0
 40
0.0
 40
0.0
 40
0.5
 40
0.5
 40
0.5
 40
1.0
 40
1.0
 40
1.0
 40
1.0
 10
172.3998127824209
 20
126.186957433731
 30
0.0
 10
171.2953151698498
 20
126.186957433731
 30
0.0
 10
170.3999348532334
 20
125.2919216266631
 30
0.0
 10
170.3999348532334
 20
124.187424014092
 30
0.0
 10
170.3999348532334
 20
123.6568793093636
 30
0.0
 10
170.6104301873821
 20
123.1483832157407
 30
0.0
 10
170.9856010857258
 20
122.7728678078485
 30
0.0
  0
LINE
  5
2BA
330
1F
100
AcDbEntity
  8
0
  6
K5LT32768
 62
     7
370
    15
100
AcDbLine
 10
199.0862114303
 20
126.1869574337
 30
0.0
 11
172.3998127824
 21
126.1869574337
 31
0.0
  0
SPLINE
  5
2BB
330
1F
100
AcDbEntity
  8
0
  6
K5LT32768
 62
     7
370
    15
100
AcDbSpline
210
0.0
220
0.0
230
1.0
 70
     8
 71
     3
 72
     8
 73
     4
 74
     0
 42
0.0
 43
0.0
 12
1.0
 22
0.0
 32
0.0
 13
1.0
 23
0.0
 33
0.0
 40
0.0
 40
0.0
 40
0.0
 40
0.0
 40
1.0
 40
1.0
 40
1.0
 40
1.0
 10
200.5004231269582
 20
125.6012912012386
 30
0.0
 10
200.1252522286145
 20
125.9768066091308
 30
0.0
 10
199.6167561349916
 20
126.186957433731
 30
0.0
 10
199.0862114302632
 20
126.186957433731
 30
0.0
  0
SPLINE
  5
2BC
330
1F
100
AcDbEntity
  8
0
  6
K5LT32768
 62
     7
370
    15
100
AcDbSpline
210
0.0
220
0.0
230
1.0
 70
     8
 71
     3
 72
     8
 73
     4
 74
     0
 42
0.0
 43
0.0
 12
1.0
 22
0.0
 32
0.0
 13
1.0
 23
0.0
 33
0.0
 40
0.0
 40
0.0
 40
0.0
 40
0.0
 40
1.0
 40
1.0
 40
1.0
 40
1.0
 10
200.5004231269582
 20
122.7728678078485
 30
0.0
 10
201.2814262734644
 20
123.5542154639031
 30
0.0
 10
201.2814262734644
 20
124.820632564281
 30
0.0
 10
200.5004231269582
 20
125.6012912012386
 30
0.0
  0
LINE
  5
2BD
330
1F
100
AcDbEntity
  8
0
  6
K5LT32768
 62
     7
370
    15
100
AcDbLine
 10
187.157223803
 20
109.4300129935
 30
0.0
 11
200.500423127
 21
122.7728678078
 31
0.0
  0
SPLINE
  5
2BE
330
1F
100
AcDbEntity
  8
0
  6
K5LT32768
 62
     7
370
    15
100
AcDbSpline
210
0.0
220
0.0
230
1.0
 70
     8
 71
     3
 72
    11
 73
     7
 74
     0
 42
0.0
 43
0.0
 12
1.0
 22
0.0
 32
0.0
 13
1.0
 23
0.0
 33
0.0
 40
0.0
 40
0.0
 40
0.0
 40
0.0
 40
0.5
 40
0.5
 40
0.5
 40
1.0
 40
1.0
 40
1.0
 40
1.0
 10
172.3998127824209
 20
65.18740775280037
 30
0.0
 10
171.2953151698498
 20
65.18740775280037
 30
0.0
 10
170.3999348532334
 20
64.29168292663542
 30
0.0
 10
170.3999348532334
 20
63.18718531406432
 30
0.0
 10
170.3999348532334
 20
62.65664060933586
 30
0.0
 10
170.6104301873821
 20
62.14814451571296
 30
0.0
 10
170.9856010857258
 20
61.77331812691779
 30
0.0
  0
LINE
  5
2BF
330
1F
100
AcDbEntity
  8
0
  6
K5LT32768
 62
     7
370
    15
100
AcDbLine
 10
199.0862114303
 20
65.1874077528
 30
0.0
 11
172.3998127824
 21
65.1874077528
 31
0.0
  0
SPLINE
  5
2C0
330
1F
100
AcDbEntity
  8
0
  6
K5LT32768
 62
     7
370
    15
100
AcDbSpline
210
0.0
220
0.0
230
1.0
 70
     8
 71
     3
 72
     8
 73
     4
 74
     0
 42
0.0
 43
0.0
 12
1.0
 22
0.0
 32
0.0
 13
1.0
 23
0.0
 33
0.0
 40
0.0
 40
0.0
 40
0.0
 40
0.0
 40
1.0
 40
1.0
 40
1.0
 40
1.0
 10
200.5004231269582
 20
64.6017415203079
 30
0.0
 10
200.1252522286145
 20
64.97656790910308
 30
0.0
 10
199.6167561349916
 20
65.18740775280037
 30
0.0
 10
199.0862114302632
 20
65.18740775280037
 30
0.0
  0
SPLINE
  5
2C1
330
1F
100
AcDbEntity
  8
0
  6
K5LT32768
 62
     7
370
    15
100
AcDbSpline
210
0.0
220
0.0
230
1.0
 70
     8
 71
     3
 72
     8
 73
     4
 74
     0
 42
0.0
 43
0.0
 12
1.0
 22
0.0
 32
0.0
 13
1.0
 23
0.0
 33
0.0
 40
0.0
 40
0.0
 40
0.0
 40
0.0
 40
1.0
 40
1.0
 40
1.0
 40
1.0
 10
200.5004231269582
 20
61.77331812691779
 30
0.0
 10
201.2814262734644
 20
62.5539767638754
 30
0.0
 10
201.2814262734644
 20
63.82039386425324
 30
0.0
 10
200.5004231269582
 20
64.6017415203079
 30
0.0
  0
LINE
  5
2C2
330
1F
100
AcDbEntity
  8
0
  6
K5LT32768
 62
     7
370
    15
100
AcDbLine
 10
187.157223803
 20
48.4297742934
 30
0.0
 11
200.500423127
 21
61.7733181269
 31
0.0
  0
SPLINE
  5
2C3
330
1F
100
AcDbEntity
  8
0
  6
K5LT32768
 62
     7
370
    15
100
AcDbSpline
210
0.0
220
0.0
230
1.0
 70
     8
 71
     3
 72
     8
 73
     4
 74
     0
 42
0.0
 43
0.0
 12
1.0
 22
0.0
 32
0.0
 13
1.0
 23
0.0
 33
0.0
 40
0.0
 40
0.0
 40
0.0
 40
0.0
 40
1.0
 40
1.0
 40
1.0
 40
1.0
 10
184.328800409647
 20
48.42977429344811
 30
0.0
 10
185.1098035561531
 20
47.6491156564905
 30
0.0
 10
186.376220656531
 20
47.6491156564905
 30
0.0
 10
187.1572238030371
 20
48.42977429344811
 30
0.0
  0
LINE
  5
2C4
330
1F
100
AcDbEntity
  8
0
  6
K5LT32768
 62
     7
370
    15
100
AcDbLine
 10
170.9856010857
 20
61.7733181269
 30
0.0
 11
184.3288004096
 21
48.4297742934
 31
0.0
  0
SPLINE
  5
2C5
330
1F
100
AcDbEntity
  8
0
  6
K5LT32768
 62
     7
370
    15
100
AcDbSpline
210
0.0
220
0.0
230
1.0
 70
     8
 71
     3
 72
    11
 73
     7
 74
     0
 42
0.0
 43
0.0
 12
1.0
 22
0.0
 32
0.0
 13
1.0
 23
0.0
 33
0.0
 40
0.0
 40
0.0
 40
0.0
 40
0.0
 40
0.5
 40
0.5
 40
0.5
 40
1.0
 40
1.0
 40
1.0
 40
1.0
 10
165.7428547762726
 20
312.3285670877165
 30
0.0
 10
166.1572997631482
 20
312.3285670877165
 30
0.0
 10
166.4928520634115
 20
312.6642916427541
 30
0.0
 10
166.4928520634115
 20
313.0785643748554
 30
0.0
 10
166.4928520634115
 20
313.4926648521824
 30
0.0
 10
166.1572997631482
 20
313.8285616619943
 30
0.0
 10
165.7428547762726
 20
313.8285616619943
 30
0.0
  0
LINE
  5
2C6
330
1F
100
AcDbEntity
  8
0
  6
K5LT32768
 62
     7
370
    15
100
AcDbLine
 10
155.7427761112
 20
312.3285670877
 30
0.0
 11
165.7428547763
 21
312.3285670877
 31
0.0
  0
SPLINE
  5
2C7
330
1F
100
AcDbEntity
  8
0
  6
K5LT32768
 62
     7
370
    15
100
AcDbSpline
210
0.0
220
0.0
230
1.0
 70
     8
 71
     3
 72
    11
 73
     7
 74
     0
 42
0.0
 43
0.0
 12
1.0
 22
0.0
 32
0.0
 13
1.0
 23
0.0
 33
0.0
 40
0.0
 40
0.0
 40
0.0
 40
0.0
 40
0.5
 40
0.5
 40
0.5
 40
1.0
 40
1.0
 40
1.0
 40
1.0
 10
155.7427761112379
 20
313.8285616619943
 30
0.0
 10
155.3286756339109
 20
313.8285616619943
 30
0.0
 10
154.992778824099
 20
313.4926648521824
 30
0.0
 10
154.992778824099
 20
313.0785643748554
 30
0.0
 10
154.992778824099
 20
312.6642916427541
 30
0.0
 10
155.3286756339109
 20
312.3285670877165
 30
0.0
 10
155.7427761112379
 20
312.3285670877165
 30
0.0
  0
LINE
  5
2C8
330
1F
100
AcDbEntity
  8
0
  6
K5LT32768
 62
     7
370
    15
100
AcDbLine
 10
165.7428547763
 20
313.828561662
 30
0.0
 11
155.7427761112
 21
313.828561662
 31
0.0
  0
SPLINE
  5
2C9
330
1F
100
AcDbEntity
  8
0
  6
K5LT32768
 62
     7
370
    15
100
AcDbSpline
210
0.0
220
0.0
230
1.0
 70
     8
 71
     3
 72
    10
 73
     6
 74
     0
 42
0.0
 43
0.0
 12
1.0
 22
0.0
 32
0.0
 13
1.0
 23
0.0
 33
0.0
 40
0.0
 40
0.0
 40
0.0
 40
0.0
 40
0.5
 40
0.5
 40
1.0
 40
1.0
 40
1.0
 40
1.0
 10
214.7431368820781
 20
89.43743487347399
 30
0.0
 10
214.7431368820781
 20
88.33293726090288
 30
0.0
 10
215.6385171986946
 20
87.43721243473793
 30
0.0
 10
217.8475124238367
 20
87.43721243473793
 30
0.0
 10
218.7428927404532
 20
88.33293726090288
 30
0.0
 10
218.7428927404532
 20
89.43743487347399
 30
0.0
  0
LINE
  5
2CA
330
1F
100
AcDbEntity
  8
0
  6
K5LT32768
 62
     7
370
    15
100
AcDbLine
 10
214.7431368821
 20
111.4371256232
 30
0.0
 11
214.7431368821
 21
89.4374348735
 31
0.0
  0
SPLINE
  5
2CB
330
1F
100
AcDbEntity
  8
0
  6
K5LT32768
 62
     7
370
    15
100
AcDbSpline
210
0.0
220
0.0
230
1.0
 70
     8
 71
     3
 72
    10
 73
     6
 74
     0
 42
0.0
 43
0.0
 12
1.0
 22
0.0
 32
0.0
 13
1.0
 23
0.0
 33
0.0
 40
0.0
 40
0.0
 40
0.0
 40
0.0
 40
0.5
 40
0.5
 40
1.0
 40
1.0
 40
1.0
 40
1.0
 10
218.7428927404532
 20
111.4371256231824
 30
0.0
 10
218.7428927404532
 20
112.5416232357535
 30
0.0
 10
217.8475124238367
 20
113.4373480619184
 30
0.0
 10
215.6385171986946
 20
113.4373480619184
 30
0.0
 10
214.7431368820781
 20
112.5416232357535
 30
0.0
 10
214.7431368820781
 20
111.4371256231824
 30
0.0
  0
LINE
  5
2CC
330
1F
100
AcDbEntity
  8
0
  6
K5LT32768
 62
     7
370
    15
100
AcDbLine
 10
218.7428927405
 20
89.4374348735
 30
0.0
 11
218.7428927405
 21
111.4371256232
 31
0.0
  0
SPLINE
  5
2CD
330
1F
100
AcDbEntity
  8
0
  6
K5LT32768
 62
     7
370
    15
100
AcDbSpline
210
0.0
220
0.0
230
1.0
 70
     8
 71
     3
 72
    11
 73
     7
 74
     0
 42
0.0
 43
0.0
 12
1.0
 22
0.0
 32
0.0
 13
1.0
 23
0.0
 33
0.0
 40
0.0
 40
0.0
 40
0.0
 40
0.0
 40
0.5
 40
0.5
 40
0.5
 40
1.0
 40
1.0
 40
1.0
 40
1.0
 10
150.7429090334948
 20
312.3285670877165
 30
0.0
 10
151.1570095108219
 20
312.3285670877165
 30
0.0
 10
151.4929063206337
 20
312.6642916427541
 30
0.0
 10
151.4929063206337
 20
313.0785643748554
 30
0.0
 10
151.4929063206337
 20
313.4926648521824
 30
0.0
 10
151.1570095108219
 20
313.8285616619943
 30
0.0
 10
150.7429090334948
 20
313.8285616619943
 30
0.0
  0
LINE
  5
2CE
330
1F
100
AcDbEntity
  8
0
  6
K5LT32768
 62
     7
370
    15
100
AcDbLine
 10
140.7428303685
 20
312.3285670877
 30
0.0
 11
150.7429090335
 21
312.3285670877
 31
0.0
  0
SPLINE
  5
2CF
330
1F
100
AcDbEntity
  8
0
  6
K5LT32768
 62
     7
370
    15
100
AcDbSpline
210
0.0
220
0.0
230
1.0
 70
     8
 71
     3
 72
    11
 73
     7
 74
     0
 42
0.0
 43
0.0
 12
1.0
 22
0.0
 32
0.0
 13
1.0
 23
0.0
 33
0.0
 40
0.0
 40
0.0
 40
0.0
 40
0.0
 40
0.5
 40
0.5
 40
0.5
 40
1.0
 40
1.0
 40
1.0
 40
1.0
 10
140.7428303684601
 20
313.8285616619943
 30
0.0
 10
140.3287298911331
 20
313.8285616619943
 30
0.0
 10
139.9928330813212
 20
313.4926648521824
 30
0.0
 10
139.9928330813212
 20
313.0785643748554
 30
0.0
 10
139.9928330813212
 20
312.6642916427541
 30
0.0
 10
140.3287298911331
 20
312.3285670877165
 30
0.0
 10
140.7428303684601
 20
312.3285670877165
 30
0.0
  0
LINE
  5
2D0
330
1F
100
AcDbEntity
  8
0
  6
K5LT32768
 62
     7
370
    15
100
AcDbLine
 10
150.7429090335
 20
313.828561662
 30
0.0
 11
140.7428303685
 21
313.828561662
 31
0.0
  0
SPLINE
  5
2D1
330
1F
100
AcDbEntity
  8
0
  6
K5LT32768
 62
     7
370
    15
100
AcDbSpline
210
0.0
220
0.0
230
1.0
 70
     8
 71
     3
 72
     8
 73
     4
 74
     0
 42
0.0
 43
0.0
 12
1.0
 22
0.0
 32
0.0
 13
1.0
 23
0.0
 33
0.0
 40
0.0
 40
0.0
 40
0.0
 40
0.0
 40
1.0
 40
1.0
 40
1.0
 40
1.0
 10
189.9856471964272
 20
45.60135090005799
 30
0.0
 10
189.2046440499211
 20
44.82069226310038
 30
0.0
 10
189.2046440499211
 20
43.55427516272255
 30
0.0
 10
189.9856471964272
 20
42.77292750666788
 30
0.0
  0
LINE
  5
2D2
330
1F
100
AcDbEntity
  8
0
  6
K5LT32768
 62
     7
370
    15
100
AcDbLine
 10
203.3288465203
 20
58.9448947335
 30
0.0
 11
189.9856471964
 21
45.6013509001
 31
0.0
  0
SPLINE
  5
2D3
330
1F
100
AcDbEntity
  8
0
  6
K5LT32768
 62
     7
370
    15
100
AcDbSpline
210
0.0
220
0.0
230
1.0
 70
     8
 71
     3
 72
    11
 73
     7
 74
     0
 42
0.0
 43
0.0
 12
1.0
 22
0.0
 32
0.0
 13
1.0
 23
0.0
 33
0.0
 40
0.0
 40
0.0
 40
0.0
 40
0.0
 40
0.5
 40
0.5
 40
0.5
 40
1.0
 40
1.0
 40
1.0
 40
1.0
 10
206.7429361462309
 20
57.53033852728409
 30
0.0
 10
206.7429361462309
 20
58.63483613985519
 30
0.0
 10
205.8475558296145
 20
59.53056096602014
 30
0.0
 10
204.7430582170434
 20
59.53056096602014
 30
0.0
 10
204.2125135123149
 20
59.53056096602014
 30
0.0
 10
203.704017418692
 20
59.31972112232285
 30
0.0
 10
203.3288465203483
 20
58.94489473352767
 30
0.0
  0
LINE
  5
2D4
330
1F
100
AcDbEntity
  8
0
  6
K5LT32768
 62
     7
370
    15
100
AcDbLine
 10
206.7429361462
 20
30.8439398794
 30
0.0
 11
206.7429361462
 21
57.5303385273
 31
0.0
  0
SPLINE
  5
2D5
330
1F
100
AcDbEntity
  8
0
  6
K5LT32768
 62
     7
370
    15
100
AcDbSpline
210
0.0
220
0.0
230
1.0
 70
     8
 71
     3
 72
     8
 73
     4
 74
     0
 42
0.0
 43
0.0
 12
1.0
 22
0.0
 32
0.0
 13
1.0
 23
0.0
 33
0.0
 40
0.0
 40
0.0
 40
0.0
 40
0.0
 40
1.0
 40
1.0
 40
1.0
 40
1.0
 10
206.1572699137385
 20
29.43007269229526
 30
0.0
 10
206.5324408120822
 20
29.80489908109044
 30
0.0
 10
206.7429361462309
 20
30.31339517471332
 30
0.0
 10
206.7429361462309
 20
30.84393987944179
 30
0.0
  0
SPLINE
  5
2D6
330
1F
100
AcDbEntity
  8
0
  6
K5LT32768
 62
     7
370
    15
100
AcDbSpline
210
0.0
220
0.0
230
1.0
 70
     8
 71
     3
 72
     8
 73
     4
 74
     0
 42
0.0
 43
0.0
 12
1.0
 22
0.0
 32
0.0
 13
1.0
 23
0.0
 33
0.0
 40
0.0
 40
0.0
 40
0.0
 40
0.0
 40
1.0
 40
1.0
 40
1.0
 40
1.0
 10
203.3288465203483
 20
29.43007269229526
 30
0.0
 10
204.1098496668545
 20
28.6487250362406
 30
0.0
 10
205.3762667672323
 20
28.6487250362406
 30
0.0
 10
206.1572699137385
 20
29.43007269229526
 30
0.0
  0
LINE
  5
2D7
330
1F
100
AcDbEntity
  8
0
  6
K5LT32768
 62
     7
370
    15
100
AcDbLine
 10
189.9856471964
 20
42.7729275067
 30
0.0
 11
203.3288465203
 21
29.4300726923
 31
0.0
  0
SPLINE
  5
2D8
330
1F
100
AcDbEntity
  8
0
  6
K5LT32768
 62
     7
370
    15
100
AcDbSpline
210
0.0
220
0.0
230
1.0
 70
     8
 71
     3
 72
     8
 73
     4
 74
     0
 42
0.0
 43
0.0
 12
1.0
 22
0.0
 32
0.0
 13
1.0
 23
0.0
 33
0.0
 40
0.0
 40
0.0
 40
0.0
 40
0.0
 40
1.0
 40
1.0
 40
1.0
 40
1.0
 10
168.1571776923357
 20
119.9444444144583
 30
0.0
 10
167.3761745458296
 20
120.725792070513
 30
0.0
 10
166.1097574454517
 20
120.725792070513
 30
0.0
 10
165.3287542989456
 20
119.9444444144583
 30
0.0
  0
LINE
  5
2D9
330
1F
100
AcDbEntity
  8
0
  6
K5LT32768
 62
     7
370
    15
100
AcDbLine
 10
181.5003770163
 20
106.6015896001
 30
0.0
 11
168.1571776923
 21
119.9444444145
 31
0.0
  0
SPLINE
  5
2DA
330
1F
100
AcDbEntity
  8
0
  6
K5LT32768
 62
     7
370
    15
100
AcDbSpline
210
0.0
220
0.0
230
1.0
 70
     8
 71
     3
 72
     8
 73
     4
 74
     0
 42
0.0
 43
0.0
 12
1.0
 22
0.0
 32
0.0
 13
1.0
 23
0.0
 33
0.0
 40
0.0
 40
0.0
 40
0.0
 40
0.0
 40
1.0
 40
1.0
 40
1.0
 40
1.0
 10
181.5003770162569
 20
103.7731662066956
 30
0.0
 10
182.281380162763
 20
104.5538248436532
 30
0.0
 10
182.281380162763
 20
105.8202419440311
 30
0.0
 10
181.5003770162569
 20
106.6015896000857
 30
0.0
  0
LINE
  5
2DB
330
1F
100
AcDbEntity
  8
0
  6
K5LT32768
 62
     7
370
    15
100
AcDbLine
 10
168.1571776923
 20
90.4296223732
 30
0.0
 11
181.5003770163
 21
103.7731662067
 31
0.0
  0
SPLINE
  5
2DC
330
1F
100
AcDbEntity
  8
0
  6
K5LT32768
 62
     7
370
    15
100
AcDbSpline
210
0.0
220
0.0
230
1.0
 70
     8
 71
     3
 72
    11
 73
     7
 74
     0
 42
0.0
 43
0.0
 12
1.0
 22
0.0
 32
0.0
 13
1.0
 23
0.0
 33
0.0
 40
0.0
 40
0.0
 40
0.0
 40
0.0
 40
0.5
 40
0.5
 40
0.5
 40
1.0
 40
1.0
 40
1.0
 40
1.0
 10
164.7430880664531
 20
91.84417857946951
 30
0.0
 10
164.7430880664531
 20
90.73968096689842
 30
0.0
 10
165.6384683830696
 20
89.84395614073345
 30
0.0
 10
166.7429659956406
 20
89.84395614073345
 30
0.0
 10
167.2735107003691
 20
89.84395614073345
 30
0.0
 10
167.782006793992
 20
90.05479598443075
 30
0.0
 10
168.1571776923357
 20
90.42962237322593
 30
0.0
  0
LINE
  5
2DD
330
1F
100
AcDbEntity
  8
0
  6
K5LT32768
 62
     7
370
    15
100
AcDbLine
 10
164.7430880665
 20
118.5305772273
 30
0.0
 11
164.7430880665
 21
91.8441785795
 31
0.0
  0
SPLINE
  5
2DE
330
1F
100
AcDbEntity
  8
0
  6
K5LT32768
 62
     7
370
    15
100
AcDbSpline
210
0.0
220
0.0
230
1.0
 70
     8
 71
     3
 72
     8
 73
     4
 74
     0
 42
0.0
 43
0.0
 12
1.0
 22
0.0
 32
0.0
 13
1.0
 23
0.0
 33
0.0
 40
0.0
 40
0.0
 40
0.0
 40
0.0
 40
1.0
 40
1.0
 40
1.0
 40
1.0
 10
165.3287542989456
 20
119.9444444144583
 30
0.0
 10
164.9535834006019
 20
119.5696180256632
 30
0.0
 10
164.7430880664531
 20
119.0611219320403
 30
0.0
 10
164.7430880664531
 20
118.5305772273118
 30
0.0
  0
SPLINE
  5
2DF
330
1F
100
AcDbEntity
  8
0
  6
K5LT32768
 62
     7
370
    15
100
AcDbSpline
210
0.0
220
0.0
230
1.0
 70
     8
 71
     3
 72
    11
 73
     7
 74
     0
 42
0.0
 43
0.0
 12
1.0
 22
0.0
 32
0.0
 13
1.0
 23
0.0
 33
0.0
 40
0.0
 40
0.0
 40
0.0
 40
0.0
 40
0.5
 40
0.5
 40
0.5
 40
1.0
 40
1.0
 40
1.0
 40
1.0
 10
169.2737331391052
 20
231.5135171947258
 30
0.0
 10
169.2737331391052
 20
230.6853162400717
 30
0.0
 10
169.9451822491804
 20
230.013522620448
 30
0.0
 10
170.773727713383
 20
230.013522620448
 30
0.0
 10
171.601928668037
 20
230.013522620448
 30
0.0
 10
172.2737222876607
 20
230.6853162400717
 30
0.0
 10
172.2737222876607
 20
231.5135171947258
 30
0.0
  0
LINE
  5
2E0
330
1F
100
AcDbEntity
  8
0
  6
K5LT32768
 62
     7
370
    15
100
AcDbLine
 10
169.2737331391
 20
271.5138318549
 30
0.0
 11
169.2737331391
 21
231.5135171947
 31
0.0
  0
SPLINE
  5
2E1
330
1F
100
AcDbEntity
  8
0
  6
K5LT32768
 62
     7
370
    15
100
AcDbSpline
210
0.0
220
0.0
230
1.0
 70
     8
 71
     3
 72
    11
 73
     7
 74
     0
 42
0.0
 43
0.0
 12
1.0
 22
0.0
 32
0.0
 13
1.0
 23
0.0
 33
0.0
 40
0.0
 40
0.0
 40
0.0
 40
0.0
 40
0.5
 40
0.5
 40
0.5
 40
1.0
 40
1.0
 40
1.0
 40
1.0
 10
172.2737222876607
 20
271.5138318548646
 30
0.0
 10
172.2737222876607
 20
272.3420328095187
 30
0.0
 10
171.601928668037
 20
273.0138264291424
 30
0.0
 10
170.773727713383
 20
273.0138264291424
 30
0.0
 10
169.9451822491804
 20
273.0138264291424
 30
0.0
 10
169.2737331391052
 20
272.3420328095187
 30
0.0
 10
169.2737331391052
 20
271.5138318548646
 30
0.0
  0
LINE
  5
2E2
330
1F
100
AcDbEntity
  8
0
  6
K5LT32768
 62
     7
370
    15
100
AcDbLine
 10
172.2737222877
 20
231.5135171947
 30
0.0
 11
172.2737222877
 21
271.5138318549
 31
0.0
  0
SPLINE
  5
2E3
330
1F
100
AcDbEntity
  8
0
  6
K5LT32768
 62
     7
370
    15
100
AcDbSpline
210
0.0
220
0.0
230
1.0
 70
     8
 71
     3
 72
    11
 73
     7
 74
     0
 42
0.0
 43
0.0
 12
1.0
 22
0.0
 32
0.0
 13
1.0
 23
0.0
 33
0.0
 40
0.0
 40
0.0
 40
0.0
 40
0.0
 40
0.5
 40
0.5
 40
0.5
 40
1.0
 40
1.0
 40
1.0
 40
1.0
 10
193.2733018180011
 20
250.0136799505174
 30
0.0
 10
194.1021917917522
 20
250.0136799505174
 30
0.0
 10
194.7732963922789
 20
250.6854735701411
 30
0.0
 10
194.7732963922789
 20
251.5136745247952
 30
0.0
 10
194.7732963922789
 20
252.3425644985463
 30
0.0
 10
194.1021917917522
 20
253.013669099073
 30
0.0
 10
193.2733018180011
 20
253.013669099073
 30
0.0
  0
LINE
  5
2E4
330
1F
100
AcDbEntity
  8
0
  6
K5LT32768
 62
     7
370
    15
100
AcDbLine
 10
178.2737005848
 20
250.0136799505
 30
0.0
 11
193.273301818
 21
250.0136799505
 31
0.0
  0
SPLINE
  5
2E5
330
1F
100
AcDbEntity
  8
0
  6
K5LT32768
 62
     7
370
    15
100
AcDbSpline
210
0.0
220
0.0
230
1.0
 70
     8
 71
     3
 72
    11
 73
     7
 74
     0
 42
0.0
 43
0.0
 12
1.0
 22
0.0
 32
0.0
 13
1.0
 23
0.0
 33
0.0
 40
0.0
 40
0.0
 40
0.0
 40
0.0
 40
0.5
 40
0.5
 40
0.5
 40
1.0
 40
1.0
 40
1.0
 40
1.0
 10
178.2737005847719
 20
253.013669099073
 30
0.0
 10
177.4451551205693
 20
253.013669099073
 30
0.0
 10
176.7737060104941
 20
252.3425644985463
 30
0.0
 10
176.7737060104941
 20
251.5136745247952
 30
0.0
 10
176.7737060104941
 20
250.6854735701411
 30
0.0
 10
177.4451551205693
 20
250.0136799505174
 30
0.0
 10
178.2737005847719
 20
250.0136799505174
 30
0.0
  0
LINE
  5
2E6
330
1F
100
AcDbEntity
  8
0
  6
K5LT32768
 62
     7
370
    15
100
AcDbLine
 10
193.273301818
 20
253.0136690991
 30
0.0
 11
178.2737005848
 21
253.0136690991
 31
0.0
  0
SPLINE
  5
2E7
330
1F
100
AcDbEntity
  8
0
  6
K5LT32768
 62
     7
370
    15
100
AcDbSpline
210
0.0
220
0.0
230
1.0
 70
     8
 71
     3
 72
    11
 73
     7
 74
     0
 42
0.0
 43
0.0
 12
1.0
 22
0.0
 32
0.0
 13
1.0
 23
0.0
 33
0.0
 40
0.0
 40
0.0
 40
0.0
 40
0.0
 40
0.5
 40
0.5
 40
0.5
 40
1.0
 40
1.0
 40
1.0
 40
1.0
 10
193.2733018180011
 20
262.0136365447397
 30
0.0
 10
194.1021917917522
 20
262.0136365447397
 30
0.0
 10
194.7732963922789
 20
262.6854301643634
 30
0.0
 10
194.7732963922789
 20
263.5136311190174
 30
0.0
 10
194.7732963922789
 20
264.3425210927685
 30
0.0
 10
194.1021917917522
 20
265.0136256932952
 30
0.0
 10
193.2733018180011
 20
265.0136256932952
 30
0.0
  0
LINE
  5
2E8
330
1F
100
AcDbEntity
  8
0
  6
K5LT32768
 62
     7
370
    15
100
AcDbLine
 10
178.2737005848
 20
262.0136365447
 30
0.0
 11
193.273301818
 21
262.0136365447
 31
0.0
  0
SPLINE
  5
2E9
330
1F
100
AcDbEntity
  8
0
  6
K5LT32768
 62
     7
370
    15
100
AcDbSpline
210
0.0
220
0.0
230
1.0
 70
     8
 71
     3
 72
    11
 73
     7
 74
     0
 42
0.0
 43
0.0
 12
1.0
 22
0.0
 32
0.0
 13
1.0
 23
0.0
 33
0.0
 40
0.0
 40
0.0
 40
0.0
 40
0.0
 40
0.5
 40
0.5
 40
0.5
 40
1.0
 40
1.0
 40
1.0
 40
1.0
 10
178.2737005847719
 20
265.0136256932952
 30
0.0
 10
177.4451551205693
 20
265.0136256932952
 30
0.0
 10
176.7737060104941
 20
264.3425210927685
 30
0.0
 10
176.7737060104941
 20
263.5136311190174
 30
0.0
 10
176.7737060104941
 20
262.6854301643634
 30
0.0
 10
177.4451551205693
 20
262.0136365447397
 30
0.0
 10
178.2737005847719
 20
262.0136365447397
 30
0.0
  0
LINE
  5
2EA
330
1F
100
AcDbEntity
  8
0
  6
K5LT32768
 62
     7
370
    15
100
AcDbLine
 10
193.273301818
 20
265.0136256933
 30
0.0
 11
178.2737005848
 21
265.0136256933
 31
0.0
  0
SPLINE
  5
2EB
330
1F
100
AcDbEntity
  8
0
  6
K5LT32768
 62
     7
370
    15
100
AcDbSpline
210
0.0
220
0.0
230
1.0
 70
     8
 71
     3
 72
    11
 73
     7
 74
     0
 42
0.0
 43
0.0
 12
1.0
 22
0.0
 32
0.0
 13
1.0
 23
0.0
 33
0.0
 40
0.0
 40
0.0
 40
0.0
 40
0.0
 40
0.5
 40
0.5
 40
0.5
 40
1.0
 40
1.0
 40
1.0
 40
1.0
 10
193.2733018180011
 20
244.0137016534063
 30
0.0
 10
194.1021917917522
 20
244.0137016534063
 30
0.0
 10
194.7732963922789
 20
244.68549527303
 30
0.0
 10
194.7732963922789
 20
245.5136962276841
 30
0.0
 10
194.7732963922789
 20
246.3425862014352
 30
0.0
 10
194.1021917917522
 20
247.0136908019619
 30
0.0
 10
193.2733018180011
 20
247.0136908019619
 30
0.0
  0
LINE
  5
2EC
330
1F
100
AcDbEntity
  8
0
  6
K5LT32768
 62
     7
370
    15
100
AcDbLine
 10
178.2737005848
 20
244.0137016534
 30
0.0
 11
193.273301818
 21
244.0137016534
 31
0.0
  0
SPLINE
  5
2ED
330
1F
100
AcDbEntity
  8
0
  6
K5LT32768
 62
     7
370
    15
100
AcDbSpline
210
0.0
220
0.0
230
1.0
 70
     8
 71
     3
 72
    11
 73
     7
 74
     0
 42
0.0
 43
0.0
 12
1.0
 22
0.0
 32
0.0
 13
1.0
 23
0.0
 33
0.0
 40
0.0
 40
0.0
 40
0.0
 40
0.0
 40
0.5
 40
0.5
 40
0.5
 40
1.0
 40
1.0
 40
1.0
 40
1.0
 10
178.2737005847719
 20
247.0136908019619
 30
0.0
 10
177.4451551205693
 20
247.0136908019619
 30
0.0
 10
176.7737060104941
 20
246.3425862014352
 30
0.0
 10
176.7737060104941
 20
245.5136962276841
 30
0.0
 10
176.7737060104941
 20
244.68549527303
 30
0.0
 10
177.4451551205693
 20
244.0137016534063
 30
0.0
 10
178.2737005847719
 20
244.0137016534063
 30
0.0
  0
LINE
  5
2EE
330
1F
100
AcDbEntity
  8
0
  6
K5LT32768
 62
     7
370
    15
100
AcDbLine
 10
193.273301818
 20
247.013690802
 30
0.0
 11
178.2737005848
 21
247.013690802
 31
0.0
  0
SPLINE
  5
2EF
330
1F
100
AcDbEntity
  8
0
  6
K5LT32768
 62
     7
370
    15
100
AcDbSpline
210
0.0
220
0.0
230
1.0
 70
     8
 71
     3
 72
    10
 73
     6
 74
     0
 42
0.0
 43
0.0
 12
1.0
 22
0.0
 32
0.0
 13
1.0
 23
0.0
 33
0.0
 40
0.0
 40
0.0
 40
0.0
 40
0.0
 40
0.5
 40
0.5
 40
1.0
 40
1.0
 40
1.0
 40
1.0
 10
193.2733018180011
 20
232.0137450591841
 30
0.0
 10
194.1021917917522
 20
232.0137450591841
 30
0.0
 10
194.7732963922789
 20
232.6855386788078
 30
0.0
 10
194.7732963922789
 20
234.3419405881159
 30
0.0
 10
194.1021917917522
 20
235.0137342077396
 30
0.0
 10
193.2733018180011
 20
235.0137342077396
 30
0.0
  0
LINE
  5
2F0
330
1F
100
AcDbEntity
  8
0
  6
K5LT32768
 62
     7
370
    15
100
AcDbLine
 10
178.2737005848
 20
232.0137450592
 30
0.0
 11
193.273301818
 21
232.0137450592
 31
0.0
  0
SPLINE
  5
2F1
330
1F
100
AcDbEntity
  8
0
  6
K5LT32768
 62
     7
370
    15
100
AcDbSpline
210
0.0
220
0.0
230
1.0
 70
     8
 71
     3
 72
    10
 73
     6
 74
     0
 42
0.0
 43
0.0
 12
1.0
 22
0.0
 32
0.0
 13
1.0
 23
0.0
 33
0.0
 40
0.0
 40
0.0
 40
0.0
 40
0.0
 40
0.5
 40
0.5
 40
1.0
 40
1.0
 40
1.0
 40
1.0
 10
178.2737005847719
 20
235.0137342077396
 30
0.0
 10
177.4451551205693
 20
235.0137342077396
 30
0.0
 10
176.7737060104941
 20
234.3419405881159
 30
0.0
 10
176.7737060104941
 20
232.6855386788078
 30
0.0
 10
177.4451551205693
 20
232.0137450591841
 30
0.0
 10
178.2737005847719
 20
232.0137450591841
 30
0.0
  0
LINE
  5
2F2
330
1F
100
AcDbEntity
  8
0
  6
K5LT32768
 62
     7
370
    15
100
AcDbLine
 10
193.273301818
 20
235.0137342077
 30
0.0
 11
178.2737005848
 21
235.0137342077
 31
0.0
  0
ENDSEC
  0
SECTION
  2
OBJECTS
  0
DICTIONARY
  5
C
330
0
100
AcDbDictionary
281
     1
  3
ACAD_GROUP
350
D
  3
ACAD_LAYOUT
350
1A
  3
ACAD_MATERIAL
350
3B
  3
ACAD_MLEADERSTYLE
350
338
  3
ACAD_MLINESTYLE
350
17
  3
ACAD_PLOTSETTINGS
350
19
  3
ACAD_PLOTSTYLENAME
350
E
  3
ACAD_SCALELIST
350
2F3
  3
ACAD_TABLESTYLE
350
337
  3
ACAD_VISUALSTYLE
350
2A
  3
AcDbVariableDictionary
350
315
  0
DICTIONARY
  5
D
102
{ACAD_REACTORS
330
C
102
}
330
C
100
AcDbDictionary
281
     1
  0
DICTIONARY
  5
1A
102
{ACAD_REACTORS
330
C
102
}
330
C
100
AcDbDictionary
281
     1
  3
Layout1
350
1E
  3
Layout2
350
26
  3
Model
350
22
  0
DICTIONARY
  5
3B
102
{ACAD_REACTORS
330
C
102
}
330
C
100
AcDbDictionary
281
     1
  3
ByBlock
350
3D
  3
ByLayer
350
3C
  3
Global
350
3E
  0
DICTIONARY
  5
338
102
{ACAD_REACTORS
330
C
102
}
330
C
100
AcDbDictionary
281
     1
  0
DICTIONARY
  5
17
102
{ACAD_REACTORS
330
C
102
}
330
C
100
AcDbDictionary
281
     1
  3
Standard
350
18
  0
DICTIONARY
  5
19
102
{ACAD_REACTORS
330
C
102
}
330
C
100
AcDbDictionary
281
     1
  0
ACDBDICTIONARYWDFLT
  5
E
102
{ACAD_REACTORS
330
C
102
}
330
C
100
AcDbDictionary
281
     1
  3
Normal
350
F
100
AcDbDictionaryWithDefault
340
F
  0
DICTIONARY
  5
2F3
102
{ACAD_REACTORS
330
C
102
}
330
C
100
AcDbDictionary
281
     1
  3
A0
350
2F4
  3
A1
350
2F5
  3
A2
350
2F6
  3
A3
350
2F7
  3
A4
350
2F8
  3
A5
350
2F9
  3
A6
350
2FA
  3
A7
350
2FB
  3
A8
350
2FC
  3
A9
350
2FD
  3
B0
350
2FE
  3
B1
350
2FF
  3
B2
350
300
  3
B3
350
301
  3
B4
350
302
  3
B5
350
303
  3
B6
350
304
  3
B7
350
305
  3
B8
350
306
  3
B9
350
307
  3
C0
350
308
  3
C1
350
309
  3
C2
350
30A
  3
C3
350
30B
  3
C4
350
30C
  3
C5
350
30D
  3
C6
350
30E
  3
C7
350
30F
  3
C8
350
310
  3
C9
350
311
  3
D0
350
312
  3
D1
350
313
  3
D2
350
314
  0
DICTIONARY
  5
337
102
{ACAD_REACTORS
330
C
102
}
330
C
100
AcDbDictionary
281
     1
  0
DICTIONARY
  5
2A
102
{ACAD_REACTORS
330
C
102
}
330
C
100
AcDbDictionary
281
     1
  3
2dWireframe
350
2F
  3
3D Hidden
350
31
  3
3dWireframe
350
30
  3
Basic
350
32
  3
Brighten
350
36
  3
ColorChange
350
3A
  3
Conceptual
350
34
  3
Dim
350
35
  3
Facepattern
350
39
  3
Flat
350
2B
  3
FlatWithEdges
350
2C
  3
Gouraud
350
2D
  3
GouraudWithEdges
350
2E
  3
Linepattern
350
38
  3
Realistic
350
33
  3
Thicken
350
37
  0
DICTIONARY
  5
315
102
{ACAD_REACTORS
330
C
102
}
330
C
100
AcDbDictionary
281
     1
  3
CANNOSCALE
350
316
  0
LAYOUT
  5
1E
102
{ACAD_REACTORS
330
1A
102
}
330
1A
100
AcDbPlotSettings
  1

  2
none_device
  4

  6

 40
0.0
 41
0.0
 42
0.0
 43
0.0
 44
0.0
 45
0.0
 46
0.0
 47
0.0
 48
0.0
 49
0.0
140
0.0
141
0.0
142
1.0
143
1.0
 70
   688
 72
     0
 73
     0
 74
     5
  7

 75
    16
 76
     0
 77
     2
 78
   300
147
1.0
148
0.0
149
0.0
100
AcDbLayout
  1
Layout1
 70
     1
 71
     1
 10
0.0
 20
0.0
 11
420.0
 21
297.0
 12
0.0
 22
0.0
 32
0.0
 14
1.000000000000000E+20
 24
1.000000000000000E+20
 34
1.000000000000000E+20
 15
-1.000000000000000E+20
 25
-1.000000000000000E+20
 35
-1.000000000000000E+20
146
0.0
 13
0.0
 23
0.0
 33
0.0
 16
1.0
 26
0.0
 36
0.0
 17
0.0
 27
1.0
 37
0.0
 76
     0
330
1B
  0
LAYOUT
  5
26
102
{ACAD_REACTORS
330
1A
102
}
330
1A
100
AcDbPlotSettings
  1

  2
none_device
  4

  6

 40
0.0
 41
0.0
 42
0.0
 43
0.0
 44
0.0
 45
0.0
 46
0.0
 47
0.0
 48
0.0
 49
0.0
140
0.0
141
0.0
142
1.0
143
1.0
 70
   688
 72
     0
 73
     0
 74
     5
  7

 75
    16
 76
     0
 77
     2
 78
   300
147
1.0
148
0.0
149
0.0
100
AcDbLayout
  1
Layout2
 70
     1
 71
     2
 10
0.0
 20
0.0
 11
0.0
 21
0.0
 12
0.0
 22
0.0
 32
0.0
 14
0.0
 24
0.0
 34
0.0
 15
0.0
 25
0.0
 35
0.0
146
0.0
 13
0.0
 23
0.0
 33
0.0
 16
1.0
 26
0.0
 36
0.0
 17
0.0
 27
1.0
 37
0.0
 76
     0
330
23
  0
LAYOUT
  5
22
102
{ACAD_REACTORS
330
1A
102
}
330
1A
100
AcDbPlotSettings
  1

  2
none_device
  4

  6

 40
0.0
 41
0.0
 42
0.0
 43
0.0
 44
0.0
 45
0.0
 46
0.0
 47
0.0
 48
0.0
 49
0.0
140
0.0
141
0.0
142
1.0
143
1.0
 70
  1712
 72
     0
 73
     0
 74
     0
  7

 75
     0
 76
     0
 77
     2
 78
   300
147
1.0
148
0.0
149
0.0
100
AcDbLayout
  1
Model
 70
     1
 71
     0
 10
0.0
 20
0.0
 11
420.0
 21
297.0
 12
0.0
 22
0.0
 32
0.0
 14
1.000000000000000E+20
 24
1.000000000000000E+20
 34
1.000000000000000E+20
 15
-1.000000000000000E+20
 25
-1.000000000000000E+20
 35
-1.000000000000000E+20
146
0.0
 13
0.0
 23
0.0
 33
0.0
 16
1.0
 26
0.0
 36
0.0
 17
0.0
 27
1.0
 37
0.0
 76
     0
330
1F
331
29
  0
MATERIAL
  5
3D
102
{ACAD_REACTORS
330
3B
102
}
330
3B
100
AcDbMaterial
  1
ByBlock
 72
     1
 94
      127
  0
MATERIAL
  5
3C
102
{ACAD_REACTORS
330
3B
102
}
330
3B
100
AcDbMaterial
  1
ByLayer
 72
     1
 94
      127
  0
MATERIAL
  5
3E
102
{ACAD_REACTORS
330
3B
102
}
330
3B
100
AcDbMaterial
  1
Global
 72
     1
 94
      127
  0
MLINESTYLE
  5
18
102
{ACAD_REACTORS
330
17
102
}
330
17
100
AcDbMlineStyle
  2
Standard
 70
     0
  3

 62
   256
 51
90.0
 52
90.0
 71
     2
 49
0.5
 62
   256
  6
BYLAYER
 49
-0.5
 62
   256
  6
BYLAYER
  0
ACDBPLACEHOLDER
  5
F
102
{ACAD_REACTORS
330
E
102
}
330
E
  0
SCALE
  5
2F4
102
{ACAD_REACTORS
330
2F3
102
}
330
2F3
100
AcDbScale
 70
     0
300
1:1
140
1.0
141
1.0
290
     1
  0
SCALE
  5
2F5
102
{ACAD_REACTORS
330
2F3
102
}
330
2F3
100
AcDbScale
 70
     0
300
1:2
140
1.0
141
2.0
290
     0
  0
SCALE
  5
2F6
102
{ACAD_REACTORS
330
2F3
102
}
330
2F3
100
AcDbScale
 70
     0
300
1:4
140
1.0
141
4.0
290
     0
  0
SCALE
  5
2F7
102
{ACAD_REACTORS
330
2F3
102
}
330
2F3
100
AcDbScale
 70
     0
300
1:5
140
1.0
141
5.0
290
     0
  0
SCALE
  5
2F8
102
{ACAD_REACTORS
330
2F3
102
}
330
2F3
100
AcDbScale
 70
     0
300
1:8
140
1.0
141
8.0
290
     0
  0
SCALE
  5
2F9
102
{ACAD_REACTORS
330
2F3
102
}
330
2F3
100
AcDbScale
 70
     0
300
1:10
140
1.0
141
10.0
290
     0
  0
SCALE
  5
2FA
102
{ACAD_REACTORS
330
2F3
102
}
330
2F3
100
AcDbScale
 70
     0
300
1:16
140
1.0
141
16.0
290
     0
  0
SCALE
  5
2FB
102
{ACAD_REACTORS
330
2F3
102
}
330
2F3
100
AcDbScale
 70
     0
300
1:20
140
1.0
141
20.0
290
     0
  0
SCALE
  5
2FC
102
{ACAD_REACTORS
330
2F3
102
}
330
2F3
100
AcDbScale
 70
     0
300
1:30
140
1.0
141
30.0
290
     0
  0
SCALE
  5
2FD
102
{ACAD_REACTORS
330
2F3
102
}
330
2F3
100
AcDbScale
 70
     0
300
1:40
140
1.0
141
40.0
290
     0
  0
SCALE
  5
2FE
102
{ACAD_REACTORS
330
2F3
102
}
330
2F3
100
AcDbScale
 70
     0
300
1:50
140
1.0
141
50.0
290
     0
  0
SCALE
  5
2FF
102
{ACAD_REACTORS
330
2F3
102
}
330
2F3
100
AcDbScale
 70
     0
300
1:100
140
1.0
141
100.0
290
     0
  0
SCALE
  5
300
102
{ACAD_REACTORS
330
2F3
102
}
330
2F3
100
AcDbScale
 70
     0
300
2:1
140
2.0
141
1.0
290
     0
  0
SCALE
  5
301
102
{ACAD_REACTORS
330
2F3
102
}
330
2F3
100
AcDbScale
 70
     0
300
4:1
140
4.0
141
1.0
290
     0
  0
SCALE
  5
302
102
{ACAD_REACTORS
330
2F3
102
}
330
2F3
100
AcDbScale
 70
     0
300
8:1
140
8.0
141
1.0
290
     0
  0
SCALE
  5
303
102
{ACAD_REACTORS
330
2F3
102
}
330
2F3
100
AcDbScale
 70
     0
300
10:1
140
10.0
141
1.0
290
     0
  0
SCALE
  5
304
102
{ACAD_REACTORS
330
2F3
102
}
330
2F3
100
AcDbScale
 70
     0
300
100:1
140
100.0
141
1.0
290
     0
  0
SCALE
  5
305
102
{ACAD_REACTORS
330
2F3
102
}
330
2F3
100
AcDbScale
 70
     0
300
1/128" = 1'-0"
140
0.0078125
141
12.0
290
     0
  0
SCALE
  5
306
102
{ACAD_REACTORS
330
2F3
102
}
330
2F3
100
AcDbScale
 70
     0
300
1/64" = 1'-0"
140
0.015625
141
12.0
290
     0
  0
SCALE
  5
307
102
{ACAD_REACTORS
330
2F3
102
}
330
2F3
100
AcDbScale
 70
     0
300
1/32" = 1'-0"
140
0.03125
141
12.0
290
     0
  0
SCALE
  5
308
102
{ACAD_REACTORS
330
2F3
102
}
330
2F3
100
AcDbScale
 70
     0
300
1/16" = 1'-0"
140
0.0625
141
12.0
290
     0
  0
SCALE
  5
309
102
{ACAD_REACTORS
330
2F3
102
}
330
2F3
100
AcDbScale
 70
     0
300
3/32" = 1'-0"
140
0.09375
141
12.0
290
     0
  0
SCALE
  5
30A
102
{ACAD_REACTORS
330
2F3
102
}
330
2F3
100
AcDbScale
 70
     0
300
1/8" = 1'-0"
140
0.125
141
12.0
290
     0
  0
SCALE
  5
30B
102
{ACAD_REACTORS
330
2F3
102
}
330
2F3
100
AcDbScale
 70
     0
300
3/16" = 1'-0"
140
0.1875
141
12.0
290
     0
  0
SCALE
  5
30C
102
{ACAD_REACTORS
330
2F3
102
}
330
2F3
100
AcDbScale
 70
     0
300
1/4" = 1'-0"
140
0.25
141
12.0
290
     0
  0
SCALE
  5
30D
102
{ACAD_REACTORS
330
2F3
102
}
330
2F3
100
AcDbScale
 70
     0
300
3/8" = 1'-0"
140
0.375
141
12.0
290
     0
  0
SCALE
  5
30E
102
{ACAD_REACTORS
330
2F3
102
}
330
2F3
100
AcDbScale
 70
     0
300
1/2" = 1'-0"
140
0.5
141
12.0
290
     0
  0
SCALE
  5
30F
102
{ACAD_REACTORS
330
2F3
102
}
330
2F3
100
AcDbScale
 70
     0
300
3/4" = 1'-0"
140
0.75
141
12.0
290
     0
  0
SCALE
  5
310
102
{ACAD_REACTORS
330
2F3
102
}
330
2F3
100
AcDbScale
 70
     0
300
1" = 1'-0"
140
1.0
141
12.0
290
     0
  0
SCALE
  5
311
102
{ACAD_REACTORS
330
2F3
102
}
330
2F3
100
AcDbScale
 70
     0
300
1-1/2" = 1'-0"
140
1.5
141
12.0
290
     0
  0
SCALE
  5
312
102
{ACAD_REACTORS
330
2F3
102
}
330
2F3
100
AcDbScale
 70
     0
300
3" = 1'-0"
140
3.0
141
12.0
290
     0
  0
SCALE
  5
313
102
{ACAD_REACTORS
330
2F3
102
}
330
2F3
100
AcDbScale
 70
     0
300
6" = 1'-0"
140
6.0
141
12.0
290
     0
  0
SCALE
  5
314
102
{ACAD_REACTORS
330
2F3
102
}
330
2F3
100
AcDbScale
 70
     0
300
1'-0" = 1'-0"
140
12.0
141
12.0
290
     0
  0
VISUALSTYLE
  5
2F
102
{ACAD_REACTORS
330
2A
102
}
102
{ACAD_XDICTIONARY
360
31F
102
}
330
2A
100
AcDbVisualStyle
  2
2dWireframe
 70
     4
 71
     0
 72
     2
 73
     0
 90
        0
 40
-0.6
 41
-30.0
 62
     5
 63
     7
421
 16777215
 74
     1
 91
        4
 64
     7
 65
   257
 75
     1
175
     1
 42
1.0
 92
        0
 66
   257
 43
1.0
 76
     1
 77
     6
 78
     2
 67
     7
 79
     5
170
     0
171
     0
290
     0
174
     0
 93
        1
 44
0.0
173
     0
291
     0
 45
0.0
  0
VISUALSTYLE
  5
31
102
{ACAD_REACTORS
330
2A
102
}
102
{ACAD_XDICTIONARY
360
323
102
}
330
2A
100
AcDbVisualStyle
  2
3D Hidden
 70
     6
 71
     1
 72
     2
 73
     2
 90
        0
 40
-0.6
 41
-30.0
 62
     5
 63
     7
421
 16777215
 74
     2
 91
        2
 64
     7
 65
   257
 75
     2
175
     1
 42
40.0
 92
        0
 66
   257
 43
1.0
 76
     1
 77
     6
 78
     2
 67
     7
 79
     3
170
     0
171
     0
290
     0
174
     0
 93
        1
 44
0.0
173
     0
291
     0
 45
0.0
  0
VISUALSTYLE
  5
30
102
{ACAD_REACTORS
330
2A
102
}
102
{ACAD_XDICTIONARY
360
321
102
}
330
2A
100
AcDbVisualStyle
  2
3dWireframe
 70
     5
 71
     0
 72
     2
 73
     0
 90
        0
 40
-0.6
 41
-30.0
 62
     5
 63
     7
421
 16777215
 74
     1
 91
        4
 64
     7
 65
   257
 75
     1
175
     1
 42
1.0
 92
        0
 66
   257
 43
1.0
 76
     1
 77
     6
 78
     2
 67
     7
 79
     5
170
     0
171
     0
290
     0
174
     0
 93
        1
 44
0.0
173
     0
291
     0
 45
0.0
  0
VISUALSTYLE
  5
32
102
{ACAD_REACTORS
330
2A
102
}
102
{ACAD_XDICTIONARY
360
325
102
}
330
2A
100
AcDbVisualStyle
  2
Basic
 70
     7
 71
     1
 72
     0
 73
     1
 90
        0
 40
-0.6
 41
-30.0
 62
     5
 63
     7
421
 16777215
 74
     0
 91
        4
 64
     7
 65
   257
 75
     1
175
     1
 42
1.0
 92
        8
 66
     7
 43
1.0
 76
     1
 77
     6
 78
     2
 67
     7
 79
     5
170
     0
171
     0
290
     0
174
     0
 93
        1
 44
0.0
173
     0
291
     1
 45
0.0
  0
VISUALSTYLE
  5
36
102
{ACAD_REACTORS
330
2A
102
}
102
{ACAD_XDICTIONARY
360
32D
102
}
330
2A
100
AcDbVisualStyle
  2
Brighten
 70
    12
 71
     2
 72
     2
 73
     0
 90
        0
 40
-0.6
 41
-30.0
 62
     5
 63
     7
421
 16777215
 74
     1
 91
        4
 64
     7
 65
   257
 75
     1
175
     1
 42
1.0
 92
        8
 66
     7
 43
1.0
 76
     1
 77
     6
 78
     2
 67
     7
 79
     5
170
     0
171
     0
290
     0
174
     0
 93
        1
 44
50.0
173
     0
291
     1
 45
0.0
  0
VISUALSTYLE
  5
3A
102
{ACAD_REACTORS
330
2A
102
}
102
{ACAD_XDICTIONARY
360
335
102
}
330
2A
100
AcDbVisualStyle
  2
ColorChange
 70
    16
 71
     2
 72
     2
 73
     3
 90
        0
 40
-0.6
 41
-30.0
 62
     5
 63
     8
421
  8421504
 74
     1
 91
        4
 64
     7
 65
   257
 75
     1
175
     1
 42
1.0
 92
        8
 66
     8
424
  8421504
 43
1.0
 76
     1
 77
     6
 78
     2
 67
     7
 79
     5
170
     0
171
     0
290
     0
174
     0
 93
        1
 44
0.0
173
     0
291
     1
 45
0.0
  0
VISUALSTYLE
  5
34
102
{ACAD_REACTORS
330
2A
102
}
102
{ACAD_XDICTIONARY
360
329
102
}
330
2A
100
AcDbVisualStyle
  2
Conceptual
 70
     9
 71
     3
 72
     2
 73
     0
 90
        0
 40
-0.6
 41
-30.0
 62
     5
 63
     7
421
 16777215
 74
     2
 91
        2
 64
     7
 65
   257
 75
     1
175
     1
 42
40.0
 92
        8
 66
     7
 43
1.0
 76
     1
 77
     6
 78
     2
 67
     7
 79
     3
170
     0
171
     0
290
     0
174
     0
 93
        1
 44
0.0
173
     0
291
     0
 45
0.0
  0
VISUALSTYLE
  5
35
102
{ACAD_REACTORS
330
2A
102
}
102
{ACAD_XDICTIONARY
360
32B
102
}
330
2A
100
AcDbVisualStyle
  2
Dim
 70
    11
 71
     2
 72
     2
 73
     0
 90
        0
 40
-0.6
 41
-30.0
 62
     5
 63
     7
421
 16777215
 74
     1
 91
        4
 64
     7
 65
   257
 75
     1
175
     1
 42
1.0
 92
        8
 66
     7
 43
1.0
 76
     1
 77
     6
 78
     2
 67
     7
 79
     5
170
     0
171
     0
290
     0
174
     0
 93
        1
 44
-50.0
173
     0
291
     1
 45
0.0
  0
VISUALSTYLE
  5
39
102
{ACAD_REACTORS
330
2A
102
}
102
{ACAD_XDICTIONARY
360
333
102
}
330
2A
100
AcDbVisualStyle
  2
Facepattern
 70
    15
 71
     2
 72
     2
 73
     0
 90
        0
 40
-0.6
 41
-30.0
 62
     5
 63
     7
421
 16777215
 74
     1
 91
        4
 64
     7
 65
   257
 75
     1
175
     1
 42
1.0
 92
        8
 66
     7
 43
1.0
 76
     1
 77
     6
 78
     2
 67
     7
 79
     5
170
     0
171
     0
290
     0
174
     0
 93
        1
 44
0.0
173
     0
291
     1
 45
0.0
  0
VISUALSTYLE
  5
2B
102
{ACAD_REACTORS
330
2A
102
}
102
{ACAD_XDICTIONARY
360
317
102
}
330
2A
100
AcDbVisualStyle
  2
Flat
 70
     0
 71
     2
 72
     1
 73
     1
 90
        2
 40
-0.6
 41
30.0
 62
     5
 63
     7
421
 16777215
 74
     0
 91
        4
 64
     7
 65
   257
 75
     1
175
     1
 42
1.0
 92
        8
 66
     7
 43
1.0
 76
     1
 77
     6
 78
     2
 67
     7
 79
     5
170
     0
171
     0
290
     0
174
     0
 93
       13
 44
0.0
173
     0
291
     1
 45
0.0
  0
VISUALSTYLE
  5
2C
102
{ACAD_REACTORS
330
2A
102
}
102
{ACAD_XDICTIONARY
360
319
102
}
330
2A
100
AcDbVisualStyle
  2
FlatWithEdges
 70
     1
 71
     2
 72
     1
 73
     1
 90
        2
 40
-0.6
 41
30.0
 62
     5
 63
     7
421
 16777215
 74
     1
 91
        4
 64
     7
 65
   257
 75
     1
175
     1
 42
1.0
 92
        0
 66
   257
 43
1.0
 76
     1
 77
     6
 78
     2
 67
     7
 79
     5
170
     0
171
     0
290
     0
174
     0
 93
       13
 44
0.0
173
     0
291
     1
 45
0.0
  0
VISUALSTYLE
  5
2D
102
{ACAD_REACTORS
330
2A
102
}
102
{ACAD_XDICTIONARY
360
31B
102
}
330
2A
100
AcDbVisualStyle
  2
Gouraud
 70
     2
 71
     2
 72
     2
 73
     1
 90
        2
 40
-0.6
 41
30.0
 62
     5
 63
     7
421
 16777215
 74
     0
 91
        4
 64
     7
 65
   257
 75
     1
175
     1
 42
1.0
 92
        0
 66
     7
 43
1.0
 76
     1
 77
     6
 78
     2
 67
     7
 79
     5
170
     0
171
     0
290
     0
174
     0
 93
       13
 44
0.0
173
     0
291
     1
 45
0.0
  0
VISUALSTYLE
  5
2E
102
{ACAD_REACTORS
330
2A
102
}
102
{ACAD_XDICTIONARY
360
31D
102
}
330
2A
100
AcDbVisualStyle
  2
GouraudWithEdges
 70
     3
 71
     2
 72
     2
 73
     1
 90
        2
 40
-0.6
 41
30.0
 62
     5
 63
     7
421
 16777215
 74
     1
 91
        4
 64
     7
 65
   257
 75
     1
175
     1
 42
1.0
 92
        0
 66
   257
 43
1.0
 76
     1
 77
     6
 78
     2
 67
     7
 79
     5
170
     0
171
     0
290
     0
174
     0
 93
       13
 44
0.0
173
     0
291
     1
 45
0.0
  0
VISUALSTYLE
  5
38
102
{ACAD_REACTORS
330
2A
102
}
102
{ACAD_XDICTIONARY
360
331
102
}
330
2A
100
AcDbVisualStyle
  2
Linepattern
 70
    14
 71
     2
 72
     2
 73
     0
 90
        0
 40
-0.6
 41
-30.0
 62
     5
 63
     7
421
 16777215
 74
     1
 91
        4
 64
     7
 65
   257
 75
     7
175
     7
 42
1.0
 92
        8
 66
     7
 43
1.0
 76
     1
 77
     6
 78
     2
 67
     7
 79
     5
170
     0
171
     0
290
     0
174
     0
 93
        1
 44
0.0
173
     0
291
     1
 45
0.0
  0
VISUALSTYLE
  5
33
102
{ACAD_REACTORS
330
2A
102
}
102
{ACAD_XDICTIONARY
360
327
102
}
330
2A
100
AcDbVisualStyle
  2
Realistic
 70
     8
 71
     2
 72
     2
 73
     0
 90
        0
 40
-0.6
 41
-30.0
 62
     5
 63
     7
421
 16777215
 74
     1
 91
        0
 64
     7
 65
   257
 75
     1
175
     1
 42
1.0
 92
        8
 66
     8
424
  7895160
 43
1.0
 76
     1
 77
     6
 78
     2
 67
     7
 79
     5
170
     0
171
     0
290
     0
174
     0
 93
       13
 44
0.0
173
     0
291
     0
 45
0.0
  0
VISUALSTYLE
  5
37
102
{ACAD_REACTORS
330
2A
102
}
102
{ACAD_XDICTIONARY
360
32F
102
}
330
2A
100
AcDbVisualStyle
  2
Thicken
 70
    13
 71
     2
 72
     2
 73
     0
 90
        0
 40
-0.6
 41
-30.0
 62
     5
 63
     7
421
 16777215
 74
     1
 91
        4
 64
     7
 65
   257
 75
     1
175
     1
 42
1.0
 92
       12
 66
     7
 43
1.0
 76
     1
 77
     6
 78
     2
 67
     7
 79
     5
170
     0
171
     0
290
     0
174
     0
 93
        1
 44
0.0
173
     0
291
     1
 45
0.0
  0
DICTIONARYVAR
  5
316
102
{ACAD_REACTORS
330
315
102
}
330
315
100
DictionaryVariables
280
     0
  1
1:1
  0
DICTIONARY
  5
31F
330
2F
100
AcDbDictionary
280
     1
281
     1
  3
ACAD_XREC_ROUNDTRIP
360
320
  0
DICTIONARY
  5
323
330
31
100
AcDbDictionary
280
     1
281
     1
  3
ACAD_XREC_ROUNDTRIP
360
324
  0
DICTIONARY
  5
321
330
30
100
AcDbDictionary
280
     1
281
     1
  3
ACAD_XREC_ROUNDTRIP
360
322
  0
DICTIONARY
  5
325
330
32
100
AcDbDictionary
280
     1
281
     1
  3
ACAD_XREC_ROUNDTRIP
360
326
  0
DICTIONARY
  5
32D
330
36
100
AcDbDictionary
280
     1
281
     1
  3
ACAD_XREC_ROUNDTRIP
360
32E
  0
DICTIONARY
  5
335
330
3A
100
AcDbDictionary
280
     1
281
     1
  3
ACAD_XREC_ROUNDTRIP
360
336
  0
DICTIONARY
  5
329
330
34
100
AcDbDictionary
280
     1
281
     1
  3
ACAD_XREC_ROUNDTRIP
360
32A
  0
DICTIONARY
  5
32B
330
35
100
AcDbDictionary
280
     1
281
     1
  3
ACAD_XREC_ROUNDTRIP
360
32C
  0
DICTIONARY
  5
333
330
39
100
AcDbDictionary
280
     1
281
     1
  3
ACAD_XREC_ROUNDTRIP
360
334
  0
DICTIONARY
  5
317
330
2B
100
AcDbDictionary
280
     1
281
     1
  3
ACAD_XREC_ROUNDTRIP
360
318
  0
DICTIONARY
  5
319
330
2C
100
AcDbDictionary
280
     1
281
     1
  3
ACAD_XREC_ROUNDTRIP
360
31A
  0
DICTIONARY
  5
31B
330
2D
100
AcDbDictionary
280
     1
281
     1
  3
ACAD_XREC_ROUNDTRIP
360
31C
  0
DICTIONARY
  5
31D
330
2E
100
AcDbDictionary
280
     1
281
     1
  3
ACAD_XREC_ROUNDTRIP
360
31E
  0
DICTIONARY
  5
331
330
38
100
AcDbDictionary
280
     1
281
     1
  3
ACAD_XREC_ROUNDTRIP
360
332
  0
DICTIONARY
  5
327
330
33
100
AcDbDictionary
280
     1
281
     1
  3
ACAD_XREC_ROUNDTRIP
360
328
  0
DICTIONARY
  5
32F
330
37
100
AcDbDictionary
280
     1
281
     1
  3
ACAD_XREC_ROUNDTRIP
360
330
  0
XRECORD
  5
320
102
{ACAD_REACTORS
330
31F
102
}
330
31F
100
AcDbXrecord
280
     1
102
RTVSPropertyOp0
 70
     1
102
RTVSPropertyOp1
 70
     1
102
RTVSPropertyOp2
 70
     1
102
RTVSPropertyOp3
 70
     1
102
RTVSPropertyOp4
 70
     1
102
RTVSPropertyOp5
 70
     1
102
RTVSPropertyOp6
 70
     1
102
RTVSPropertyOp7
 70
     1
102
RTVSPropertyOp8
 70
     1
102
RTVSPropertyOp9
 70
     1
102
RTVSPropertyOp10
 70
     1
102
RTVSPropertyOp11
 70
     1
102
RTVSPropertyOp12
 70
     1
102
RTVSPropertyOp13
 70
     1
102
RTVSPropertyOp14
 70
     1
102
RTVSPropertyOp15
 70
     1
102
RTVSPropertyOp16
 70
     1
102
RTVSPropertyOp17
 70
     1
102
RTVSPropertyOp18
 70
     1
102
RTVSPropertyOp19
 70
     1
102
RTVSPropertyOp20
 70
     1
102
RTVSPropertyOp21
 70
     1
102
RTVSPropertyOp22
 70
     1
102
RTVSPropertyOp23
 70
     1
102
RTVSPropertyOp24
 70
     1
102
RTVSPropertyOp25
 70
     1
102
RTVSPropertyOp26
 70
     1
102
RTVSPropertyOp27
 70
     1
102
RTVSPropertyOp28
 70
     1
102
RTVSPropertyOp29
 70
     1
102
RTVSPropertyOp30
 70
     1
102
RTVSPropertyOp31
 70
     1
102
RTVSPropertyOp32
 70
     1
  0
XRECORD
  5
324
102
{ACAD_REACTORS
330
323
102
}
330
323
100
AcDbXrecord
280
     1
102
RTVSPropertyOp0
 70
     1
102
RTVSPropertyOp1
 70
     1
102
RTVSPropertyOp2
 70
     1
102
RTVSPropertyOp3
 70
     1
102
RTVSPropertyOp4
 70
     1
102
RTVSPropertyOp5
 70
     1
102
RTVSPropertyOp6
 70
     1
102
RTVSPropertyOp7
 70
     1
102
RTVSPropertyOp8
 70
     1
102
RTVSPropertyOp9
 70
     1
102
RTVSPropertyOp10
 70
     1
102
RTVSPropertyOp11
 70
     1
102
RTVSPropertyOp12
 70
     1
102
RTVSPropertyOp13
 70
     1
102
RTVSPropertyOp14
 70
     1
102
RTVSPropertyOp15
 70
     1
102
RTVSPropertyOp16
 70
     1
102
RTVSPropertyOp17
 70
     1
102
RTVSPropertyOp18
 70
     1
102
RTVSPropertyOp19
 70
     1
102
RTVSPropertyOp20
 70
     1
102
RTVSPropertyOp21
 70
     1
102
RTVSPropertyOp22
 70
     1
102
RTVSPropertyOp23
 70
     1
102
RTVSPropertyOp24
 70
     1
102
RTVSPropertyOp25
 70
     1
102
RTVSPropertyOp26
 70
     1
102
RTVSPropertyOp27
 70
     1
102
RTVSPropertyOp28
 70
     1
102
RTVSPropertyOp29
 70
     1
102
RTVSPropertyOp30
 70
     1
102
RTVSPropertyOp31
 70
     1
102
RTVSPropertyOp32
 70
     1
  0
XRECORD
  5
322
102
{ACAD_REACTORS
330
321
102
}
330
321
100
AcDbXrecord
280
     1
102
RTVSPropertyOp0
 70
     1
102
RTVSPropertyOp1
 70
     1
102
RTVSPropertyOp2
 70
     1
102
RTVSPropertyOp3
 70
     1
102
RTVSPropertyOp4
 70
     1
102
RTVSPropertyOp5
 70
     1
102
RTVSPropertyOp6
 70
     1
102
RTVSPropertyOp7
 70
     1
102
RTVSPropertyOp8
 70
     1
102
RTVSPropertyOp9
 70
     1
102
RTVSPropertyOp10
 70
     1
102
RTVSPropertyOp11
 70
     1
102
RTVSPropertyOp12
 70
     1
102
RTVSPropertyOp13
 70
     1
102
RTVSPropertyOp14
 70
     1
102
RTVSPropertyOp15
 70
     1
102
RTVSPropertyOp16
 70
     1
102
RTVSPropertyOp17
 70
     1
102
RTVSPropertyOp18
 70
     1
102
RTVSPropertyOp19
 70
     1
102
RTVSPropertyOp20
 70
     1
102
RTVSPropertyOp21
 70
     1
102
RTVSPropertyOp22
 70
     1
102
RTVSPropertyOp23
 70
     1
102
RTVSPropertyOp24
 70
     1
102
RTVSPropertyOp25
 70
     1
102
RTVSPropertyOp26
 70
     1
102
RTVSPropertyOp27
 70
     1
102
RTVSPropertyOp28
 70
     1
102
RTVSPropertyOp29
 70
     1
102
RTVSPropertyOp30
 70
     1
102
RTVSPropertyOp31
 70
     1
102
RTVSPropertyOp32
 70
     1
  0
XRECORD
  5
326
102
{ACAD_REACTORS
330
325
102
}
330
325
100
AcDbXrecord
280
     1
102
RTVSPropertyOp0
 70
     1
102
RTVSPropertyOp1
 70
     1
102
RTVSPropertyOp2
 70
     1
102
RTVSPropertyOp3
 70
     1
102
RTVSPropertyOp4
 70
     1
102
RTVSPropertyOp5
 70
     1
102
RTVSPropertyOp6
 70
     1
102
RTVSPropertyOp7
 70
     1
102
RTVSPropertyOp8
 70
     1
102
RTVSPropertyOp9
 70
     1
102
RTVSPropertyOp10
 70
     1
102
RTVSPropertyOp11
 70
     1
102
RTVSPropertyOp12
 70
     1
102
RTVSPropertyOp13
 70
     1
102
RTVSPropertyOp14
 70
     1
102
RTVSPropertyOp15
 70
     1
102
RTVSPropertyOp16
 70
     1
102
RTVSPropertyOp17
 70
     1
102
RTVSPropertyOp18
 70
     1
102
RTVSPropertyOp19
 70
     1
102
RTVSPropertyOp20
 70
     1
102
RTVSPropertyOp21
 70
     1
102
RTVSPropertyOp22
 70
     1
102
RTVSPropertyOp23
 70
     1
102
RTVSPropertyOp24
 70
     1
102
RTVSPropertyOp25
 70
     1
102
RTVSPropertyOp26
 70
     1
102
RTVSPropertyOp27
 70
     1
102
RTVSPropertyOp28
 70
     1
102
RTVSPropertyOp29
 70
     1
102
RTVSPropertyOp30
 70
     1
102
RTVSPropertyOp31
 70
     1
102
RTVSPropertyOp32
 70
     1
  0
XRECORD
  5
32E
102
{ACAD_REACTORS
330
32D
102
}
330
32D
100
AcDbXrecord
280
     1
102
RTVSPropertyOp0
 70
     1
102
RTVSPropertyOp1
 70
     1
102
RTVSPropertyOp2
 70
     1
102
RTVSPropertyOp3
 70
     1
102
RTVSPropertyOp4
 70
     1
102
RTVSPropertyOp5
 70
     1
102
RTVSPropertyOp6
 70
     1
102
RTVSPropertyOp7
 70
     1
102
RTVSPropertyOp8
 70
     1
102
RTVSPropertyOp9
 70
     1
102
RTVSPropertyOp10
 70
     1
102
RTVSPropertyOp11
 70
     1
102
RTVSPropertyOp12
 70
     1
102
RTVSPropertyOp13
 70
     1
102
RTVSPropertyOp14
 70
     1
102
RTVSPropertyOp15
 70
     1
102
RTVSPropertyOp16
 70
     1
102
RTVSPropertyOp17
 70
     1
102
RTVSPropertyOp18
 70
     1
102
RTVSPropertyOp19
 70
     1
102
RTVSPropertyOp20
 70
     1
102
RTVSPropertyOp21
 70
     1
102
RTVSPropertyOp22
 70
     1
102
RTVSPropertyOp23
 70
     1
102
RTVSPropertyOp24
 70
     1
102
RTVSPropertyOp25
 70
     1
102
RTVSPropertyOp26
 70
     1
102
RTVSPropertyOp27
 70
     1
102
RTVSPropertyOp28
 70
     1
102
RTVSPropertyOp29
 70
     1
102
RTVSPropertyOp30
 70
     1
102
RTVSPropertyOp31
 70
     1
102
RTVSPropertyOp32
 70
     1
  0
XRECORD
  5
336
102
{ACAD_REACTORS
330
335
102
}
330
335
100
AcDbXrecord
280
     1
102
RTVSPropertyOp0
 70
     1
102
RTVSPropertyOp1
 70
     1
102
RTVSPropertyOp2
 70
     1
102
RTVSPropertyOp3
 70
     1
102
RTVSPropertyOp4
 70
     1
102
RTVSPropertyOp5
 70
     1
102
RTVSPropertyOp6
 70
     1
102
RTVSPropertyOp7
 70
     1
102
RTVSPropertyOp8
 70
     1
102
RTVSPropertyOp9
 70
     1
102
RTVSPropertyOp10
 70
     1
102
RTVSPropertyOp11
 70
     1
102
RTVSPropertyOp12
 70
     1
102
RTVSPropertyOp13
 70
     1
102
RTVSPropertyOp14
 70
     1
102
RTVSPropertyOp15
 70
     1
102
RTVSPropertyOp16
 70
     1
102
RTVSPropertyOp17
 70
     1
102
RTVSPropertyOp18
 70
     1
102
RTVSPropertyOp19
 70
     1
102
RTVSPropertyOp20
 70
     1
102
RTVSPropertyOp21
 70
     1
102
RTVSPropertyOp22
 70
     1
102
RTVSPropertyOp23
 70
     1
102
RTVSPropertyOp24
 70
     1
102
RTVSPropertyOp25
 70
     1
102
RTVSPropertyOp26
 70
     1
102
RTVSPropertyOp27
 70
     1
102
RTVSPropertyOp28
 70
     1
102
RTVSPropertyOp29
 70
     1
102
RTVSPropertyOp30
 70
     1
102
RTVSPropertyOp31
 70
     1
102
RTVSPropertyOp32
 70
     1
  0
XRECORD
  5
32A
102
{ACAD_REACTORS
330
329
102
}
330
329
100
AcDbXrecord
280
     1
102
RTVSPropertyOp0
 70
     1
102
RTVSPropertyOp1
 70
     1
102
RTVSPropertyOp2
 70
     1
102
RTVSPropertyOp3
 70
     1
102
RTVSPropertyOp4
 70
     1
102
RTVSPropertyOp5
 70
     1
102
RTVSPropertyOp6
 70
     1
102
RTVSPropertyOp7
 70
     1
102
RTVSPropertyOp8
 70
     1
102
RTVSPropertyOp9
 70
     1
102
RTVSPropertyOp10
 70
     1
102
RTVSPropertyOp11
 70
     1
102
RTVSPropertyOp12
 70
     1
102
RTVSPropertyOp13
 70
     1
102
RTVSPropertyOp14
 70
     1
102
RTVSPropertyOp15
 70
     1
102
RTVSPropertyOp16
 70
     1
102
RTVSPropertyOp17
 70
     1
102
RTVSPropertyOp18
 70
     1
102
RTVSPropertyOp19
 70
     1
102
RTVSPropertyOp20
 70
     1
102
RTVSPropertyOp21
 70
     1
102
RTVSPropertyOp22
 70
     1
102
RTVSPropertyOp23
 70
     1
102
RTVSPropertyOp24
 70
     1
102
RTVSPropertyOp25
 70
     1
102
RTVSPropertyOp26
 70
     1
102
RTVSPropertyOp27
 70
     1
102
RTVSPropertyOp28
 70
     1
102
RTVSPropertyOp29
 70
     1
102
RTVSPropertyOp30
 70
     1
102
RTVSPropertyOp31
 70
     1
102
RTVSPropertyOp32
 70
     1
  0
XRECORD
  5
32C
102
{ACAD_REACTORS
330
32B
102
}
330
32B
100
AcDbXrecord
280
     1
102
RTVSPropertyOp0
 70
     1
102
RTVSPropertyOp1
 70
     1
102
RTVSPropertyOp2
 70
     1
102
RTVSPropertyOp3
 70
     1
102
RTVSPropertyOp4
 70
     1
102
RTVSPropertyOp5
 70
     1
102
RTVSPropertyOp6
 70
     1
102
RTVSPropertyOp7
 70
     1
102
RTVSPropertyOp8
 70
     1
102
RTVSPropertyOp9
 70
     1
102
RTVSPropertyOp10
 70
     1
102
RTVSPropertyOp11
 70
     1
102
RTVSPropertyOp12
 70
     1
102
RTVSPropertyOp13
 70
     1
102
RTVSPropertyOp14
 70
     1
102
RTVSPropertyOp15
 70
     1
102
RTVSPropertyOp16
 70
     1
102
RTVSPropertyOp17
 70
     1
102
RTVSPropertyOp18
 70
     1
102
RTVSPropertyOp19
 70
     1
102
RTVSPropertyOp20
 70
     1
102
RTVSPropertyOp21
 70
     1
102
RTVSPropertyOp22
 70
     1
102
RTVSPropertyOp23
 70
     1
102
RTVSPropertyOp24
 70
     1
102
RTVSPropertyOp25
 70
     1
102
RTVSPropertyOp26
 70
     1
102
RTVSPropertyOp27
 70
     1
102
RTVSPropertyOp28
 70
     1
102
RTVSPropertyOp29
 70
     1
102
RTVSPropertyOp30
 70
     1
102
RTVSPropertyOp31
 70
     1
102
RTVSPropertyOp32
 70
     1
  0
XRECORD
  5
334
102
{ACAD_REACTORS
330
333
102
}
330
333
100
AcDbXrecord
280
     1
102
RTVSPropertyOp0
 70
     1
102
RTVSPropertyOp1
 70
     1
102
RTVSPropertyOp2
 70
     1
102
RTVSPropertyOp3
 70
     1
102
RTVSPropertyOp4
 70
     1
102
RTVSPropertyOp5
 70
     1
102
RTVSPropertyOp6
 70
     1
102
RTVSPropertyOp7
 70
     1
102
RTVSPropertyOp8
 70
     1
102
RTVSPropertyOp9
 70
     1
102
RTVSPropertyOp10
 70
     1
102
RTVSPropertyOp11
 70
     1
102
RTVSPropertyOp12
 70
     1
102
RTVSPropertyOp13
 70
     1
102
RTVSPropertyOp14
 70
     1
102
RTVSPropertyOp15
 70
     1
102
RTVSPropertyOp16
 70
     1
102
RTVSPropertyOp17
 70
     1
102
RTVSPropertyOp18
 70
     1
102
RTVSPropertyOp19
 70
     1
102
RTVSPropertyOp20
 70
     1
102
RTVSPropertyOp21
 70
     1
102
RTVSPropertyOp22
 70
     1
102
RTVSPropertyOp23
 70
     1
102
RTVSPropertyOp24
 70
     1
102
RTVSPropertyOp25
 70
     1
102
RTVSPropertyOp26
 70
     1
102
RTVSPropertyOp27
 70
     1
102
RTVSPropertyOp28
 70
     1
102
RTVSPropertyOp29
 70
     1
102
RTVSPropertyOp30
 70
     1
102
RTVSPropertyOp31
 70
     1
102
RTVSPropertyOp32
 70
     1
  0
XRECORD
  5
318
102
{ACAD_REACTORS
330
317
102
}
330
317
100
AcDbXrecord
280
     1
102
RTVSPropertyOp0
 70
     1
102
RTVSPropertyOp1
 70
     1
102
RTVSPropertyOp2
 70
     1
102
RTVSPropertyOp3
 70
     1
102
RTVSPropertyOp4
 70
     1
102
RTVSPropertyOp5
 70
     1
102
RTVSPropertyOp6
 70
     1
102
RTVSPropertyOp7
 70
     1
102
RTVSPropertyOp8
 70
     1
102
RTVSPropertyOp9
 70
     1
102
RTVSPropertyOp10
 70
     1
102
RTVSPropertyOp11
 70
     1
102
RTVSPropertyOp12
 70
     1
102
RTVSPropertyOp13
 70
     1
102
RTVSPropertyOp14
 70
     1
102
RTVSPropertyOp15
 70
     1
102
RTVSPropertyOp16
 70
     1
102
RTVSPropertyOp17
 70
     1
102
RTVSPropertyOp18
 70
     1
102
RTVSPropertyOp19
 70
     1
102
RTVSPropertyOp20
 70
     1
102
RTVSPropertyOp21
 70
     1
102
RTVSPropertyOp22
 70
     1
102
RTVSPropertyOp23
 70
     1
102
RTVSPropertyOp24
 70
     1
102
RTVSPropertyOp25
 70
     1
102
RTVSPropertyOp26
 70
     1
102
RTVSPropertyOp27
 70
     1
102
RTVSPropertyOp28
 70
     1
102
RTVSPropertyOp29
 70
     1
102
RTVSPropertyOp30
 70
     1
102
RTVSPropertyOp31
 70
     1
102
RTVSPropertyOp32
 70
     1
  0
XRECORD
  5
31A
102
{ACAD_REACTORS
330
319
102
}
330
319
100
AcDbXrecord
280
     1
102
RTVSPropertyOp0
 70
     1
102
RTVSPropertyOp1
 70
     1
102
RTVSPropertyOp2
 70
     1
102
RTVSPropertyOp3
 70
     1
102
RTVSPropertyOp4
 70
     1
102
RTVSPropertyOp5
 70
     1
102
RTVSPropertyOp6
 70
     1
102
RTVSPropertyOp7
 70
     1
102
RTVSPropertyOp8
 70
     1
102
RTVSPropertyOp9
 70
     1
102
RTVSPropertyOp10
 70
     1
102
RTVSPropertyOp11
 70
     1
102
RTVSPropertyOp12
 70
     1
102
RTVSPropertyOp13
 70
     1
102
RTVSPropertyOp14
 70
     1
102
RTVSPropertyOp15
 70
     1
102
RTVSPropertyOp16
 70
     1
102
RTVSPropertyOp17
 70
     1
102
RTVSPropertyOp18
 70
     1
102
RTVSPropertyOp19
 70
     1
102
RTVSPropertyOp20
 70
     1
102
RTVSPropertyOp21
 70
     1
102
RTVSPropertyOp22
 70
     1
102
RTVSPropertyOp23
 70
     1
102
RTVSPropertyOp24
 70
     1
102
RTVSPropertyOp25
 70
     1
102
RTVSPropertyOp26
 70
     1
102
RTVSPropertyOp27
 70
     1
102
RTVSPropertyOp28
 70
     1
102
RTVSPropertyOp29
 70
     1
102
RTVSPropertyOp30
 70
     1
102
RTVSPropertyOp31
 70
     1
102
RTVSPropertyOp32
 70
     1
  0
XRECORD
  5
31C
102
{ACAD_REACTORS
330
31B
102
}
330
31B
100
AcDbXrecord
280
     1
102
RTVSPropertyOp0
 70
     1
102
RTVSPropertyOp1
 70
     1
102
RTVSPropertyOp2
 70
     1
102
RTVSPropertyOp3
 70
     1
102
RTVSPropertyOp4
 70
     1
102
RTVSPropertyOp5
 70
     1
102
RTVSPropertyOp6
 70
     1
102
RTVSPropertyOp7
 70
     1
102
RTVSPropertyOp8
 70
     1
102
RTVSPropertyOp9
 70
     1
102
RTVSPropertyOp10
 70
     1
102
RTVSPropertyOp11
 70
     1
102
RTVSPropertyOp12
 70
     1
102
RTVSPropertyOp13
 70
     1
102
RTVSPropertyOp14
 70
     1
102
RTVSPropertyOp15
 70
     1
102
RTVSPropertyOp16
 70
     1
102
RTVSPropertyOp17
 70
     1
102
RTVSPropertyOp18
 70
     1
102
RTVSPropertyOp19
 70
     1
102
RTVSPropertyOp20
 70
     1
102
RTVSPropertyOp21
 70
     1
102
RTVSPropertyOp22
 70
     1
102
RTVSPropertyOp23
 70
     1
102
RTVSPropertyOp24
 70
     1
102
RTVSPropertyOp25
 70
     1
102
RTVSPropertyOp26
 70
     1
102
RTVSPropertyOp27
 70
     1
102
RTVSPropertyOp28
 70
     1
102
RTVSPropertyOp29
 70
     1
102
RTVSPropertyOp30
 70
     1
102
RTVSPropertyOp31
 70
     1
102
RTVSPropertyOp32
 70
     1
  0
XRECORD
  5
31E
102
{ACAD_REACTORS
330
31D
102
}
330
31D
100
AcDbXrecord
280
     1
102
RTVSPropertyOp0
 70
     1
102
RTVSPropertyOp1
 70
     1
102
RTVSPropertyOp2
 70
     1
102
RTVSPropertyOp3
 70
     1
102
RTVSPropertyOp4
 70
     1
102
RTVSPropertyOp5
 70
     1
102
RTVSPropertyOp6
 70
     1
102
RTVSPropertyOp7
 70
     1
102
RTVSPropertyOp8
 70
     1
102
RTVSPropertyOp9
 70
     1
102
RTVSPropertyOp10
 70
     1
102
RTVSPropertyOp11
 70
     1
102
RTVSPropertyOp12
 70
     1
102
RTVSPropertyOp13
 70
     1
102
RTVSPropertyOp14
 70
     1
102
RTVSPropertyOp15
 70
     1
102
RTVSPropertyOp16
 70
     1
102
RTVSPropertyOp17
 70
     1
102
RTVSPropertyOp18
 70
     1
102
RTVSPropertyOp19
 70
     1
102
RTVSPropertyOp20
 70
     1
102
RTVSPropertyOp21
 70
     1
102
RTVSPropertyOp22
 70
     1
102
RTVSPropertyOp23
 70
     1
102
RTVSPropertyOp24
 70
     1
102
RTVSPropertyOp25
 70
     1
102
RTVSPropertyOp26
 70
     1
102
RTVSPropertyOp27
 70
     1
102
RTVSPropertyOp28
 70
     1
102
RTVSPropertyOp29
 70
     1
102
RTVSPropertyOp30
 70
     1
102
RTVSPropertyOp31
 70
     1
102
RTVSPropertyOp32
 70
     1
  0
XRECORD
  5
332
102
{ACAD_REACTORS
330
331
102
}
330
331
100
AcDbXrecord
280
     1
102
RTVSPropertyOp0
 70
     1
102
RTVSPropertyOp1
 70
     1
102
RTVSPropertyOp2
 70
     1
102
RTVSPropertyOp3
 70
     1
102
RTVSPropertyOp4
 70
     1
102
RTVSPropertyOp5
 70
     1
102
RTVSPropertyOp6
 70
     1
102
RTVSPropertyOp7
 70
     1
102
RTVSPropertyOp8
 70
     1
102
RTVSPropertyOp9
 70
     1
102
RTVSPropertyOp10
 70
     1
102
RTVSPropertyOp11
 70
     1
102
RTVSPropertyOp12
 70
     1
102
RTVSPropertyOp13
 70
     1
102
RTVSPropertyOp14
 70
     1
102
RTVSPropertyOp15
 70
     1
102
RTVSPropertyOp16
 70
     1
102
RTVSPropertyOp17
 70
     1
102
RTVSPropertyOp18
 70
     1
102
RTVSPropertyOp19
 70
     1
102
RTVSPropertyOp20
 70
     1
102
RTVSPropertyOp21
 70
     1
102
RTVSPropertyOp22
 70
     1
102
RTVSPropertyOp23
 70
     1
102
RTVSPropertyOp24
 70
     1
102
RTVSPropertyOp25
 70
     1
102
RTVSPropertyOp26
 70
     1
102
RTVSPropertyOp27
 70
     1
102
RTVSPropertyOp28
 70
     1
102
RTVSPropertyOp29
 70
     1
102
RTVSPropertyOp30
 70
     1
102
RTVSPropertyOp31
 70
     1
102
RTVSPropertyOp32
 70
     1
  0
XRECORD
  5
328
102
{ACAD_REACTORS
330
327
102
}
330
327
100
AcDbXrecord
280
     1
102
RTVSPropertyOp0
 70
     1
102
RTVSPropertyOp1
 70
     1
102
RTVSPropertyOp2
 70
     1
102
RTVSPropertyOp3
 70
     1
102
RTVSPropertyOp4
 70
     1
102
RTVSPropertyOp5
 70
     1
102
RTVSPropertyOp6
 70
     1
102
RTVSPropertyOp7
 70
     1
102
RTVSPropertyOp8
 70
     1
102
RTVSPropertyOp9
 70
     1
102
RTVSPropertyOp10
 70
     1
102
RTVSPropertyOp11
 70
     1
102
RTVSPropertyOp12
 70
     1
102
RTVSPropertyOp13
 70
     1
102
RTVSPropertyOp14
 70
     1
102
RTVSPropertyOp15
 70
     1
102
RTVSPropertyOp16
 70
     1
102
RTVSPropertyOp17
 70
     1
102
RTVSPropertyOp18
 70
     1
102
RTVSPropertyOp19
 70
     1
102
RTVSPropertyOp20
 70
     1
102
RTVSPropertyOp21
 70
     1
102
RTVSPropertyOp22
 70
     1
102
RTVSPropertyOp23
 70
     1
102
RTVSPropertyOp24
 70
     1
102
RTVSPropertyOp25
 70
     1
102
RTVSPropertyOp26
 70
     1
102
RTVSPropertyOp27
 70
     1
102
RTVSPropertyOp28
 70
     1
102
RTVSPropertyOp29
 70
     1
102
RTVSPropertyOp30
 70
     1
102
RTVSPropertyOp31
 70
     1
102
RTVSPropertyOp32
 70
     1
  0
XRECORD
  5
330
102
{ACAD_REACTORS
330
32F
102
}
330
32F
100
AcDbXrecord
280
     1
102
RTVSPropertyOp0
 70
     1
102
RTVSPropertyOp1
 70
     1
102
RTVSPropertyOp2
 70
     1
102
RTVSPropertyOp3
 70
     1
102
RTVSPropertyOp4
 70
     1
102
RTVSPropertyOp5
 70
     1
102
RTVSPropertyOp6
 70
     1
102
RTVSPropertyOp7
 70
     1
102
RTVSPropertyOp8
 70
     1
102
RTVSPropertyOp9
 70
     1
102
RTVSPropertyOp10
 70
     1
102
RTVSPropertyOp11
 70
     1
102
RTVSPropertyOp12
 70
     1
102
RTVSPropertyOp13
 70
     1
102
RTVSPropertyOp14
 70
     1
102
RTVSPropertyOp15
 70
     1
102
RTVSPropertyOp16
 70
     1
102
RTVSPropertyOp17
 70
     1
102
RTVSPropertyOp18
 70
     1
102
RTVSPropertyOp19
 70
     1
102
RTVSPropertyOp20
 70
     1
102
RTVSPropertyOp21
 70
     1
102
RTVSPropertyOp22
 70
     1
102
RTVSPropertyOp23
 70
     1
102
RTVSPropertyOp24
 70
     1
102
RTVSPropertyOp25
 70
     1
102
RTVSPropertyOp26
 70
     1
102
RTVSPropertyOp27
 70
     1
102
RTVSPropertyOp28
 70
     1
102
RTVSPropertyOp29
 70
     1
102
RTVSPropertyOp30
 70
     1
102
RTVSPropertyOp31
 70
     1
102
RTVSPropertyOp32
 70
     1
  0
ENDSEC
  0
SECTION
  2
THUMBNAILIMAGE
 90
    16364
310
28000000B40000005500000001000800000000000000000000000000000000000000000000000000FFFFFF00FF000000FFFF000000FF000000FFFF000000FF00FF00FF000000000080808000C0C0C000FF000000FF7F7F00A5000000A55252007F0000007F3F3F004C0000004C2626002600000026131300FF3F0000FF9F7F
310
00A5290000A56752007F1F00007F4F3F004C1300004C2F26002609000026171300FF7F0000FFBF7F00A5520000A57C52007F3F00007F5F3F004C2600004C39260026130000261C1300FFBF0000FFDF7F00A57C0000A59152007F5F00007F6F3F004C3900004C422600261C000026211300FFFF0000FFFF7F00A5A50000A5A5
310
52007F7F00007F7F3F004C4C00004C4C26002626000026261300BFFF0000DFFF7F007CA5000091A552005F7F00006F7F3F00394C0000424C26001C260000212613007FFF0000BFFF7F0052A500007CA552003F7F00005F7F3F00264C0000394C2600132600001C2613003FFF00009FFF7F0029A5000067A552001F7F00004F
310
7F3F00134C00002F4C2600092600001726130000FF00007FFF7F0000A5000052A55200007F00003F7F3F00004C0000264C2600002600001326130000FF3F007FFF9F0000A5290052A56700007F1F003F7F4F00004C1300264C2F00002609001326170000FF7F007FFFBF0000A5520052A57C00007F3F003F7F5F00004C2600
310
264C39000026130013261C0000FFBF007FFFDF0000A57C0052A59100007F5F003F7F6F00004C3900264C420000261C001326210000FFFF007FFFFF0000A5A50052A5A500007F7F003F7F7F00004C4C00264C4C00002626001326260000BFFF007FDFFF00007CA5005291A500005F7F003F6F7F0000394C0026424C00001C26
310
0013212600007FFF007FBFFF000052A500527CA500003F7F003F5F7F0000264C0026394C0000132600131C2600003FFF007F9FFF000029A5005267A500001F7F003F4F7F0000134C00262F4C0000092600131726000000FF007F7FFF000000A5005252A50000007F003F3F7F0000004C0026264C0000002600131326003F00
310
FF009F7FFF002900A5006752A5001F007F004F3F7F0013004C002F264C0009002600171326007F00FF00BF7FFF005200A5007C52A5003F007F005F3F7F0026004C0039264C00130026001C132600BF00FF00DF7FFF007C00A5009152A5005F007F006F3F7F0039004C0042264C001C00260021132600FF00FF00FF7FFF00A5
310
00A500A552A5007F007F007F3F7F004C004C004C264C002600260026132600FF00BF00FF7FDF00A5007C00A55291007F005F007F3F6F004C0039004C26420026001C0026132100FF007F00FF7FBF00A5005200A5527C007F003F007F3F5F004C0026004C2639002600130026131C00FF003F00FF7F9F00A5002900A5526700
310
7F001F007F3F4F004C0013004C262F002600090026131700000000002D2D2D005B5B5B0089898900B7B7B700B3B3B30000000000000000000000000000000000000000000000000000000000000000000000000000000000000000000000000000000000000000000000000000000000000000000000000000000000000000
310
00000000000000000000000000000000000000000000000000000000000000000000000000000000000000000000000000000000000000000000000000000000000000000000000000000000000000000000000000000000000000000000000000000000000000000000000000000000000000000000000000000000000000
310
00000000000000000000000000000000000000000000000000000000000000000000000000000000000000000000000000000000000000000000000000000000000000000000000000000000000007070707070707070707070707070707070707000000000000000000000000000000000000000000000000000000000000
310
00000000000000000000000000000000000000000000000000000000000000000000000000000000000000000000000000000000000000000000000000000000000000000000000000000000000000000000000000070707070707070707070707070707070707070000000000000000000000000000000000000000000000
310
00000007070700000000000000000000000000000707070000000000000000000000000000000000000000000000000000000000000000000000000000000000000000000000000000000000000000000000000000000000000000000000000000000000000000000000000000000000000000000000000000000000000000
310
00000000000000000000000707070000000000000000000000000000070707000000000000000000000000000000000000000000000000000007000000000000000000000000000000000707000000000000000000000000000000000000000000000000000000000000000000000000000000000000000000000000000000
310
00000000000000000000000000000000000000000000000000000000000000000000000000000000000000000000000000000000000000000000000000000000070707000000000000000000000000000007070000000000000000000000000000000000000000000000000000000700000000070707070707070700000000
310
07000000000000000000000000000000000000000000000000000000000000000000000000000000000000000000000000000000000000000000000000000000000000000000000000000000000000000000000000000000000000000000000000000000000000000000000000000000000000000000000700000707000000
310
00000007000007070000000000000000000000000000000000000000000000000000000007000000000700000000000000070000000700000000000000000000000000000000000000000000000000000000000000000000000000000000000000000000000000000000000000000000000000000000000000000000000000
310
00000000000000000000000000000000000000000000000000000000000000000000000000000000000000000007000007070707070707070707000700000000000000000000000000000000000000000000000000000000070707000707000700000000000707070007070700000000000000000000000000000000000000
310
00000000000000000000000000000000000000000000000000000000000000000000000000000000000000000000000000000000000000000000000000000000000000000000000000000000000000000000000000000000000000000000000000000700000707070707070707070700070000000000000000000000000000
310
00000000000000000000000000000707070007000700070000000707000700070707000000000000000000000000000000000000000000000000000000000000000000000000000000000000000000000000000000000000000000000000000000000000000000000000000000000000000000000000000000000000000000
310
00000000000000000000000000000000000000000000000007000007070707070707070707000700000000000000070707070707070707070707070700000000000000070707000700000707000007070000070007070700000000000000000000000000000000000000000000000000000000000000000000000000000000
310
00000000000000000000000000000000000000000000000000000000000000000000000000000000000000000000000000000000000000000000000000000000000000000000000000000000000700000707070707070707070700070000000000000007000000000000000000000000070000000000000007070700070000
310
00070707000700000700070707000000000000000000000000000000000000000000000000000000000000000000000000000000000000000000000000000000000000000000000000000000000000000000000000000000000000000000000000000000000000000000000000000000000000000000000000000000000000
310
00000007000007070707070707070707000700000000000000070000000000000000000000000700000000000000070707000700000000070007000000070007070700000000000000000000000000000000000000000000000000000000000000000000000000000000000000000000000000000000000000000000000000
310
00000000000000000000000000000000000000000000000000000000000000000000000000000000000000000000000000000000000000000700000707070707070707070700070000000000000007000000000000000000000000070000000000000007070700070000000707070007000007000707070000000000000000
310
00000000000000000000000000000000000000000000000000000000000000000000000000000000000000000000000000000000000000000000000000000000000000000000000000000000000000000000000000000000000000000000000000000000000000000000000000070000070707070707070707070007000000
310
00000000070000000000000000000000000700000000000000070707000700000707000007000700070007070700000000000000000000000000000000000000000000000000000000000000000000000000000000000000000000000000000000000000000000000000000000000000000000000000000000000000000000
310
00000000000000000000000000000000000000000000000000000000000000000000000700000707070707070707070700070000000000000007000000000000000000000000070000000000000007070700070007070000000007070007000707070000000000000000000000000000000000000000000000000000000000
310
00000000000000000000000000000000000000000000000000000000000000000000000000000000000000000000000000000000000000000000000000000000000000000000000000000000000000000000000000000000070000070707070707070707070007000000000000000700000000000000000000000007000000
310
00000000070707000707000700000000000707070007070700000000000000000000000000000000000000000000000000000000000000000000000000000000000000000000000000000000000000000000000000000000000000000000000000000000000000000000000000000000000000000000000000000000000000
310
00000000000000000000000000000700000707070707070707070700070000000000000007000000070707070707070000070000000000000000070000000007070707070707070700000007000000000000000000000000000000000000000000000000000000000000000000000000000000000000000000000000000000
310
00000000000000000000000000000000000000000000000000000000000000000000000000000000000000000000000000000000000000000000000000000000000000070000070707070707070707070007000000000000000700000007070707070707000007000000000000000007000000000000000000000000000000
310
00070000000000000000000000000000000000000000000000000000000000000000000000000000000000000000000000000000000000000000000000000000000000000000000000000000000000000000000000000000000000000000000000000000000000000000000000000000000000000000000007000007070000
310
00000000070700070000000000000007000000070700000000000000070000000000000000070000000000000000000000000000000007070000000000000000000000000000000000000000000000000000000000000000000000000000000000000000000000000000000000000000000000000000000000000000000000
310
00000000000000000000000000000000000000000000000000000000000000000000000000000000000000000707070000000000000000000000000000070700000000000700000000000000000000000007000000000000000707070000000000000000000000000000070707000000000000000000000000000000000000
310
00000000000000000000000000000000000000000000000000000000000000000000000000000000000000000000000000000000000000000000000000000000000000000000000000000000000000000000000000000000000000000000000000070707000000000000000000000000000007070700000000070000000000
310
00000000000000070000000000000000070000000000000000000000000000000007070000000000000000000000000000000000000000000000000000000000000000000000000000000000000000000000000000000000000000000000000000000000000000000000000000000000000000000000000000000000000000
310
00000000000000000000000000000000000000000000000707070000000000000000000000000000070707000000000700000000000000000000000007000000000000000007000000000000000000000000000000000700000000000000000000000000000000000000000000000000000000000000000000000000000000
310
00000000000000000000000000000000000000000000000000000000000000000000000000000000000000000000000000000000000000000000000000000000000000000000000000000000000007000000000000000000000000000707000000000000070000000000000000000000000700000000000000000707000000
310
07070707070707070700000007070000000000000000000000000000000000000000000000000000000000000000000000000000000000000000000000000000000000000000000000000000000000000000000000000000000000000000000000000000000000000000000000000000000000000000000000000000000000
310
00000000070000070707070707070707000007000000000000000707070707070707070707070707000000000000000707070007070007000000000007070700070707000000000000000000000000000000000000000000000000000000000000000000000000000000000000000000000000000000000000000000000000
310
00000000000000000000000000000000000000000000000000000000000000000000000000000000000000000000000000000000000000000007000707000000000000000707070700000000000000000000000000000000000000000000000000000000070707000700070007000000070700070007070700000000000000
310
00000000000000000000000000000000000000000000000000000000000000000000000000000000000000000000000000000000000000000000000000000000000000000000000000000000000000000000000000000000000000000000000000000000000000000000000000000700070007000000000007070007070000
310
00000000000000000000000000000000000000000000000000000707070007000007070000070700000700070707000000000000000000000000000000000000000000000000000000000000000000000000000000000000000000000000000000000000000000000000000000000000000000000000000000000000000000
310
00000000000000000000000000000000000000000000000000000000000000000000000007000700070707000007070000070700000000000000000000000000000000000000000000000000000000070707000700000007070700070000070007070700000000000000000000000000000000000000000000000000000000
310
00000000000000000000000000000000000000000000000000000000000000000000000000000000000000000000000000000000000000000000000000000000000000000000000000000000000000000000000000000000000700070000070007070700000007070000000000000000000000000000000000000000000000
310
00000000000707070007000000000700070000000700070707000000000000000000000000000000000000000000000000000000000000000000000000000000000000000000000000000000000000000000000000000000000000000000000000000000000000000000000000000000000000000000000000000000000000
310
00000000000000000000000000000007000700000007000700000000070700000000000000000000000000000000000000000000000000000000070707000700000007070700070000070007070700000000000000000000000000000000000000000000000000000000000000000000000000000000000000000000000000
310
00000000000000000000000000000000000000000000000000000000000000000000000000000000000000000000000000000000000000000000000000000000000000000700070000000707070000000007070000000000000000000000000000000000000000000000000000000007070700070000070700000700070007
310
00070707000000000000000000000000000000000000000000000000000000000000000000000000000000000000000000000000000000000000000000000000000000000000000000000000000000000000000000000000000000000000000000000000000000000000000000000000000000000000000000070007000007
310
07000007000000070700000000000000000000000000000000000000000000000000000000070000000700070700000000070700070000000700000000000000000000000000000000000000000000000000000000000000000000000000000000000000000000000000000000000000000000000000000000000000000000
310
00000000000000000000000000000000000000000000000000000000000000000000000000000000000000000000000700070007070000000707070007070000000000000000000000000000000000000000000000000000000007000000070700070000000000070707000000070000000000000000000000000000000000
310
00000000000000000000000000000000000000000000000000000000000000000000000000000000000000000000000000000000000000000000000000000000000000000000000000000000000000000000000000000000000000000000000000000000070007070700000000000700070707070000000000000000000000
310
00000000000000000000000000000000070000000000070000000000000007000000000700000000000000000000000000000000000000000000000000000000000000000000000000000000000000000000000000000000000000000000000000000000000000000000000000000000000000000000000000000000000000
310
00000000000000000000000000000000000000000000000007070700000700000000000000070000000707070000000000000000000000000000000000000000000000000700070000000007070707070707070000000007070700000000000000000000000000000000000000000000000000000000000000000000000000
310
00000000000000000000000000000000000000000000000000000000000000000000000000000000000000000000000000000000000000000000000000000000000000000000000000000000070707000000070707070707070707000000000707000000000000000000000000000000000000000000000007000707000000
310
00000000000000000000000000070700070000000000000000000000000000000000000000000000000000000000000000000000000000000000000000000000000000000000000000000000000000000000000000000000000000000000000000000000000000000000000000000000000000000000000000000000000000
310
00070007070000000000000000000000000000000007000700000000000000000000000000000000000000000000070000000000000000000000000000000000000000000000070000000000000000000000000000000000000000000000000000000000000000000000000000000000000000000000000000000000000000
310
00000000000000000000000000000000000000000000000000000000000000000000000000000000000000000000000000000000000700000000000000000000000000000000000000000000000700000000000000000000000000000000000000000700000000000000000000000000000000000000000000000000070000
310
00000000000000000000000000000000000000000000000000000000000000000000000000000000000000000000000000000000000000000000000000000000000000000000000000000000000000000000000000000000000000000000000000000000000000000007000007070700000000000000000000000000000000
310
07070700070000000000000000000000000000000000000700000000000000000000000000000000000000000000000000000007000000000000000000000000000000000000000000000000000000000000000000000000000000000000000000000000000000000000000000000000000000000000000000000000000000
310
00000000000000000000000000000000000000000000000000000000000007000007070000070007000000000000000000070700070000070000070000000000000000000000000000000007070707000000000000000000000000000000000000000000000007000700000000000000000000000000000000000000000000
310
00000000000000000000000000000000000000000000000000000000000000000000000000000000000000000000000000000000000000000000000000000000000000000000000000000000000000000000000707070007000000070700000000000000000007070700000007000707070000000000000000000000000000
310
00070700000000000000000000000000000000000000000000000000000007000000000000000000000000000000000000000000000000000000000000000000000000000000000000000000000000000000000000000000000000000000000000000000000000000000000000000000000000000000000000000000000000
310
00000000000000000007070700000700000700000000000000000000000007000007000007070700000000000000000000000000000000070000000000000000000000000000000000000000000000000000070000000000000000000000000000000000000000000000000000000000000000000000000000000000000000
310
00000000000000000000000000000000000000000000000000000000000000000000000000000000000000000000000000000000000000000000000000000007000000000707070000000000000000000000000707070000000007000000070707070707070700000000000007000000000000000000000000000000000000
310
00000000000000000700000000000000000000000000000000000000000000000000000000000000000000000000000000000000000000000000000000000000000000000000000000000000000000000000000000000000000000000000000000000000000000000000000000000000000000000700000000070700070700
310
00000000000000070000070700000000070000000700000707000007000000000000000700000000000000000000000000000000000000000000000007070000000000000000000000000000000000000000000000000000000000000000000000000000000000000000000000000000000000000000000000000000000000
310
00000000000000000000000000000000000000000000000000000000000000000000000000000000000007070000000000000707070000000000000000000000000000000700000000070000000000000700000000000000070000000000000000000000000000000000000000000000000700000000000000000000000000
310
00000000000000000000000000000000000000000000000000000000000000000000000000000000000000000000000000000000000000000000000000000000000000000000000000000000000000000000000000000000000000000000000007000000000000070007000000000000000000000000000000070000000007
310
00000000000007000000000000000700000000000000000000000000000000000000000000000007000000000000000000000000000000000000000000000000000000000000000000000000000000000000000000000000000000000000000000000000000000000000000000000000000000000000000000000000000000
310
00000000000000000000000000000000000000000000070000000000000700070000000000000000000000000000000700000000070007070707000700000000000000000700000000000000000000000000000000000000000000000700000000000000000000000000000000000000000000000000000000000000000000
310
00000000000000000000000000000000000000000000000000000000000000000000000000000000000000000000000000000000000000000000000000000000000000000000000000000007000000000000070007000000000000000000000000000007000000000007000700000007070000000000000000070000000000
310
00000000000000000000000000000000000007000000000000000000000000000000000000000000000000000000000000000000000000000000000000000000000000000000000000000000000000000000000000000000000000000000000000000000000000000000000000000000000000000000000000000000000000
310
00070000000000000700070000000000070707000000000000070000000000070007000000070700000000000000000700000000000000000000000000000000000000000000000700000000000000000000000000000000000000000000000000000000000000000000000000000000000000000000000000000000000000
310
00000000000000000000000000000000000000000000000000000000000000000000000000000000000000000000000000000000000007000000000000070007000000000007070700000000000007000000000007000707000707070000000000000000070000000000000000000000000000000000000000000000070000
310
00000000000000000000000000000000000000000000000000000000000000000000000000000000000000000000000000000000000000000000000000000000000000000000000000000000000000000000000000000000000000000000000000000000000000000000000700000000000007000700000000000000000000
310
00000000070000000000070000070700000700000000000000000700000000000000000000000000000000000000000000000700000000000000000000000000000000000000000000000000000000000000000000000000000000000000000000000000000000000000000000000000000000000000000000000000000000
310
00000000000000000000000000000000000000000000000000000000000000000007000000000000070007000000000000000000000000000007000000000007000000000000070000000000000000070000000000000000000000000000000000000000000000070000000000000000000000000000000000000000000000
310
00000000000000000000000000000000000000000000000000000000000000000000000000000000000000000000000000000000000000000000000000000000000000000000000000000000000000000000000000000700000000000007000700000000000000000000000000000700000000000700000000000007000000
310
00000000000700000000000000000000000000000000000000000000000700000000000000000000000000000000000000000000000000000000000000000000000000000000000000000000000000000000000000000000000000000000000000000000000000000000000000000000000000000000000000000000000000
310
00000000000000000000000007000000000000070007000000000000000000000000000007000000000000070707070707070000000000000007000000000000000000000000000000000000000000000000070000000000000000000000000000000000000000000000000000000000000000000000000000000000000000
310
00000000000000000000000000000000000000000000000000000000000000000000000000000000000000000000000000000000000000000000000000000000000700000000000007000700000000000000000000000000000007000000000000000000000000000000000000000700000000000000000000000000000000
310
00000000000000000700000000000000000000000000000000000000000000000000000000000000000000000000000000000000000000000000000000000000000000000000000000000000000000000000000000000000000000000000000000000000000000000000000000000000000000000000070000000000000707
310
07000000000000000000000000000000070000000000000000000000000000000000000007000000000000000000000000000000000000000000000000070700000000000000000000000000000000000000000000000000000000000000000000000000000000000000000000000000000000000000000000000000000000
310
00000000000000000000000000000000000000000000000000000000000000000000000000000000000000070700000000000000000000000000000000000000000000000007000000000000000000000000000000000000070000000000000000000000000000000000000000000000000000070000000000000000000000
310
00000000000000000000000000000000000000000000000000000000000000000000000000000000000000000000000000000000000000000000000000000000000000000000000000000000000000000000000000000000000000000000000007000000000000000000000000000000000000000000000000000007000000
310
00000000000000000000000000000700000000000000000000000000000000000000000000000000000700000000000000000000000000000000000000000000000000000000000000000000000000000000000000000000000000000000000000000000000000000000000000000000000000000000000000000000000000
310
00000000000000000000000000000000000000000000070000000000000000000000000000000000000000000000000000070000000000000000000000000000000007070000000000000000000000000000000000000000000000000000000700000000000000000000000000000000000000000000000000000000000000
310
00000000000000000000000000000000000000000000000000000000000000000000000000000000000000000000000000000000000000000000000000000000000000000000000000000700000000000000000707000000000000000007000000000000000007070000000000000000000000000000000700000000000000
310
00000000000000000000000000000000000000000007070000000000000000000000000000000000000000000000000000000000000000000000000000000000000000000000000000000000000000000000000000000000000000000000000000000000000000000000000000000000000000000000000000000000000007
310
07000000000000000007070000000000000000070000000000000000000700000000000000000000000000000700000000000000000000000000000000000000000000000000000000000007000000000000000000000000000000000000000000000000000000000000000000000000000000000000000000000000000000
310
00000000000000000000000000000000000000000000000000000000000000000000000000000000000000000000000000000000070000000000070700000000000000000000000000000000070700000000000700000000000000000000000000070707000000000000000007070000000000000707000000000000000007
310
07070000000000000000000000000000000000000000000000000000000000000000000000000000000000000000000000000000000000000000000000000000000000000000000000000000000000000000000000000000000000000000000000000000000000000007070700000707070000000000000000000000000000
310
00000707070000070707000000000000000000000000000700000000000000000000070707070707070707070000000000000000000007000000000000000000000000000000000000000000000000000000000000000000000000000000000000000000000000000000000000000000000000000000000000000000000000
310
00000000000000000000000000000000000000000000000000000000000000070000070700000700000007000000000000000707000000070000070700000700000000000000000000000000000700000000000000000007070707070707070707000000000000000000070000000000000000000000000000000000000000
310
00000000000000000000000000000000000000000000000000000000000000000000000000000000000000000000000000000000000000000000000000000000000000000000000000000000000000000000000007000707000000070000000707070707070707070700000007000000070700070000000000000000000000
310
00000007000000000000000000070707070707070707070000000000000000000700000000000000000000000000000000000000000000000000000000000000000000000000000000000000000000000000000000000000000000000000000000000000000000000000000000000000000000000000000000000000000000
310
00000000000000000000000707070007070707000000070000000000000700000707070700000707070000000000000000000000000000000700000000000000000007070707070707070707000000000000000000070000000000000000000000000000000000000000000000000000000000000000000000000000000000
310
00000000000000000000000000000000000000000000000000000000000000000000000000000000000000000000000000000000000000000000000000000000070007070000000700000007000000000000070000000700000707070007000000000000000000000000000000070007070000000000000707070707070707
310
07070000000000000707000700000000000000000000000000000000000000000000000000000000000000000000000000000000000000000000000000000000000000000000000000000000000000000000000000000000000000000000000000000000000000000000000000000000000000000007000707000000000000
310
00070000000000000700000000000000070000070000000000000000000000000000000007070700000000000007070707070707070707000000000000070707000000000000000000000000000000000000000000000000000000000000000000000000000000000000000000000000000000000000000000000000000000
310
00000000000000000000000000000000000000000000000000000000000000000000000000000000000000000707070000000000000007000000000000070000000000000007070700000000000000000000000000000000000700000000000000000707070707070707070700000000000000000700000000000000000000
310
00000000000000000000000000000000000000000000000000000000000000000000000000000000000000000000000000000000000000000000000000000000000000000000000000000000000000000000000000000000000000000000000000070000000000000000000700000000000007000000000000000000070000
310
00000000000000000000000000000007000000000000000007070707070707070707000000000000000007000000000000000000000000000000000000000000000000000000000000000000000000000000000000000000000000000000000000000000000000000000000000000000000000000000000000000000000000
310
00000000000000000000000000000000000000000000000700000000000000000007000000000000070000000000000000000700000000000000000000000000000000000700000000000000000707070707070707070700000000000000000700000000000000000000000000000000000000000000000000000000000000
310
00000000000000000000000000000000000000000000000000000000000000000000000000000000000000000000000000000000000000000000000000000000000000000000000000000000070000000000000000000700000000000007000000000000000000070000000000000000000000000000000000070000000000
310
00000007070707070707070707000000000000000007000000000000000000000000000000000000000000000000000000000000000000000000000000000000000000000000000000000000000000000000000000000000000000000000000000000000000000000000000000000000000000000000000000000000000000
310
00000700000000000000000707070707070707070700000000000000000700000000000000000000000000000000000700000000000000000707070707070707070700000000000000000700000000000000000000000000000000000000000000000000000000000000000000000000000000000000000000000000000000
310
00000000000000000000000000000000000000000000000000000000000000000000000000000000000000000000000000000000000000070000000000000000070000000000000007070000000000000000070000000000000000000000000000000000070000000000000000000000000000000000000000000000000000
310
07000000000000000000000000000000000000000000000000000000000000000000000000000000000000000000000000000000000000000000000000000000000000000000000000000000000000000000000000000000000000000000000000000000000000000000000007000000000000000000000000000007070707
310
07070000000000000700000000000000000000000000000000000700000000000000000000000000000000000000000000000000000700000000000000000000000000000000000000000000000000000000000000000000000000000000000000000000000000000000000000000000000000000000000000000000000000
310
00000000000000000000000000000000000000000000000000000000000000000000070000000000000000000000000000070707070707000000000000070000000000000000000000000000000000070000000000000000000000000000000000000000000000000000070000000000000000000000000000000000000000
310
00000000000000000000000000000000000000000000000000000000000000000000000000000000000000000000000000000000000000000000000000000000000000000000000000000000000000000000000000000007000000000000000000000000000007070707070700000000000007000000000000000000000000
310
00000000000700000000000000000000000000000000000000000000000000000700000000000000000000000000000000000000000000000000000000000000000000000000000000000000000000000000000000000000000000000000000000000000000000000000000000000000000000000000000000000000000000
310
00000000000000000000000000070000000000000000000000000000070707070707000000000000070000000000000000000000000000000000070000000000000000000000070700070707070707000707000000070000000000000000000000000000000000000000000000000000000000000000000000000000000000
310
00000000000000000000000000000000000000000000000000000000000000000000000000000000000000000000000000000000000000000000000000000000000007000000000000000000000007000000000000000000070700000007000000000000000000000000000000000007000000000000000000000000000007
310
07070707070000000000000700000000000000000000000000000000000000000000000000000000000000000000000000000000000000000000000000000000000000000000000000000000000000000000000000000000000000000000000000000000000000000000000000000000000000000000000707070000000007
310
07070707070707070707070707070707070707000000000000000000000000000000000000070000000000000000000000000000070707070707000000000000070000000000000000000000000000000000000000000000000000000000000000000000000000000000000000000000000000000000000000000000000000
310
00000000000000000000000000000000000000000000000000000000000000000000000000000000000000000000000707000000070000000000000000000000000000000000000000000000000000000000000000000000000007000000000000000000000000000007070707070700000000000007000000000000000000
310
00000000000000000000000000000000000000000000000000000000000000000000000000000000000000000000000000000000000000000000000000000000000000000000000000000000000000000000000000000000000000000000000000000000000700000007000000000000000000000000000000000000000000
310
00000000000000000000000000000000070000000000000000000000000000000000000000000000000000070000000000000000000000000000000000000000000000000000000000000000000000000000000000000000000000000000000000000000000000000000000000000000000000000000000000000000000000
310
00000000000000000000000000000000000000000000000000000007000000070000000000000000000000000000000000000000000000000000000000000000000000000007000000000000000000000000000000000000000000000000000007000000000000000000000000000000000000000000000000000000000000
310
00000000000000000000000000000000000000000000000000000000000000000000000000000000000000000000000000000000000000000000000000000000000000000000000000000000000000000700000007000000000000000000000000000000000000000000000000000000000000000000000000000707070707
310
07070707070000000000000000000000000000000000070000000000000000000000000000000000000000000000000000000000000000000000000000000000000000000000000000000000000000000000000000000000000000000000000000000000000000000000000000000000000000000000000000000000000000
310
00000000000007070707070000000000000000000000000000000000000000000000000000000000000000000000000000070707070707070707070000000000000000000000000000000007000000000000000000000000000000000000000000000000000000000000000000000000000000000000000000000000000000
310
00000000000000000000000000000000000000000000000000000000000000000000000000000000000000000000000000000000000000000000000707070707000000000000000000000000000000000000000000000000000000000000000000000000000000000000000000000007000000000000000000000000000000
310
00070000000000000000000000000000000000000000000000000000000000000000000000000000000000000000000000000000000000000000000000000000000000000000000000000000000000000000000000000000000000000000000000000000000000000000000000000000000000000000000000000000000000
310
000000000000000000000000000000000000000000000000000000000000000000000000000707070707070707070707070707070707070000000000000000000000000000000000000000000000000000000000000000000000000000000000000000000000000000000000
  0
ENDSEC
  0
EOF
