  0
SECTION
  2
HEADER
  9
$ACADVER
  1
AC1009
  9
$EXTMIN
 10
5.66013171
 20
9.34884194
 30
0.0
  9
$EXTMAX
 10
486.06409534
 20
467.23058444
 30
0.0
  0
ENDSEC
  0
SECTION
  2
TABLES
  0
TABLE
  2
LAYER
 70
1
 0
LAYER
 2
По умолчанию
 70
0
 62
1
 6
CONTINUOUS
 0
ENDTAB
 0
ENDSEC
  0
SECTION
  2
ENTITIES
  0
POLYLINE
  8
По умолчанию
 66
   1
 39
0.000000
 70
    1
  0
VERTEX
  8
0
 10
88.17951977
 20
393.83406766
  0
VERTEX
  8
0
 10
89.68537100
 20
300.61236763
  0
VERTEX
  8
0
 10
89.70697430
 20
300.28471114
  0
VERTEX
  8
0
 10
89.74597268
 20
299.96906148
  0
VERTEX
  8
0
 10
89.80211557
 20
299.66539353
  0
VERTEX
  8
0
 10
89.87515237
 20
299.37368220
  0
VERTEX
  8
0
 10
89.96483248
 20
299.09390236
  0
VERTEX
  8
0
 10
90.07090532
 20
298.82602893
  0
VERTEX
  8
0
 10
90.19312030
 20
298.57003678
  0
VERTEX
  8
0
 10
90.33122682
 20
298.32590081
  0
VERTEX
  8
0
 10
90.48497430
 20
298.09359593
  0
VERTEX
  8
0
 10
90.65411213
 20
297.87309701
  0
VERTEX
  8
0
 10
90.83838973
 20
297.66437896
  0
VERTEX
  8
0
 10
91.03755652
 20
297.46741666
  0
VERTEX
  8
0
 10
91.25136188
 20
297.28218502
  0
VERTEX
  8
0
 10
91.47955524
 20
297.10865892
  0
VERTEX
  8
0
 10
91.72188601
 20
296.94681326
  0
VERTEX
  8
0
 10
91.97810358
 20
296.79662293
  0
VERTEX
  8
0
 10
92.24795738
 20
296.65806282
  0
VERTEX
  8
0
 10
92.53119680
 20
296.53110784
  0
VERTEX
  8
0
 10
92.82757126
 20
296.41573286
  0
VERTEX
  8
0
 10
93.13683016
 20
296.31191280
  0
VERTEX
  8
0
 10
93.79299893
 20
296.13883695
  0
VERTEX
  8
0
 10
94.49769839
 20
296.01167945
  0
VERTEX
  8
0
 10
95.24892379
 20
295.93023945
  0
VERTEX
  8
0
 10
96.04467041
 20
295.89431609
  0
VERTEX
  8
0
 10
96.88293351
 20
295.90370851
  0
VERTEX
  8
0
 10
97.76170835
 20
295.95821588
  0
VERTEX
  8
0
 10
98.32304761
 20
296.01542593
  0
VERTEX
  8
0
 10
99.09854317
 20
296.11271512
  0
VERTEX
  8
0
 10
100.07295540
 20
296.25406882
  0
VERTEX
  8
0
 10
101.23104466
 20
296.44347238
  0
VERTEX
  8
0
 10
102.55757134
 20
296.68491119
  0
VERTEX
  8
0
 10
104.03729580
 20
296.98237060
  0
VERTEX
  8
0
 10
105.65497843
 20
297.33983599
  0
VERTEX
  8
0
 10
107.39537958
 20
297.76129273
  0
VERTEX
  8
0
 10
109.24325964
 20
298.25072618
  0
VERTEX
  8
0
 10
111.18337898
 20
298.81212171
  0
VERTEX
  8
0
 10
113.20049797
 20
299.44946469
  0
VERTEX
  8
0
 10
114.23316995
 20
299.79786190
  0
VERTEX
  8
0
 10
115.27937698
 20
300.16674049
  0
VERTEX
  8
0
 10
116.33721411
 20
300.55659862
  0
VERTEX
  8
0
 10
117.40477639
 20
300.96793447
  0
VERTEX
  8
0
 10
118.48015886
 20
301.40124621
  0
VERTEX
  8
0
 10
119.56145657
 20
301.85703201
  0
VERTEX
  8
0
 10
120.64676456
 20
302.33579004
  0
VERTEX
  8
0
 10
121.73417788
 20
302.83801847
  0
VERTEX
  8
0
 10
122.82179159
 20
303.36421547
  0
VERTEX
  8
0
 10
123.90770072
 20
303.91487922
  0
VERTEX
  8
0
 10
124.99000032
 20
304.49050788
  0
VERTEX
  8
0
 10
126.06678544
 20
305.09159963
  0
VERTEX
  8
0
 10
127.13615112
 20
305.71865264
  0
VERTEX
  8
0
 10
128.19619242
 20
306.37216507
  0
VERTEX
  8
0
 10
129.24500437
 20
307.05263510
  0
VERTEX
  8
0
 10
130.28068203
 20
307.76056090
  0
VERTEX
  8
0
 10
131.30132044
 20
308.49644064
  0
VERTEX
  8
0
 10
132.30501465
 20
309.26077250
  0
VERTEX
  8
0
 10
133.28985970
 20
310.05405464
  0
VERTEX
  8
0
 10
134.25395065
 20
310.87678523
  0
VERTEX
  8
0
 10
135.19538253
 20
311.72946244
  0
VERTEX
  8
0
 10
136.11225040
 20
312.61258445
  0
VERTEX
  8
0
 10
137.00264930
 20
313.52664943
  0
VERTEX
  8
0
 10
137.86467427
 20
314.47215555
  0
VERTEX
  8
0
 10
138.69642037
 20
315.44960098
  0
VERTEX
  8
0
 10
139.49598264
 20
316.45948388
  0
VERTEX
  8
0
 10
140.26145613
 20
317.50230244
  0
VERTEX
  8
0
 10
140.99093589
 20
318.57855482
  0
VERTEX
  8
0
 10
141.68251695
 20
319.68873919
  0
VERTEX
  8
0
 10
142.33429437
 20
320.83335373
  0
VERTEX
  8
0
 10
142.94436320
 20
322.01289660
  0
VERTEX
  8
0
 10
143.51081847
 20
323.22786598
  0
VERTEX
  8
0
 10
144.03175524
 20
324.47876004
  0
VERTEX
  8
0
 10
144.50526856
 20
325.76607694
  0
VERTEX
  8
0
 10
144.92945347
 20
327.09031486
  0
VERTEX
  8
0
 10
145.12245247
 20
327.76643489
  0
VERTEX
  8
0
 10
145.30240501
 20
328.45197198
  0
VERTEX
  8
0
 10
145.46907297
 20
329.14698841
  0
VERTEX
  8
0
 10
145.62221824
 20
329.85154645
  0
VERTEX
  8
0
 10
145.76160269
 20
330.56570838
  0
VERTEX
  8
0
 10
145.88698820
 20
331.28953646
  0
VERTEX
  8
0
 10
145.99813665
 20
332.02309297
  0
VERTEX
  8
0
 10
146.09480993
 20
332.76644017
  0
VERTEX
  8
0
 10
146.17676992
 20
333.51964035
  0
VERTEX
  8
0
 10
146.24377849
 20
334.28275576
  0
VERTEX
  8
0
 10
146.29559753
 20
335.05584868
  0
VERTEX
  8
0
 10
146.33198892
 20
335.83898139
  0
VERTEX
  8
0
 10
146.35271453
 20
336.63221615
  0
VERTEX
  8
0
 10
146.35753626
 20
337.43561524
  0
VERTEX
  8
0
 10
146.31821877
 20
349.12815358
  0
VERTEX
  8
0
 10
146.29976362
 20
358.51871681
  0
VERTEX
  8
0
 10
146.30618281
 20
371.50399225
  0
VERTEX
  8
0
 10
146.33827871
 20
378.61159027
  0
VERTEX
  8
0
 10
146.35753626
 20
382.06165962
  0
VERTEX
  8
0
 10
146.33284295
 20
382.89685802
  0
VERTEX
  8
0
 10
146.25784394
 20
383.83128893
  0
VERTEX
  8
0
 10
146.13116061
 20
384.85670594
  0
VERTEX
  8
0
 10
145.95141434
 20
385.96486264
  0
VERTEX
  8
0
 10
145.71722653
 20
387.14751263
  0
VERTEX
  8
0
 10
145.42721855
 20
388.39640952
  0
VERTEX
  8
0
 10
145.08001178
 20
389.70330689
  0
VERTEX
  8
0
 10
144.67422762
 20
391.05995835
  0
VERTEX
  8
0
 10
144.20848744
 20
392.45811748
  0
VERTEX
  8
0
 10
143.68141262
 20
393.88953790
  0
VERTEX
  8
0
 10
143.09162456
 20
395.34597319
  0
VERTEX
  8
0
 10
142.43774463
 20
396.81917696
  0
VERTEX
  8
0
 10
141.71839422
 20
398.30090279
  0
VERTEX
  8
0
 10
141.33373677
 20
399.04238448
  0
VERTEX
  8
0
 10
140.93219472
 20
399.78290429
  0
VERTEX
  8
0
 10
140.51359573
 20
400.52143141
  0
VERTEX
  8
0
 10
140.07776749
 20
401.25693505
  0
VERTEX
  8
0
 10
139.62453767
 20
401.98838441
  0
VERTEX
  8
0
 10
139.15373394
 20
402.71474867
  0
VERTEX
  8
0
 10
138.66518397
 20
403.43499706
  0
VERTEX
  8
0
 10
138.15871544
 20
404.14809876
  0
VERTEX
  8
0
 10
137.63415601
 20
404.85302297
  0
VERTEX
  8
0
 10
137.09133337
 20
405.54873889
  0
VERTEX
  8
0
 10
136.53007519
 20
406.23421573
  0
VERTEX
  8
0
 10
135.95020913
 20
406.90842268
  0
VERTEX
  8
0
 10
135.35156287
 20
407.57032894
  0
VERTEX
  8
0
 10
134.73396408
 20
408.21890372
  0
VERTEX
  8
0
 10
134.09724044
 20
408.85311620
  0
VERTEX
  8
0
 10
133.44121963
 20
409.47193560
  0
VERTEX
  8
0
 10
132.76572930
 20
410.07433111
  0
VERTEX
  8
0
 10
132.07059714
 20
410.65927193
  0
VERTEX
  8
0
 10
131.35565082
 20
411.22572725
  0
VERTEX
  8
0
 10
130.62071801
 20
411.77266629
  0
VERTEX
  8
0
 10
129.86562638
 20
412.29905824
  0
VERTEX
  8
0
 10
129.09020361
 20
412.80387229
  0
VERTEX
  8
0
 10
128.29427737
 20
413.28607766
  0
VERTEX
  8
0
 10
127.47767534
 20
413.74464353
  0
VERTEX
  8
0
 10
126.64022518
 20
414.17853911
  0
VERTEX
  8
0
 10
125.78175457
 20
414.58673360
  0
VERTEX
  8
0
 10
124.90209118
 20
414.96819619
  0
VERTEX
  8
0
 10
124.00106268
 20
415.32189610
  0
VERTEX
  8
0
 10
123.07849676
 20
415.64680250
  0
VERTEX
  8
0
 10
122.13422107
 20
415.94188462
  0
VERTEX
  8
0
 10
121.16806330
 20
416.20611164
  0
VERTEX
  8
0
 10
120.17985112
 20
416.43845276
  0
VERTEX
  8
0
 10
119.16941219
 20
416.63787719
  0
VERTEX
  8
0
 10
118.13657420
 20
416.80335413
  0
VERTEX
  8
0
 10
117.08116481
 20
416.93385277
  0
VERTEX
  8
0
 10
116.00301170
 20
417.02834231
  0
VERTEX
  8
0
 10
114.90194255
 20
417.08579195
  0
VERTEX
  8
0
 10
113.77778501
 20
417.10517090
  0
VERTEX
  8
0
 10
112.56542449
 20
417.08830418
  0
VERTEX
  8
0
 10
111.39193400
 20
417.03841420
  0
VERTEX
  8
0
 10
110.25668067
 20
416.95656622
  0
VERTEX
  8
0
 10
109.15903158
 20
416.84382550
  0
VERTEX
  8
0
 10
108.09835383
 20
416.70125733
  0
VERTEX
  8
0
 10
107.07401453
 20
416.52992696
  0
VERTEX
  8
0
 10
106.08538076
 20
416.33089965
  0
VERTEX
  8
0
 10
105.13181963
 20
416.10524068
  0
VERTEX
  8
0
 10
104.21269824
 20
415.85401532
  0
VERTEX
  8
0
 10
103.32738368
 20
415.57828882
  0
VERTEX
  8
0
 10
102.47524306
 20
415.27912646
  0
VERTEX
  8
0
 10
101.65564347
 20
414.95759350
  0
VERTEX
  8
0
 10
100.86795201
 20
414.61475521
  0
VERTEX
  8
0
 10
100.11153578
 20
414.25167686
  0
VERTEX
  8
0
 10
99.38576188
 20
413.86942370
  0
VERTEX
  8
0
 10
98.68999741
 20
413.46906102
  0
VERTEX
  8
0
 10
98.02360946
 20
413.05165407
  0
VERTEX
  8
0
 10
97.38596513
 20
412.61826812
  0
VERTEX
  8
0
 10
96.77643153
 20
412.16996844
  0
VERTEX
  8
0
 10
96.19437574
 20
411.70782030
  0
VERTEX
  8
0
 10
95.63916488
 20
411.23288895
  0
VERTEX
  8
0
 10
95.11016604
 20
410.74623967
  0
VERTEX
  8
0
 10
94.60674631
 20
410.24893773
  0
VERTEX
  8
0
 10
94.12827279
 20
409.74204839
  0
VERTEX
  8
0
 10
93.67411259
 20
409.22663692
  0
VERTEX
  8
0
 10
93.24363280
 20
408.70376858
  0
VERTEX
  8
0
 10
92.83620053
 20
408.17450864
  0
VERTEX
  8
0
 10
92.45118286
 20
407.63992237
  0
VERTEX
  8
0
 10
92.08794690
 20
407.10107503
  0
VERTEX
  8
0
 10
91.74585974
 20
406.55903189
  0
VERTEX
  8
0
 10
91.42428849
 20
406.01485822
  0
VERTEX
  8
0
 10
91.12260025
 20
405.46961928
  0
VERTEX
  8
0
 10
90.84016210
 20
404.92438034
  0
VERTEX
  8
0
 10
90.57634116
 20
404.38020667
  0
VERTEX
  8
0
 10
90.10201926
 20
403.29931619
  0
VERTEX
  8
0
 10
89.69457135
 20
402.23546998
  0
VERTEX
  8
0
 10
89.34893422
 20
401.19719017
  0
VERTEX
  8
0
 10
89.06004464
 20
400.19299888
  0
VERTEX
  8
0
 10
88.82283941
 20
399.23141826
  0
VERTEX
  8
0
 10
88.63225532
 20
398.32097044
  0
VERTEX
  8
0
 10
88.48322916
 20
397.47017754
  0
VERTEX
  8
0
 10
88.37069771
 20
396.68756170
  0
VERTEX
  8
0
 10
88.28959776
 20
395.98164506
  0
VERTEX
  8
0
 10
88.23486610
 20
395.36094974
  0
VERTEX
  8
0
 10
88.20143952
 20
394.83399788
  0
VERTEX
  8
0
 10
88.17824876
 20
394.09541306
  0
VERTEX
  8
0
 10
88.17951977
 20
393.83406766
  0
SEQEND
  0
POLYLINE
  8
По умолчанию
 66
   1
 39
0.000000
 70
    1
  0
VERTEX
  8
0
 10
96.63585080
 20
362.51194841
 42
-0.41421356
  0
VERTEX
  8
0
 10
92.63592280
 20
366.51187641
 42
-0.41421356
  0
VERTEX
  8
0
 10
96.63585080
 20
370.51180441
 42
-0.41421356
  0
VERTEX
  8
0
 10
100.63577880
 20
366.51187641
 42
-0.41421356
  0
VERTEX
  8
0
 10
96.63585080
 20
362.51194841
  0
SEQEND
  0
POLYLINE
  8
По умолчанию
 66
   1
 39
0.000000
 70
    1
  0
VERTEX
  8
0
 10
269.23870294
 20
347.40275634
 42
-0.41421356
  0
VERTEX
  8
0
 10
267.23865294
 20
349.40280634
 42
-0.41421356
  0
VERTEX
  8
0
 10
269.23870294
 20
351.40285634
 42
-0.41421356
  0
VERTEX
  8
0
 10
271.23875294
 20
349.40280634
 42
-0.41421356
  0
VERTEX
  8
0
 10
269.23870294
 20
347.40275634
  0
SEQEND
  0
POLYLINE
  8
По умолчанию
 66
   1
 39
0.000000
 70
    1
  0
VERTEX
  8
0
 10
269.23870294
 20
405.25831234
 42
-0.41421356
  0
VERTEX
  8
0
 10
267.23865294
 20
407.25836234
 42
-0.41421356
  0
VERTEX
  8
0
 10
269.23870294
 20
409.25841234
 42
-0.41421356
  0
VERTEX
  8
0
 10
271.23875294
 20
407.25836234
 42
-0.41421356
  0
VERTEX
  8
0
 10
269.23870294
 20
405.25831234
  0
SEQEND
  0
POLYLINE
  8
По умолчанию
 66
   1
 39
0.000000
 70
    1
  0
VERTEX
  8
0
 10
222.84842494
 20
436.21387234
 42
-0.41421356
  0
VERTEX
  8
0
 10
219.34837994
 20
439.71391734
 42
-0.41421356
  0
VERTEX
  8
0
 10
222.84842494
 20
443.21396234
 42
-0.41421356
  0
VERTEX
  8
0
 10
226.34846994
 20
439.71391734
 42
-0.41421356
  0
VERTEX
  8
0
 10
222.84842494
 20
436.21387234
  0
SEQEND
  0
POLYLINE
  8
По умолчанию
 66
   1
 39
0.000000
 70
    1
  0
VERTEX
  8
0
 10
245.16691843
 20
394.88500648
  0
VERTEX
  8
0
 10
243.66106719
 20
301.66330645
  0
VERTEX
  8
0
 10
243.63946439
 20
301.33564997
  0
VERTEX
  8
0
 10
243.60046741
 20
301.02000031
  0
VERTEX
  8
0
 10
243.54432675
 20
300.71633236
  0
VERTEX
  8
0
 10
243.47129290
 20
300.42462102
  0
VERTEX
  8
0
 10
243.38161636
 20
300.14484119
  0
VERTEX
  8
0
 10
243.27554764
 20
299.87696775
  0
VERTEX
  8
0
 10
243.15333722
 20
299.62097561
  0
VERTEX
  8
0
 10
243.01523560
 20
299.37683964
  0
VERTEX
  8
0
 10
242.86149328
 20
299.14453475
  0
VERTEX
  8
0
 10
242.69236076
 20
298.92403584
  0
VERTEX
  8
0
 10
242.50808854
 20
298.71531778
  0
VERTEX
  8
0
 10
242.30892710
 20
298.51835549
  0
VERTEX
  8
0
 10
242.09512695
 20
298.33312385
  0
VERTEX
  8
0
 10
241.86693859
 20
298.15959775
  0
VERTEX
  8
0
 10
241.62461251
 20
297.99775208
  0
VERTEX
  8
0
 10
241.36839921
 20
297.84756175
  0
VERTEX
  8
0
 10
241.09854919
 20
297.70900165
  0
VERTEX
  8
0
 10
240.81531293
 20
297.58204666
  0
VERTEX
  8
0
 10
240.51894095
 20
297.46667169
  0
VERTEX
  8
0
 10
240.20968374
 20
297.36285162
  0
VERTEX
  8
0
 10
239.55351559
 20
297.18977578
  0
VERTEX
  8
0
 10
238.84881248
 20
297.06261828
  0
VERTEX
  8
0
 10
238.09757837
 20
296.98117828
  0
VERTEX
  8
0
 10
237.30181725
 20
296.94525491
  0
VERTEX
  8
0
 10
236.46353308
 20
296.95464734
  0
VERTEX
  8
0
 10
235.58472985
 20
297.00915470
  0
VERTEX
  8
0
 10
235.02340623
 20
297.06636476
  0
VERTEX
  8
0
 10
234.24792531
 20
297.16365395
  0
VERTEX
  8
0
 10
233.27352671
 20
297.30500764
  0
VERTEX
  8
0
 10
232.11545006
 20
297.49441121
  0
VERTEX
  8
0
 10
230.78893499
 20
297.73585001
  0
VERTEX
  8
0
 10
229.30922112
 20
298.03330943
  0
VERTEX
  8
0
 10
227.69154808
 20
298.39077482
  0
VERTEX
  8
0
 10
225.95115551
 20
298.81223155
  0
VERTEX
  8
0
 10
224.10328302
 20
299.30166500
  0
VERTEX
  8
0
 10
222.16317024
 20
299.86306053
  0
VERTEX
  8
0
 10
220.14605680
 20
300.50040352
  0
VERTEX
  8
0
 10
219.11338722
 20
300.84880073
  0
VERTEX
  8
0
 10
218.06718233
 20
301.21767931
  0
VERTEX
  8
0
 10
217.00934710
 20
301.60753745
  0
VERTEX
  8
0
 10
215.94178646
 20
302.01887330
  0
VERTEX
  8
0
 10
214.86640538
 20
302.45218504
  0
VERTEX
  8
0
 10
213.78510881
 20
302.90797084
  0
VERTEX
  8
0
 10
212.69980170
 20
303.38672887
  0
VERTEX
  8
0
 10
211.61238900
 20
303.88895730
  0
VERTEX
  8
0
 10
210.52477568
 20
304.41515430
  0
VERTEX
  8
0
 10
209.43886667
 20
304.96581805
  0
VERTEX
  8
0
 10
208.35656695
 20
305.54144671
  0
VERTEX
  8
0
 10
207.27978145
 20
306.14253846
  0
VERTEX
  8
0
 10
206.21041513
 20
306.76959146
  0
VERTEX
  8
0
 10
205.15037295
 20
307.42310390
  0
VERTEX
  8
0
 10
204.10155986
 20
308.10357393
  0
VERTEX
  8
0
 10
203.06588082
 20
308.81149973
  0
VERTEX
  8
0
 10
202.04524077
 20
309.54737947
  0
VERTEX
  8
0
 10
201.04154466
 20
310.31171133
  0
VERTEX
  8
0
 10
200.05669747
 20
311.10499346
  0
VERTEX
  8
0
 10
199.09260412
 20
311.92772405
  0
VERTEX
  8
0
 10
198.15116959
 20
312.78040127
  0
VERTEX
  8
0
 10
197.23429882
 20
313.66352328
  0
VERTEX
  8
0
 10
196.34389677
 20
314.57758826
  0
VERTEX
  8
0
 10
195.48186839
 20
315.52309438
  0
VERTEX
  8
0
 10
194.65011863
 20
316.50053980
  0
VERTEX
  8
0
 10
193.85055245
 20
317.51042271
  0
VERTEX
  8
0
 10
193.08507479
 20
318.55324127
  0
VERTEX
  8
0
 10
192.35559063
 20
319.62949365
  0
VERTEX
  8
0
 10
191.66400489
 20
320.73967802
  0
VERTEX
  8
0
 10
191.01222255
 20
321.88429256
  0
VERTEX
  8
0
 10
190.40214856
 20
323.06383543
  0
VERTEX
  8
0
 10
189.83568785
 20
324.27880481
  0
VERTEX
  8
0
 10
189.31474540
 20
325.52969886
  0
VERTEX
  8
0
 10
188.84122616
 20
326.81701577
  0
VERTEX
  8
0
 10
188.41703507
 20
328.14125369
  0
VERTEX
  8
0
 10
188.22403288
 20
328.81737371
  0
VERTEX
  8
0
 10
188.04407709
 20
329.50291081
  0
VERTEX
  8
0
 10
187.87740582
 20
330.19792724
  0
VERTEX
  8
0
 10
187.72425718
 20
330.90248528
  0
VERTEX
  8
0
 10
187.58486929
 20
331.61664721
  0
VERTEX
  8
0
 10
187.45948028
 20
332.34047529
  0
VERTEX
  8
0
 10
187.34832826
 20
333.07403180
  0
VERTEX
  8
0
 10
187.25165136
 20
333.81737900
  0
VERTEX
  8
0
 10
187.16968768
 20
334.57057917
  0
VERTEX
  8
0
 10
187.10267535
 20
335.33369459
  0
VERTEX
  8
0
 10
187.05085250
 20
336.10678751
  0
VERTEX
  8
0
 10
187.01445723
 20
336.88992022
  0
VERTEX
  8
0
 10
186.99372767
 20
337.68315498
  0
VERTEX
  8
0
 10
186.98890194
 20
338.48655406
  0
VERTEX
  8
0
 10
187.02826888
 20
350.17909241
  0
VERTEX
  8
0
 10
187.04674724
 20
359.56965563
  0
VERTEX
  8
0
 10
187.04031999
 20
372.55493107
  0
VERTEX
  8
0
 10
187.00818371
 20
379.66252910
  0
VERTEX
  8
0
 10
186.98890194
 20
383.11259844
  0
VERTEX
  8
0
 10
187.01359525
 20
383.94779685
  0
VERTEX
  8
0
 10
187.08859430
 20
384.88222776
  0
VERTEX
  8
0
 10
187.21527773
 20
385.90764476
  0
VERTEX
  8
0
 10
187.39502419
 20
387.01580146
  0
VERTEX
  8
0
 10
187.62921233
 20
388.19845146
  0
VERTEX
  8
0
 10
187.91922079
 20
389.44734835
  0
VERTEX
  8
0
 10
188.26642822
 20
390.75424572
  0
VERTEX
  8
0
 10
188.67221327
 20
392.11089717
  0
VERTEX
  8
0
 10
189.13795459
 20
393.50905631
  0
VERTEX
  8
0
 10
189.66503083
 20
394.94047673
  0
VERTEX
  8
0
 10
190.25482063
 20
396.39691202
  0
VERTEX
  8
0
 10
190.90870265
 20
397.87011578
  0
VERTEX
  8
0
 10
191.62805552
 20
399.35184161
  0
VERTEX
  8
0
 10
192.01271436
 20
400.09332331
  0
VERTEX
  8
0
 10
192.41425791
 20
400.83384311
  0
VERTEX
  8
0
 10
192.83285849
 20
401.57237024
  0
VERTEX
  8
0
 10
193.26868845
 20
402.30787388
  0
VERTEX
  8
0
 10
193.72192010
 20
403.03932323
  0
VERTEX
  8
0
 10
194.19272579
 20
403.76568750
  0
VERTEX
  8
0
 10
194.68127784
 20
404.48593588
  0
VERTEX
  8
0
 10
195.18774859
 20
405.19903758
  0
VERTEX
  8
0
 10
195.71231036
 20
405.90396179
  0
VERTEX
  8
0
 10
196.25513548
 20
406.59967772
  0
VERTEX
  8
0
 10
196.81639630
 20
407.28515456
  0
VERTEX
  8
0
 10
197.39626513
 20
407.95936151
  0
VERTEX
  8
0
 10
197.99491431
 20
408.62126777
  0
VERTEX
  8
0
 10
198.61251617
 20
409.26984254
  0
VERTEX
  8
0
 10
199.24924304
 20
409.90405503
  0
VERTEX
  8
0
 10
199.90526725
 20
410.52287443
  0
VERTEX
  8
0
 10
200.58076114
 20
411.12526993
  0
VERTEX
  8
0
 10
201.27589703
 20
411.71021075
  0
VERTEX
  8
0
 10
201.99084726
 20
412.27666608
  0
VERTEX
  8
0
 10
202.72578415
 20
412.82360512
  0
VERTEX
  8
0
 10
203.48088004
 20
413.34999706
  0
VERTEX
  8
0
 10
204.25630726
 20
413.85481112
  0
VERTEX
  8
0
 10
205.05223813
 20
414.33701649
  0
VERTEX
  8
0
 10
205.86884500
 20
414.79558236
  0
VERTEX
  8
0
 10
206.70630019
 20
415.22947794
  0
VERTEX
  8
0
 10
207.56477603
 20
415.63767243
  0
VERTEX
  8
0
 10
208.44444485
 20
416.01913502
  0
VERTEX
  8
0
 10
209.34547898
 20
416.37283492
  0
VERTEX
  8
0
 10
210.26805077
 20
416.69774133
  0
VERTEX
  8
0
 10
211.21233252
 20
416.99282345
  0
VERTEX
  8
0
 10
212.17849659
 20
417.25705046
  0
VERTEX
  8
0
 10
213.16671529
 20
417.48939159
  0
VERTEX
  8
0
 10
214.17716096
 20
417.68881602
  0
VERTEX
  8
0
 10
215.21000593
 20
417.85429295
  0
VERTEX
  8
0
 10
216.26542254
 20
417.98479159
  0
VERTEX
  8
0
 10
217.34358310
 20
418.07928113
  0
VERTEX
  8
0
 10
218.44465996
 20
418.13673078
  0
VERTEX
  8
0
 10
219.56882544
 20
418.15610973
  0
VERTEX
  8
0
 10
220.78117802
 20
418.13924301
  0
VERTEX
  8
0
 10
221.95466080
 20
418.08935302
  0
VERTEX
  8
0
 10
223.08990668
 20
418.00750504
  0
VERTEX
  8
0
 10
224.18754855
 20
417.89476433
  0
VERTEX
  8
0
 10
225.24821932
 20
417.75219616
  0
VERTEX
  8
0
 10
226.27255188
 20
417.58086578
  0
VERTEX
  8
0
 10
227.26117913
 20
417.38183848
  0
VERTEX
  8
0
 10
228.21473397
 20
417.15617951
  0
VERTEX
  8
0
 10
229.13384928
 20
416.90495415
  0
VERTEX
  8
0
 10
230.01915799
 20
416.62922765
  0
VERTEX
  8
0
 10
230.87129297
 20
416.33006529
  0
VERTEX
  8
0
 10
231.69088712
 20
416.00853233
  0
VERTEX
  8
0
 10
232.47857335
 20
415.66569404
  0
VERTEX
  8
0
 10
233.23498455
 20
415.30261568
  0
VERTEX
  8
0
 10
233.96075362
 20
414.92036253
  0
VERTEX
  8
0
 10
234.65651346
 20
414.51999985
  0
VERTEX
  8
0
 10
235.32289696
 20
414.10259290
  0
VERTEX
  8
0
 10
235.96053703
 20
413.66920695
  0
VERTEX
  8
0
 10
236.57006655
 20
413.22090727
  0
VERTEX
  8
0
 10
237.15211843
 20
412.75875912
  0
VERTEX
  8
0
 10
237.70732556
 20
412.28382778
  0
VERTEX
  8
0
 10
238.23632085
 20
411.79717850
  0
VERTEX
  8
0
 10
238.73973718
 20
411.29987656
  0
VERTEX
  8
0
 10
239.21820746
 20
410.79298722
  0
VERTEX
  8
0
 10
239.67236458
 20
410.27757574
  0
VERTEX
  8
0
 10
240.10284145
 20
409.75470740
  0
VERTEX
  8
0
 10
240.51027096
 20
409.22544746
  0
VERTEX
  8
0
 10
240.89528600
 20
408.69086119
  0
VERTEX
  8
0
 10
241.25851947
 20
408.15201385
  0
VERTEX
  8
0
 10
241.60060428
 20
407.60997072
  0
VERTEX
  8
0
 10
241.92217332
 20
407.06579704
  0
VERTEX
  8
0
 10
242.22385948
 20
406.52055811
  0
VERTEX
  8
0
 10
242.50629567
 20
405.97531917
  0
VERTEX
  8
0
 10
242.77011478
 20
405.43114550
  0
VERTEX
  8
0
 10
243.24443336
 20
404.35025502
  0
VERTEX
  8
0
 10
243.65187839
 20
403.28640881
  0
VERTEX
  8
0
 10
243.99751307
 20
402.24812900
  0
VERTEX
  8
0
 10
244.28640056
 20
401.24393771
  0
VERTEX
  8
0
 10
244.52360404
 20
400.28235709
  0
VERTEX
  8
0
 10
244.71418671
 20
399.37190926
  0
VERTEX
  8
0
 10
244.86321173
 20
398.52111637
  0
VERTEX
  8
0
 10
244.97574229
 20
397.73850053
  0
VERTEX
  8
0
 10
245.05684157
 20
397.03258388
  0
VERTEX
  8
0
 10
245.11157275
 20
396.41188856
  0
VERTEX
  8
0
 10
245.14499901
 20
395.88493670
  0
VERTEX
  8
0
 10
245.16818948
 20
395.14635188
  0
VERTEX
  8
0
 10
245.16691843
 20
394.88500648
  0
SEQEND
  0
POLYLINE
  8
По умолчанию
 66
   1
 39
0.000000
 70
    1
  0
VERTEX
  8
0
 10
236.71075972
 20
305.70733224
 42
-0.41421356
  0
VERTEX
  8
0
 10
232.71083172
 20
309.70726024
 42
-0.41421356
  0
VERTEX
  8
0
 10
236.71075972
 20
313.70718824
 42
-0.41421356
  0
VERTEX
  8
0
 10
240.71068772
 20
309.70726024
 42
-0.41421356
  0
VERTEX
  8
0
 10
236.71075972
 20
305.70733224
  0
SEQEND
  0
POLYLINE
  8
По умолчанию
 66
   1
 39
0.000000
 70
    1
  0
VERTEX
  8
0
 10
236.71075972
 20
363.56288724
 42
-0.41421356
  0
VERTEX
  8
0
 10
232.71083172
 20
367.56281524
 42
-0.41421356
  0
VERTEX
  8
0
 10
236.71075972
 20
371.56274324
 42
-0.41421356
  0
VERTEX
  8
0
 10
240.71068772
 20
367.56281524
 42
-0.41421356
  0
VERTEX
  8
0
 10
236.71075972
 20
363.56288724
  0
SEQEND
  0
POLYLINE
  8
По умолчанию
 66
   1
 39
0.000000
 70
    1
  0
VERTEX
  8
0
 10
61.39919294
 20
347.40275634
 42
-0.41421356
  0
VERTEX
  8
0
 10
59.39914294
 20
349.40280634
 42
-0.41421356
  0
VERTEX
  8
0
 10
61.39919294
 20
351.40285634
 42
-0.41421356
  0
VERTEX
  8
0
 10
63.39924294
 20
349.40280634
 42
-0.41421356
  0
VERTEX
  8
0
 10
61.39919294
 20
347.40275634
  0
SEQEND
  0
POLYLINE
  8
По умолчанию
 66
   1
 39
0.000000
 70
    1
  0
VERTEX
  8
0
 10
61.39919294
 20
405.25831234
 42
-0.41421356
  0
VERTEX
  8
0
 10
59.39914294
 20
407.25836234
 42
-0.41421356
  0
VERTEX
  8
0
 10
61.39919294
 20
409.25841234
 42
-0.41421356
  0
VERTEX
  8
0
 10
63.39924294
 20
407.25836234
 42
-0.41421356
  0
VERTEX
  8
0
 10
61.39919294
 20
405.25831234
  0
SEQEND
  0
POLYLINE
  8
По умолчанию
 66
   1
 39
0.000000
 70
    1
  0
VERTEX
  8
0
 10
107.78947094
 20
436.21387234
 42
-0.41421356
  0
VERTEX
  8
0
 10
104.28942594
 20
439.71391734
 42
-0.41421356
  0
VERTEX
  8
0
 10
107.78947094
 20
443.21396234
 42
-0.41421356
  0
VERTEX
  8
0
 10
111.28951594
 20
439.71391734
 42
-0.41421356
  0
VERTEX
  8
0
 10
107.78947094
 20
436.21387234
  0
SEQEND
  0
POLYLINE
  8
По умолчанию
 66
   1
 39
0.000000
 70
    1
  0
VERTEX
  8
0
 10
61.75179838
 20
329.64725111
  0
VERTEX
  8
0
 10
62.83745563
 20
329.57045777
  0
VERTEX
  8
0
 10
63.84727771
 20
329.53726643
  0
VERTEX
  8
0
 10
64.78397764
 20
329.54580381
  0
VERTEX
  8
0
 10
65.65026843
 20
329.59419663
  0
VERTEX
  8
0
 10
66.44886310
 20
329.68057164
  0
VERTEX
  8
0
 10
67.18247465
 20
329.80305555
  0
VERTEX
  8
0
 10
67.85381610
 20
329.95977510
  0
VERTEX
  8
0
 10
68.46560046
 20
330.14885701
  0
VERTEX
  8
0
 10
69.02054075
 20
330.36842802
  0
VERTEX
  8
0
 10
69.52134997
 20
330.61661485
  0
VERTEX
  8
0
 10
69.97074115
 20
330.89154423
  0
VERTEX
  8
0
 10
70.37142729
 20
331.19134290
  0
VERTEX
  8
0
 10
70.72612140
 20
331.51413758
  0
VERTEX
  8
0
 10
71.03753650
 20
331.85805501
  0
VERTEX
  8
0
 10
71.30838560
 20
332.22122190
  0
VERTEX
  8
0
 10
71.54138171
 20
332.60176499
  0
VERTEX
  8
0
 10
71.73923785
 20
332.99781102
  0
VERTEX
  8
0
 10
71.90466703
 20
333.40748670
  0
VERTEX
  8
0
 10
72.04038226
 20
333.82891877
  0
VERTEX
  8
0
 10
72.14909656
 20
334.26023396
  0
VERTEX
  8
0
 10
72.23352293
 20
334.69955900
  0
VERTEX
  8
0
 10
72.29637439
 20
335.14502061
  0
VERTEX
  8
0
 10
72.34036395
 20
335.59474553
  0
VERTEX
  8
0
 10
72.36820463
 20
336.04686048
  0
VERTEX
  8
0
 10
72.38629138
 20
336.95076741
  0
VERTEX
  8
0
 10
72.37233874
 20
337.84175523
  0
VERTEX
  8
0
 10
72.34805082
 20
338.70483778
  0
VERTEX
  8
0
 10
72.33513171
 20
339.52502888
  0
VERTEX
  8
0
 10
72.33513171
 20
375.15558444
  0
VERTEX
  8
0
 10
72.35969955
 20
379.21515577
  0
VERTEX
  8
0
 10
72.43245566
 20
383.06311211
  0
VERTEX
  8
0
 10
72.55197894
 20
386.70487948
  0
VERTEX
  8
0
 10
72.71684829
 20
390.14588392
  0
VERTEX
  8
0
 10
72.92564261
 20
393.39155144
  0
VERTEX
  8
0
 10
73.17694079
 20
396.44730807
  0
VERTEX
  8
0
 10
73.46932174
 20
399.31857984
  0
VERTEX
  8
0
 10
73.63047416
 20
400.68672953
  0
VERTEX
  8
0
 10
73.80136435
 20
402.01079277
  0
VERTEX
  8
0
 10
73.98181468
 20
403.29144781
  0
VERTEX
  8
0
 10
74.17164752
 20
404.52937289
  0
VERTEX
  8
0
 10
74.37068522
 20
405.72524628
  0
VERTEX
  8
0
 10
74.57875015
 20
406.87974622
  0
VERTEX
  8
0
 10
74.79566466
 20
407.99355098
  0
VERTEX
  8
0
 10
75.02125113
 20
409.06733879
  0
VERTEX
  8
0
 10
75.25533191
 20
410.10178792
  0
VERTEX
  8
0
 10
75.49772937
 20
411.09757663
  0
VERTEX
  8
0
 10
75.74826586
 20
412.05538315
  0
VERTEX
  8
0
 10
76.00676376
 20
412.97588575
  0
VERTEX
  8
0
 10
76.27304542
 20
413.85976268
  0
VERTEX
  8
0
 10
76.54693320
 20
414.70769219
  0
VERTEX
  8
0
 10
76.82824947
 20
415.52035253
  0
VERTEX
  8
0
 10
77.11681659
 20
416.29842196
  0
VERTEX
  8
0
 10
77.41245692
 20
417.04257874
  0
VERTEX
  8
0
 10
77.71499282
 20
417.75350111
  0
VERTEX
  8
0
 10
78.02424666
 20
418.43186732
  0
VERTEX
  8
0
 10
78.34004080
 20
419.07835564
  0
VERTEX
  8
0
 10
78.66219760
 20
419.69364431
  0
VERTEX
  8
0
 10
78.99053943
 20
420.27841159
  0
VERTEX
  8
0
 10
79.32488864
 20
420.83333573
  0
VERTEX
  8
0
 10
79.66506759
 20
421.35909498
  0
VERTEX
  8
0
 10
80.01089866
 20
421.85636760
  0
VERTEX
  8
0
 10
80.36220420
 20
422.32583183
  0
VERTEX
  8
0
 10
80.71880657
 20
422.76816595
  0
VERTEX
  8
0
 10
81.08052814
 20
423.18404818
  0
VERTEX
  8
0
 10
81.44719126
 20
423.57415680
  0
VERTEX
  8
0
 10
81.81861831
 20
423.93917005
  0
VERTEX
  8
0
 10
82.19463164
 20
424.27976619
  0
VERTEX
  8
0
 10
82.57505362
 20
424.59662346
  0
VERTEX
  8
0
 10
82.95970661
 20
424.89042013
  0
VERTEX
  8
0
 10
83.34841296
 20
425.16183444
  0
VERTEX
  8
0
 10
83.74099505
 20
425.41154465
  0
VERTEX
  8
0
 10
84.13727523
 20
425.64022901
  0
VERTEX
  8
0
 10
84.53707587
 20
425.84856578
  0
VERTEX
  8
0
 10
84.94021933
 20
426.03723320
  0
VERTEX
  8
0
 10
85.34652797
 20
426.20690954
  0
VERTEX
  8
0
 10
85.75582416
 20
426.35827304
  0
VERTEX
  8
0
 10
86.16793025
 20
426.49200195
  0
VERTEX
  8
0
 10
86.58266860
 20
426.60877454
  0
VERTEX
  8
0
 10
86.99986159
 20
426.70926905
  0
VERTEX
  8
0
 10
87.41933158
 20
426.79416374
  0
VERTEX
  8
0
 10
88.26439197
 20
426.91986667
  0
VERTEX
  8
0
 10
89.11642868
 20
426.99130933
  0
VERTEX
  8
0
 10
89.97402060
 20
427.01391777
  0
VERTEX
  8
0
 10
91.53189278
 20
427.01391777
  0
VERTEX
  8
0
 10
91.53189278
 20
429.84475273
  0
VERTEX
  8
0
 10
105.53207182
 20
429.84475273
  0
VERTEX
  8
0
 10
105.53207182
 20
427.01391777
  0
VERTEX
  8
0
 10
225.10582399
 20
427.01391777
  0
VERTEX
  8
0
 10
225.10582399
 20
429.84475273
  0
VERTEX
  8
0
 10
239.10600302
 20
429.84475273
  0
VERTEX
  8
0
 10
239.10600302
 20
427.01391777
  0
VERTEX
  8
0
 10
240.66370295
 20
427.01391777
  0
VERTEX
  8
0
 10
241.52129487
 20
426.99130933
  0
VERTEX
  8
0
 10
242.37333158
 20
426.91986667
  0
VERTEX
  8
0
 10
243.21839197
 20
426.79416374
  0
VERTEX
  8
0
 10
243.63786195
 20
426.70926905
  0
VERTEX
  8
0
 10
244.05505494
 20
426.60877454
  0
VERTEX
  8
0
 10
244.46979330
 20
426.49200195
  0
VERTEX
  8
0
 10
244.88189939
 20
426.35827304
  0
VERTEX
  8
0
 10
245.29119558
 20
426.20690954
  0
VERTEX
  8
0
 10
245.69750422
 20
426.03723320
  0
VERTEX
  8
0
 10
246.10064768
 20
425.84856578
  0
VERTEX
  8
0
 10
246.50044832
 20
425.64022901
  0
VERTEX
  8
0
 10
246.89672850
 20
425.41154465
  0
VERTEX
  8
0
 10
247.28931059
 20
425.16183444
  0
VERTEX
  8
0
 10
247.67801694
 20
424.89042013
  0
VERTEX
  8
0
 10
248.06266993
 20
424.59662346
  0
VERTEX
  8
0
 10
248.44309190
 20
424.27976619
  0
VERTEX
  8
0
 10
248.81910524
 20
423.93917005
  0
VERTEX
  8
0
 10
249.19053229
 20
423.57415680
  0
VERTEX
  8
0
 10
249.55719541
 20
423.18404818
  0
VERTEX
  8
0
 10
249.91891698
 20
422.76816595
  0
VERTEX
  8
0
 10
250.27551935
 20
422.32583183
  0
VERTEX
  8
0
 10
250.62682489
 20
421.85636760
  0
VERTEX
  8
0
 10
250.97265596
 20
421.35909498
  0
VERTEX
  8
0
 10
251.31283491
 20
420.83333573
  0
VERTEX
  8
0
 10
251.64718412
 20
420.27841159
  0
VERTEX
  8
0
 10
251.97552594
 20
419.69364431
  0
VERTEX
  8
0
 10
252.29768274
 20
419.07835564
  0
VERTEX
  8
0
 10
252.61347688
 20
418.43186732
  0
VERTEX
  8
0
 10
252.92273073
 20
417.75350111
  0
VERTEX
  8
0
 10
253.22526663
 20
417.04257874
  0
VERTEX
  8
0
 10
253.52090696
 20
416.29842196
  0
VERTEX
  8
0
 10
253.80947408
 20
415.52035253
  0
VERTEX
  8
0
 10
254.09079035
 20
414.70769219
  0
VERTEX
  8
0
 10
254.36467813
 20
413.85976268
  0
VERTEX
  8
0
 10
254.63095979
 20
412.97588575
  0
VERTEX
  8
0
 10
254.88945769
 20
412.05538315
  0
VERTEX
  8
0
 10
255.13999418
 20
411.09757663
  0
VERTEX
  8
0
 10
255.38239164
 20
410.10178792
  0
VERTEX
  8
0
 10
255.61647242
 20
409.06733879
  0
VERTEX
  8
0
 10
255.84205888
 20
407.99355098
  0
VERTEX
  8
0
 10
256.05897340
 20
406.87974622
  0
VERTEX
  8
0
 10
256.26703833
 20
405.72524628
  0
VERTEX
  8
0
 10
256.46607603
 20
404.52937289
  0
VERTEX
  8
0
 10
256.65590886
 20
403.29144781
  0
VERTEX
  8
0
 10
256.83635920
 20
402.01079277
  0
VERTEX
  8
0
 10
257.00724939
 20
400.68672953
  0
VERTEX
  8
0
 10
257.16840181
 20
399.31857984
  0
VERTEX
  8
0
 10
257.46078275
 20
396.44730807
  0
VERTEX
  8
0
 10
257.71208094
 20
393.39155144
  0
VERTEX
  8
0
 10
257.92087526
 20
390.14588392
  0
VERTEX
  8
0
 10
258.08574461
 20
386.70487948
  0
VERTEX
  8
0
 10
258.20526789
 20
383.06311211
  0
VERTEX
  8
0
 10
258.27802400
 20
379.21515577
  0
VERTEX
  8
0
 10
258.30259184
 20
375.15558444
  0
VERTEX
  8
0
 10
258.30259184
 20
339.52502888
  0
VERTEX
  8
0
 10
258.28967273
 20
338.70483778
  0
VERTEX
  8
0
 10
258.26538480
 20
337.84175523
  0
VERTEX
  8
0
 10
258.25143217
 20
336.95076741
  0
VERTEX
  8
0
 10
258.26951892
 20
336.04686048
  0
VERTEX
  8
0
 10
258.29735960
 20
335.59474553
  0
VERTEX
  8
0
 10
258.34134916
 20
335.14502061
  0
VERTEX
  8
0
 10
258.40420062
 20
334.69955900
  0
VERTEX
  8
0
 10
258.48862699
 20
334.26023396
  0
VERTEX
  8
0
 10
258.59734129
 20
333.82891877
  0
VERTEX
  8
0
 10
258.73305652
 20
333.40748670
  0
VERTEX
  8
0
 10
258.89848570
 20
332.99781102
  0
VERTEX
  8
0
 10
259.09634184
 20
332.60176499
  0
VERTEX
  8
0
 10
259.32933795
 20
332.22122190
  0
VERTEX
  8
0
 10
259.60018705
 20
331.85805501
  0
VERTEX
  8
0
 10
259.91160215
 20
331.51413758
  0
VERTEX
  8
0
 10
260.26629626
 20
331.19134290
  0
VERTEX
  8
0
 10
260.66698240
 20
330.89154423
  0
VERTEX
  8
0
 10
261.11637357
 20
330.61661485
  0
VERTEX
  8
0
 10
261.61718280
 20
330.36842802
  0
VERTEX
  8
0
 10
262.17212309
 20
330.14885701
  0
VERTEX
  8
0
 10
262.78390745
 20
329.95977510
  0
VERTEX
  8
0
 10
263.45524890
 20
329.80305555
  0
VERTEX
  8
0
 10
264.18886045
 20
329.68057164
  0
VERTEX
  8
0
 10
264.98745512
 20
329.59419663
  0
VERTEX
  8
0
 10
265.85374591
 20
329.54580381
  0
VERTEX
  8
0
 10
266.79044584
 20
329.53726643
  0
VERTEX
  8
0
 10
267.80026792
 20
329.57045777
  0
VERTEX
  8
0
 10
268.88592517
 20
329.64725111
  0
VERTEX
  8
0
 10
270.10213000
 20
329.76808783
  0
VERTEX
  8
0
 10
271.49248441
 20
329.93595011
  0
VERTEX
  8
0
 10
273.04303577
 20
330.15652235
  0
VERTEX
  8
0
 10
274.73983142
 20
330.43548895
  0
VERTEX
  8
0
 10
276.56891874
 20
330.77853434
  0
VERTEX
  8
0
 10
278.51634509
 20
331.19134290
  0
VERTEX
  8
0
 10
280.56815784
 20
331.67959906
  0
VERTEX
  8
0
 10
281.62884891
 20
331.95379636
  0
VERTEX
  8
0
 10
282.71040434
 20
332.24898722
  0
VERTEX
  8
0
 10
283.81108005
 20
332.56588217
  0
VERTEX
  8
0
 10
284.92913196
 20
332.90519178
  0
VERTEX
  8
0
 10
286.06281599
 20
333.26762659
  0
VERTEX
  8
0
 10
287.21038806
 20
333.65389716
  0
VERTEX
  8
0
 10
288.37010409
 20
334.06471403
  0
VERTEX
  8
0
 10
289.54022001
 20
334.50078775
  0
VERTEX
  8
0
 10
290.71899173
 20
334.96282889
  0
VERTEX
  8
0
 10
291.90467517
 20
335.45154798
  0
VERTEX
  8
0
 10
293.09552625
 20
335.96765558
  0
VERTEX
  8
0
 10
294.28980090
 20
336.51186224
  0
VERTEX
  8
0
 10
295.48575503
 20
337.08487852
  0
VERTEX
  8
0
 10
296.68164457
 20
337.68741495
  0
VERTEX
  8
0
 10
297.87572543
 20
338.32018210
  0
VERTEX
  8
0
 10
299.06625354
 20
338.98389051
  0
VERTEX
  8
0
 10
300.25148481
 20
339.67925074
  0
VERTEX
  8
0
 10
301.42967517
 20
340.40697333
  0
VERTEX
  8
0
 10
302.59908053
 20
341.16776884
  0
VERTEX
  8
0
 10
303.75795683
 20
341.96234781
  0
VERTEX
  8
0
 10
304.90455997
 20
342.79142081
  0
VERTEX
  8
0
 10
306.03714587
 20
343.65569837
  0
VERTEX
  8
0
 10
307.15397047
 20
344.55589106
  0
VERTEX
  8
0
 10
308.25328967
 20
345.49270941
  0
VERTEX
  8
0
 10
309.33335940
 20
346.46686399
  0
VERTEX
  8
0
 10
310.39243559
 20
347.47906534
  0
VERTEX
  8
0
 10
311.42877414
 20
348.53002402
  0
VERTEX
  8
0
 10
312.44063098
 20
349.62045057
  0
VERTEX
  8
0
 10
313.42626203
 20
350.75105555
  0
VERTEX
  8
0
 10
314.38392322
 20
351.92254950
  0
VERTEX
  8
0
 10
315.31187045
 20
353.13564298
  0
VERTEX
  8
0
 10
316.20835966
 20
354.39104654
  0
VERTEX
  8
0
 10
317.07164676
 20
355.68947073
  0
VERTEX
  8
0
 10
317.89998767
 20
357.03162611
  0
VERTEX
  8
0
 10
318.69163831
 20
358.41822321
  0
VERTEX
  8
0
 10
319.44485461
 20
359.84997259
  0
VERTEX
  8
0
 10
320.15789249
 20
361.32758481
  0
VERTEX
  8
0
 10
320.82900785
 20
362.85177042
  0
VERTEX
  8
0
 10
321.45645663
 20
364.42323996
  0
VERTEX
  8
0
 10
321.75326103
 20
365.22692825
  0
VERTEX
  8
0
 10
322.03849475
 20
366.04270399
  0
VERTEX
  8
0
 10
322.31193978
 20
366.87065598
  0
VERTEX
  8
0
 10
322.57337812
 20
367.71087305
  0
VERTEX
  8
0
 10
322.82259175
 20
368.56344402
  0
VERTEX
  8
0
 10
323.05936267
 20
369.42845770
  0
VERTEX
  8
0
 10
323.28347286
 20
370.30600292
  0
VERTEX
  8
0
 10
323.49470431
 20
371.19616849
  0
VERTEX
  8
0
 10
323.69283902
 20
372.09904324
  0
VERTEX
  8
0
 10
323.87765897
 20
373.01471598
  0
VERTEX
  8
0
 10
324.04894616
 20
373.94327552
  0
VERTEX
  8
0
 10
324.20648257
 20
374.88481070
  0
VERTEX
  8
0
 10
324.35005020
 20
375.83941032
  0
VERTEX
  8
0
 10
324.47943103
 20
376.80716321
  0
VERTEX
  8
0
 10
324.59440705
 20
377.78815819
  0
VERTEX
  8
0
 10
324.69476026
 20
378.78248407
  0
VERTEX
  8
0
 10
324.78027265
 20
379.79022968
  0
VERTEX
  8
0
 10
324.85072619
 20
380.81148383
  0
VERTEX
  8
0
 10
324.90590290
 20
381.84633533
  0
VERTEX
  8
0
 10
324.94558475
 20
382.89487302
  0
VERTEX
  8
0
 10
324.96955373
 20
383.95718571
  0
VERTEX
  8
0
 10
324.97759184
 20
385.03336222
  0
VERTEX
  8
0
 10
324.97759184
 20
426.66113999
  0
VERTEX
  8
0
 10
324.95438051
 20
427.86385513
  0
VERTEX
  8
0
 10
324.88285171
 20
429.15151339
  0
VERTEX
  8
0
 10
324.76016325
 20
430.51604035
  0
VERTEX
  8
0
 10
324.58347291
 20
431.94936157
  0
VERTEX
  8
0
 10
324.34993850
 20
433.44340258
  0
VERTEX
  8
0
 10
324.05671781
 20
434.99008897
  0
VERTEX
  8
0
 10
323.70096864
 20
436.58134628
  0
VERTEX
  8
0
 10
323.27984878
 20
438.20910006
  0
VERTEX
  8
0
 10
323.04388665
 20
439.03413987
  0
VERTEX
  8
0
 10
322.79051603
 20
439.86527589
  0
VERTEX
  8
0
 10
322.51938163
 20
440.70149880
  0
VERTEX
  8
0
 10
322.23012819
 20
441.54179931
  0
VERTEX
  8
0
 10
321.92240041
 20
442.38516810
  0
VERTEX
  8
0
 10
321.59584304
 20
443.23059588
  0
VERTEX
  8
0
 10
321.25010080
 20
444.07707334
  0
VERTEX
  8
0
 10
320.88481840
 20
444.92359117
  0
VERTEX
  8
0
 10
320.49964057
 20
445.76914006
  0
VERTEX
  8
0
 10
320.09421205
 20
446.61271072
  0
VERTEX
  8
0
 10
319.66817754
 20
447.45329383
  0
VERTEX
  8
0
 10
319.22118179
 20
448.28988009
  0
VERTEX
  8
0
 10
318.75286950
 20
449.12146020
  0
VERTEX
  8
0
 10
318.26288542
 20
449.94702485
  0
VERTEX
  8
0
 10
317.75087425
 20
450.76556474
  0
VERTEX
  8
0
 10
317.21648073
 20
451.57607055
  0
VERTEX
  8
0
 10
316.65934957
 20
452.37753299
  0
VERTEX
  8
0
 10
316.07912551
 20
453.16894275
  0
VERTEX
  8
0
 10
315.47545327
 20
453.94929052
  0
VERTEX
  8
0
 10
314.84797758
 20
454.71756700
  0
VERTEX
  8
0
 10
314.19634315
 20
455.47276288
  0
VERTEX
  8
0
 10
313.52019471
 20
456.21386886
  0
VERTEX
  8
0
 10
312.81917700
 20
456.93987563
  0
VERTEX
  8
0
 10
312.09293472
 20
457.64977389
  0
VERTEX
  8
0
 10
311.34111261
 20
458.34255433
  0
VERTEX
  8
0
 10
310.56335539
 20
459.01720765
  0
VERTEX
  8
0
 10
309.75930778
 20
459.67272454
  0
VERTEX
  8
0
 10
308.92861451
 20
460.30809570
  0
VERTEX
  8
0
 10
308.07092031
 20
460.92231181
  0
VERTEX
  8
0
 10
307.18586990
 20
461.51436358
  0
VERTEX
  8
0
 10
306.27310800
 20
462.08324170
  0
VERTEX
  8
0
 10
305.33227934
 20
462.62793687
  0
VERTEX
  8
0
 10
304.36302864
 20
463.14743977
  0
VERTEX
  8
0
 10
303.36500062
 20
463.64074111
  0
VERTEX
  8
0
 10
302.33784002
 20
464.10683158
  0
VERTEX
  8
0
 10
301.28119155
 20
464.54470187
  0
VERTEX
  8
0
 10
300.19469995
 20
464.95334268
  0
VERTEX
  8
0
 10
299.07800993
 20
465.33174470
  0
VERTEX
  8
0
 10
297.93076622
 20
465.67889863
  0
VERTEX
  8
0
 10
296.75261354
 20
465.99379516
  0
VERTEX
  8
0
 10
295.54319662
 20
466.27542499
  0
VERTEX
  8
0
 10
294.30216018
 20
466.52277880
  0
VERTEX
  8
0
 10
293.02914895
 20
466.73484731
  0
VERTEX
  8
0
 10
291.72380766
 20
466.91062120
  0
VERTEX
  8
0
 10
290.38578102
 20
467.04909116
  0
VERTEX
  8
0
 10
289.01471376
 20
467.14924789
  0
VERTEX
  8
0
 10
287.61025060
 20
467.21008208
  0
VERTEX
  8
0
 10
286.17203628
 20
467.23058444
  0
VERTEX
  8
0
 10
285.45038029
 20
467.22086819
  0
VERTEX
  8
0
 10
284.70705249
 20
467.19212856
  0
VERTEX
  8
0
 10
283.94131006
 20
467.14497920
  0
VERTEX
  8
0
 10
283.15241013
 20
467.08003377
  0
VERTEX
  8
0
 10
281.50216643
 20
466.89920932
  0
VERTEX
  8
0
 10
279.75037863
 20
466.65456447
  0
VERTEX
  8
0
 10
277.89110398
 20
466.35100850
  0
VERTEX
  8
0
 10
275.91839972
 20
465.99345065
  0
VERTEX
  8
0
 10
273.82632309
 20
465.58680019
  0
VERTEX
  8
0
 10
271.60893133
 20
465.13596638
  0
VERTEX
  8
0
 10
266.77443140
 20
464.12138576
  0
VERTEX
  8
0
 10
261.36735786
 20
462.98898288
  0
VERTEX
  8
0
 10
258.43424910
 20
462.39087124
  0
VERTEX
  8
0
 10
255.34016865
 20
461.77803181
  0
VERTEX
  8
0
 10
252.07917377
 20
461.15537387
  0
VERTEX
  8
0
 10
248.64532170
 20
460.52780666
  0
VERTEX
  8
0
 10
245.03266968
 20
459.90023945
  0
VERTEX
  8
0
 10
241.23527495
 20
459.27758151
  0
VERTEX
  8
0
 10
237.24719475
 20
458.66474209
  0
VERTEX
  8
0
 10
233.06248632
 20
458.06663045
  0
VERTEX
  8
0
 10
228.67520691
 20
457.48815585
  0
VERTEX
  8
0
 10
224.07941376
 20
456.93422756
  0
VERTEX
  8
0
 10
219.26916411
 20
456.40975484
  0
VERTEX
  8
0
 10
214.23851520
 20
455.91964694
  0
VERTEX
  8
0
 10
211.63868391
 20
455.68901394
  0
VERTEX
  8
0
 10
208.98152427
 20
455.46881313
  0
VERTEX
  8
0
 10
206.26629344
 20
455.25965815
  0
VERTEX
  8
0
 10
203.49224857
 20
455.06216267
  0
VERTEX
  8
0
 10
200.65864682
 20
454.87694034
  0
VERTEX
  8
0
 10
197.76474534
 20
454.70460482
  0
VERTEX
  8
0
 10
194.80980129
 20
454.54576977
  0
VERTEX
  8
0
 10
191.79307182
 20
454.40104885
  0
VERTEX
  8
0
 10
188.71381408
 20
454.27105571
  0
VERTEX
  8
0
 10
185.57128524
 20
454.15640401
  0
VERTEX
  8
0
 10
182.36474245
 20
454.05770740
  0
VERTEX
  8
0
 10
179.09344286
 20
453.97557956
  0
VERTEX
  8
0
 10
175.75664363
 20
453.91063412
  0
VERTEX
  8
0
 10
172.35360192
 20
453.86348476
  0
VERTEX
  8
0
 10
168.88357487
 20
453.83474513
  0
VERTEX
  8
0
 10
165.34581965
 20
453.82502888
  0
VERTEX
  8
0
 10
165.29069812
 20
453.82502888
  0
VERTEX
  8
0
 10
161.75299854
 20
453.83474513
  0
VERTEX
  8
0
 10
158.28302540
 20
453.86348476
  0
VERTEX
  8
0
 10
154.88003587
 20
453.91063412
  0
VERTEX
  8
0
 10
151.54328715
 20
453.97557956
  0
VERTEX
  8
0
 10
148.27203642
 20
454.05770740
  0
VERTEX
  8
0
 10
145.06554085
 20
454.15640401
  0
VERTEX
  8
0
 10
141.92305763
 20
454.27105571
  0
VERTEX
  8
0
 10
138.84384395
 20
454.40104885
  0
VERTEX
  8
0
 10
135.82715699
 20
454.54576977
  0
VERTEX
  8
0
 10
132.87225392
 20
454.70460482
  0
VERTEX
  8
0
 10
129.97839194
 20
454.87694034
  0
VERTEX
  8
0
 10
127.14482822
 20
455.06216267
  0
VERTEX
  8
0
 10
124.37081995
 20
455.25965815
  0
VERTEX
  8
0
 10
121.65562431
 20
455.46881313
  0
VERTEX
  8
0
 10
118.99849849
 20
455.68901394
  0
VERTEX
  8
0
 10
116.39869966
 20
455.91964694
  0
VERTEX
  8
0
 10
111.36811172
 20
456.40975484
  0
VERTEX
  8
0
 10
106.55791797
 20
456.93422756
  0
VERTEX
  8
0
 10
101.96217585
 20
457.48815585
  0
VERTEX
  8
0
 10
97.57494285
 20
458.06663045
  0
VERTEX
  8
0
 10
93.39027641
 20
458.66474209
  0
VERTEX
  8
0
 10
89.40223400
 20
459.27758151
  0
VERTEX
  8
0
 10
85.60487308
 20
459.90023945
  0
VERTEX
  8
0
 10
81.99225112
 20
460.52780666
  0
VERTEX
  8
0
 10
78.55842558
 20
461.15537387
  0
VERTEX
  8
0
 10
75.29745392
 20
461.77803181
  0
VERTEX
  8
0
 10
72.20339361
 20
462.39087124
  0
VERTEX
  8
0
 10
69.27030210
 20
462.98898288
  0
VERTEX
  8
0
 10
63.86325535
 20
464.12138576
  0
VERTEX
  8
0
 10
59.02877338
 20
465.13596638
  0
VERTEX
  8
0
 10
56.81138784
 20
465.58680019
  0
VERTEX
  8
0
 10
54.71931588
 20
465.99345065
  0
VERTEX
  8
0
 10
52.74661497
 20
466.35100850
  0
VERTEX
  8
0
 10
50.88734256
 20
466.65456447
  0
VERTEX
  8
0
 10
49.13555613
 20
466.89920932
  0
VERTEX
  8
0
 10
47.48531313
 20
467.08003377
  0
VERTEX
  8
0
 10
46.69641337
 20
467.14497920
  0
VERTEX
  8
0
 10
45.93067102
 20
467.19212856
  0
VERTEX
  8
0
 10
45.18734326
 20
467.22086819
  0
VERTEX
  8
0
 10
44.46568727
 20
467.23058444
  0
VERTEX
  8
0
 10
43.02747294
 20
467.21008208
  0
VERTEX
  8
0
 10
41.62300979
 20
467.14924789
  0
VERTEX
  8
0
 10
40.25194253
 20
467.04909116
  0
VERTEX
  8
0
 10
38.91391589
 20
466.91062120
  0
VERTEX
  8
0
 10
37.60857460
 20
466.73484731
  0
VERTEX
  8
0
 10
36.33556337
 20
466.52277880
  0
VERTEX
  8
0
 10
35.09452693
 20
466.27542499
  0
VERTEX
  8
0
 10
33.88511001
 20
465.99379516
  0
VERTEX
  8
0
 10
32.70695733
 20
465.67889863
  0
VERTEX
  8
0
 10
31.55971362
 20
465.33174470
  0
VERTEX
  8
0
 10
30.44302360
 20
464.95334268
  0
VERTEX
  8
0
 10
29.35653199
 20
464.54470187
  0
VERTEX
  8
0
 10
28.29988353
 20
464.10683158
  0
VERTEX
  8
0
 10
27.27272293
 20
463.64074111
  0
VERTEX
  8
0
 10
26.27469491
 20
463.14743977
  0
VERTEX
  8
0
 10
25.30544421
 20
462.62793687
  0
VERTEX
  8
0
 10
24.36461555
 20
462.08324170
  0
VERTEX
  8
0
 10
23.45185365
 20
461.51436358
  0
VERTEX
  8
0
 10
22.56680324
 20
460.92231181
  0
VERTEX
  8
0
 10
21.70910903
 20
460.30809570
  0
VERTEX
  8
0
 10
20.87841577
 20
459.67272454
  0
VERTEX
  8
0
 10
20.07436816
 20
459.01720765
  0
VERTEX
  8
0
 10
19.29661094
 20
458.34255433
  0
VERTEX
  8
0
 10
18.54478883
 20
457.64977389
  0
VERTEX
  8
0
 10
17.81854655
 20
456.93987563
  0
VERTEX
  8
0
 10
17.11752883
 20
456.21386886
  0
VERTEX
  8
0
 10
16.44138040
 20
455.47276288
  0
VERTEX
  8
0
 10
15.78974597
 20
454.71756700
  0
VERTEX
  8
0
 10
15.16227027
 20
453.94929052
  0
VERTEX
  8
0
 10
14.55859803
 20
453.16894275
  0
VERTEX
  8
0
 10
13.97837398
 20
452.37753299
  0
VERTEX
  8
0
 10
13.42124282
 20
451.57607055
  0
VERTEX
  8
0
 10
12.88684930
 20
450.76556474
  0
VERTEX
  8
0
 10
12.37483813
 20
449.94702485
  0
VERTEX
  8
0
 10
11.88485404
 20
449.12146020
  0
VERTEX
  8
0
 10
11.41654176
 20
448.28988009
  0
VERTEX
  8
0
 10
10.96954600
 20
447.45329383
  0
VERTEX
  8
0
 10
10.54351150
 20
446.61271072
  0
VERTEX
  8
0
 10
10.13808297
 20
445.76914006
  0
VERTEX
  8
0
 10
9.75290515
 20
444.92359117
  0
VERTEX
  8
0
 10
9.38762275
 20
444.07707334
  0
VERTEX
  8
0
 10
9.04188051
 20
443.23059588
  0
VERTEX
  8
0
 10
8.71532313
 20
442.38516810
  0
VERTEX
  8
0
 10
8.40759536
 20
441.54179931
  0
VERTEX
  8
0
 10
8.11834192
 20
440.70149880
  0
VERTEX
  8
0
 10
7.84720752
 20
439.86527589
  0
VERTEX
  8
0
 10
7.59383689
 20
439.03413987
  0
VERTEX
  8
0
 10
7.35787477
 20
438.20910006
  0
VERTEX
  8
0
 10
6.93675491
 20
436.58134628
  0
VERTEX
  8
0
 10
6.58100574
 20
434.99008897
  0
VERTEX
  8
0
 10
6.28778505
 20
433.44340258
  0
VERTEX
  8
0
 10
6.05425064
 20
431.94936157
  0
VERTEX
  8
0
 10
5.87756030
 20
430.51604035
  0
VERTEX
  8
0
 10
5.75487184
 20
429.15151339
  0
VERTEX
  8
0
 10
5.68334304
 20
427.86385513
  0
VERTEX
  8
0
 10
5.66013171
 20
426.66113999
  0
VERTEX
  8
0
 10
5.66013171
 20
385.03336222
  0
VERTEX
  8
0
 10
5.66816982
 20
383.95718571
  0
VERTEX
  8
0
 10
5.69213880
 20
382.89487302
  0
VERTEX
  8
0
 10
5.73182065
 20
381.84633533
  0
VERTEX
  8
0
 10
5.78699735
 20
380.81148383
  0
VERTEX
  8
0
 10
5.85745090
 20
379.79022968
  0
VERTEX
  8
0
 10
5.94296329
 20
378.78248407
  0
VERTEX
  8
0
 10
6.04331650
 20
377.78815819
  0
VERTEX
  8
0
 10
6.15829252
 20
376.80716321
  0
VERTEX
  8
0
 10
6.28767335
 20
375.83941032
  0
VERTEX
  8
0
 10
6.43124098
 20
374.88481070
  0
VERTEX
  8
0
 10
6.58877739
 20
373.94327552
  0
VERTEX
  8
0
 10
6.76006457
 20
373.01471598
  0
VERTEX
  8
0
 10
6.94488453
 20
372.09904324
  0
VERTEX
  8
0
 10
7.14301923
 20
371.19616849
  0
VERTEX
  8
0
 10
7.35425069
 20
370.30600292
  0
VERTEX
  8
0
 10
7.57836088
 20
369.42845770
  0
VERTEX
  8
0
 10
7.81513180
 20
368.56344402
  0
VERTEX
  8
0
 10
8.06434543
 20
367.71087305
  0
VERTEX
  8
0
 10
8.32578377
 20
366.87065598
  0
VERTEX
  8
0
 10
8.59922880
 20
366.04270399
  0
VERTEX
  8
0
 10
8.88446252
 20
365.22692825
  0
VERTEX
  8
0
 10
9.18126692
 20
364.42323996
  0
VERTEX
  8
0
 10
9.80871570
 20
362.85177042
  0
VERTEX
  8
0
 10
10.47983106
 20
361.32758481
  0
VERTEX
  8
0
 10
11.19286894
 20
359.84997259
  0
VERTEX
  8
0
 10
11.94608523
 20
358.41822321
  0
VERTEX
  8
0
 10
12.73773588
 20
357.03162611
  0
VERTEX
  8
0
 10
13.56607679
 20
355.68947073
  0
VERTEX
  8
0
 10
14.42936389
 20
354.39104654
  0
VERTEX
  8
0
 10
15.32585310
 20
353.13564298
  0
VERTEX
  8
0
 10
16.25380033
 20
351.92254950
  0
VERTEX
  8
0
 10
17.21146152
 20
350.75105555
  0
VERTEX
  8
0
 10
18.19709257
 20
349.62045057
  0
VERTEX
  8
0
 10
19.20894941
 20
348.53002402
  0
VERTEX
  8
0
 10
20.24528796
 20
347.47906534
  0
VERTEX
  8
0
 10
21.30436414
 20
346.46686399
  0
VERTEX
  8
0
 10
22.38443388
 20
345.49270941
  0
VERTEX
  8
0
 10
23.48375308
 20
344.55589106
  0
VERTEX
  8
0
 10
24.60057768
 20
343.65569837
  0
VERTEX
  8
0
 10
25.73316358
 20
342.79142081
  0
VERTEX
  8
0
 10
26.87976672
 20
341.96234781
  0
VERTEX
  8
0
 10
28.03864301
 20
341.16776884
  0
VERTEX
  8
0
 10
29.20804838
 20
340.40697333
  0
VERTEX
  8
0
 10
30.38623874
 20
339.67925074
  0
VERTEX
  8
0
 10
31.57147001
 20
338.98389051
  0
VERTEX
  8
0
 10
32.76199812
 20
338.32018210
  0
VERTEX
  8
0
 10
33.95607898
 20
337.68741495
  0
VERTEX
  8
0
 10
35.15196851
 20
337.08487852
  0
VERTEX
  8
0
 10
36.34792265
 20
336.51186224
  0
VERTEX
  8
0
 10
37.54219729
 20
335.96765558
  0
VERTEX
  8
0
 10
38.73304838
 20
335.45154798
  0
VERTEX
  8
0
 10
39.91873182
 20
334.96282889
  0
VERTEX
  8
0
 10
41.09750354
 20
334.50078775
  0
VERTEX
  8
0
 10
42.26761945
 20
334.06471403
  0
VERTEX
  8
0
 10
43.42733549
 20
333.65389716
  0
VERTEX
  8
0
 10
44.57490756
 20
333.26762659
  0
VERTEX
  8
0
 10
45.70859159
 20
332.90519178
  0
VERTEX
  8
0
 10
46.82664350
 20
332.56588217
  0
VERTEX
  8
0
 10
47.92731921
 20
332.24898722
  0
VERTEX
  8
0
 10
49.00887464
 20
331.95379636
  0
VERTEX
  8
0
 10
50.06956571
 20
331.67959906
  0
VERTEX
  8
0
 10
52.12137846
 20
331.19134290
  0
VERTEX
  8
0
 10
54.06880481
 20
330.77853434
  0
VERTEX
  8
0
 10
55.89789213
 20
330.43548895
  0
VERTEX
  8
0
 10
57.59468778
 20
330.15652235
  0
VERTEX
  8
0
 10
59.14523913
 20
329.93595011
  0
VERTEX
  8
0
 10
60.53559355
 20
329.76808783
  0
VERTEX
  8
0
 10
61.75179838
 20
329.64725111
  0
SEQEND
  0
POLYLINE
  8
По умолчанию
 66
   1
 39
0.000000
 70
    1
  0
VERTEX
  8
0
 10
276.64195084
 20
194.38110484
  0
VERTEX
  8
0
 10
276.64121591
 20
194.38110484
  0
VERTEX
  8
0
 10
276.64121591
 20
202.38110484
  0
VERTEX
  8
0
 10
296.62188538
 20
202.38110484
  0
VERTEX
  8
0
 10
296.62188538
 20
194.38295902
  0
VERTEX
  8
0
 10
374.29539575
 20
194.38295902
  0
VERTEX
  8
0
 10
374.29539575
 20
202.38148286
  0
VERTEX
  8
0
 10
381.12625180
 20
202.38148286
  0
VERTEX
  8
0
 10
394.29539575
 20
202.38148286
  0
VERTEX
  8
0
 10
394.29539575
 20
194.38148286
  0
VERTEX
  8
0
 10
394.29491527
 20
194.38148286
  0
VERTEX
  8
0
 10
394.29491527
 20
192.73750312
 42
-0.27520941
  0
VERTEX
  8
0
 10
391.67690263
 20
188.34135296
  0
VERTEX
  8
0
 10
324.33478355
 20
151.85304590
 42
-0.12477982
  0
VERTEX
  8
0
 10
314.80683409
 20
149.43764652
  0
VERTEX
  8
0
 10
311.46541744
 20
149.43764652
 42
-0.26794919
  0
VERTEX
  8
0
 10
294.14490937
 20
159.43764652
  0
VERTEX
  8
0
 10
278.65156978
 20
186.27289786
 42
-0.13165250
  0
VERTEX
  8
0
 10
276.64195084
 20
193.77289786
  0
VERTEX
  8
0
 10
276.64195084
 20
194.38110484
  0
SEQEND
  0
POLYLINE
  8
По умолчанию
 66
   1
 39
0.000000
 70
    1
  0
VERTEX
  8
0
 10
97.22898037
 20
13.90943702
  0
VERTEX
  8
0
 10
96.53720801
 20
14.29056185
  0
VERTEX
  8
0
 10
95.37342999
 20
14.98096295
  0
VERTEX
  8
0
 10
94.77062313
 20
15.36113762
  0
VERTEX
  8
0
 10
94.20092094
 20
15.74053687
  0
VERTEX
  8
0
 10
93.22572174
 20
16.43682215
  0
VERTEX
  8
0
 10
92.26782121
 20
17.16983878
  0
VERTEX
  8
0
 10
90.84430381
 20
18.32034660
  0
VERTEX
  8
0
 10
88.66415514
 20
20.08253528
  0
VERTEX
  8
0
 10
86.89495426
 20
21.51621626
  0
VERTEX
  8
0
 10
84.80860675
 20
23.22688202
  0
VERTEX
  8
0
 10
83.73778571
 20
24.09059689
  0
VERTEX
  8
0
 10
82.69721723
 20
24.90897319
  0
VERTEX
  8
0
 10
81.72341441
 20
25.64381602
  0
VERTEX
  8
0
 10
80.85289032
 20
26.25693044
  0
VERTEX
  8
0
 10
80.02113903
 20
26.78843282
  0
VERTEX
  8
0
 10
79.12044138
 20
27.32322722
  0
VERTEX
  8
0
 10
78.17247956
 20
27.85686839
  0
VERTEX
  8
0
 10
77.19893574
 20
28.38491111
  0
VERTEX
  8
0
 10
75.26183080
 20
29.40642019
  0
VERTEX
  8
0
 10
73.48258399
 20
30.35219254
  0
VERTEX
  8
0
 10
73.07727497
 20
30.56327758
  0
VERTEX
  8
0
 10
72.64372935
 20
30.77094786
  0
VERTEX
  8
0
 10
71.70890718
 20
31.17419827
  0
VERTEX
  8
0
 10
70.71207521
 20
31.55825215
  0
VERTEX
  8
0
 10
69.68719121
 20
31.91941784
  0
VERTEX
  8
0
 10
68.66821289
 20
32.25400371
  0
VERTEX
  8
0
 10
67.68909801
 20
32.55831811
  0
VERTEX
  8
0
 10
65.98628953
 20
33.06136593
  0
VERTEX
  8
0
 10
65.40741893
 20
33.21493294
  0
VERTEX
  8
0
 10
64.70349404
 20
33.37778971
  0
VERTEX
  8
0
 10
62.98961246
 20
33.72339185
  0
VERTEX
  8
0
 10
60.98290689
 20
34.08221100
  0
VERTEX
  8
0
 10
58.82163942
 20
34.43828580
  0
VERTEX
  8
0
 10
56.64407214
 20
34.77565491
  0
VERTEX
  8
0
 10
54.58846714
 20
35.07835697
  0
VERTEX
  8
0
 10
51.39619241
 20
35.51591457
  0
VERTEX
  8
0
 10
50.85517605
 20
35.51591457
  0
VERTEX
  8
0
 10
49.94063189
 20
35.52480582
  0
VERTEX
  8
0
 10
49.02622960
 20
35.55155102
  0
VERTEX
  8
0
 10
48.11247413
 20
35.59625734
  0
VERTEX
  8
0
 10
47.19987043
 20
35.65903196
  0
VERTEX
  8
0
 10
46.28892346
 20
35.73998204
  0
VERTEX
  8
0
 10
45.38013818
 20
35.83921476
  0
VERTEX
  8
0
 10
44.47401955
 20
35.95683729
  0
VERTEX
  8
0
 10
43.57107251
 20
36.09295680
  0
VERTEX
  8
0
 10
42.67180203
 20
36.24768047
  0
VERTEX
  8
0
 10
41.77671306
 20
36.42111546
  0
VERTEX
  8
0
 10
40.88631055
 20
36.61336895
  0
VERTEX
  8
0
 10
40.00109947
 20
36.82454810
  0
VERTEX
  8
0
 10
39.12158477
 20
37.05476010
  0
VERTEX
  8
0
 10
38.24827141
 20
37.30411211
  0
VERTEX
  8
0
 10
37.38166433
 20
37.57271131
  0
VERTEX
  8
0
 10
36.52226850
 20
37.86066486
  0
VERTEX
  8
0
 10
35.67058888
 20
38.16807994
  0
VERTEX
  8
0
 10
34.82713041
 20
38.49506373
  0
VERTEX
  8
0
 10
33.99239807
 20
38.84172338
  0
VERTEX
  8
0
 10
33.16689679
 20
39.20816608
  0
VERTEX
  8
0
 10
32.35113154
 20
39.59449900
  0
VERTEX
  8
0
 10
31.54560727
 20
40.00082930
  0
VERTEX
  8
0
 10
30.75082894
 20
40.42726417
  0
VERTEX
  8
0
 10
29.96730151
 20
40.87391077
  0
VERTEX
  8
0
 10
29.19552993
 20
41.34087627
  0
VERTEX
  8
0
 10
28.43601916
 20
41.82826785
  0
VERTEX
  8
0
 10
27.68927415
 20
42.33619268
  0
VERTEX
  8
0
 10
26.95579986
 20
42.86475792
  0
VERTEX
  8
0
 10
26.23610125
 20
43.41407076
  0
VERTEX
  8
0
 10
25.53068327
 20
43.98423836
  0
VERTEX
  8
0
 10
24.84005087
 20
44.57536790
  0
VERTEX
  8
0
 10
24.16470902
 20
45.18756655
  0
VERTEX
  8
0
 10
23.50516267
 20
45.82094148
  0
VERTEX
  8
0
 10
22.86191678
 20
46.47559985
  0
VERTEX
  8
0
 10
22.23547629
 20
47.15164886
  0
VERTEX
  8
0
 10
21.62634618
 20
47.84919565
  0
VERTEX
  8
0
 10
21.03503139
 20
48.56834742
  0
VERTEX
  8
0
 10
20.46203688
 20
49.30921132
  0
VERTEX
  8
0
 10
19.90786760
 20
50.07189454
  0
VERTEX
  8
0
 10
19.37302852
 20
50.85650423
  0
VERTEX
  8
0
 10
18.85802459
 20
51.66314759
  0
VERTEX
  8
0
 10
18.36336075
 20
52.49193177
  0
VERTEX
  8
0
 10
17.88954198
 20
53.34296395
  0
VERTEX
  8
0
 10
17.43707323
 20
54.21635130
  0
VERTEX
  8
0
 10
17.00645945
 20
55.11220099
  0
VERTEX
  8
0
 10
16.59820559
 20
56.03062020
  0
VERTEX
  8
0
 10
16.21281662
 20
56.97171609
  0
VERTEX
  8
0
 10
15.85079749
 20
57.93559585
  0
VERTEX
  8
0
 10
15.51265316
 20
58.92236663
  0
VERTEX
  8
0
 10
15.19888858
 20
59.93213562
  0
VERTEX
  8
0
 10
14.91000871
 20
60.96500998
  0
VERTEX
  8
0
 10
14.64651850
 20
62.02109689
  0
VERTEX
  8
0
 10
14.40892291
 20
63.10050351
  0
VERTEX
  8
0
 10
14.19772690
 20
64.20333703
  0
VERTEX
  8
0
 10
14.01343542
 20
65.32970460
  0
VERTEX
  8
0
 10
13.85655343
 20
66.47971342
  0
VERTEX
  8
0
 10
13.72758588
 20
67.65347063
  0
VERTEX
  8
0
 10
13.62703774
 20
68.85108343
  0
VERTEX
  8
0
 10
13.55541395
 20
70.07265897
  0
VERTEX
  8
0
 10
13.51321947
 20
71.31830444
  0
VERTEX
  8
0
 10
13.50095927
 20
72.58812700
  0
VERTEX
  8
0
 10
13.51913828
 20
73.88223383
  0
VERTEX
  8
0
 10
13.56826148
 20
75.20073209
  0
VERTEX
  8
0
 10
13.64883381
 20
76.54372897
  0
VERTEX
  8
0
 10
13.68678314
 20
76.97760433
  0
VERTEX
  8
0
 10
13.73806094
 20
77.37711671
  0
VERTEX
  8
0
 10
13.80518947
 20
77.74314518
  0
VERTEX
  8
0
 10
13.89069101
 20
78.07656884
  0
VERTEX
  8
0
 10
13.99708781
 20
78.37826678
  0
VERTEX
  8
0
 10
14.12690213
 20
78.64911808
  0
VERTEX
  8
0
 10
14.28265623
 20
78.89000183
  0
VERTEX
  8
0
 10
14.46687238
 20
79.10179713
  0
VERTEX
  8
0
 10
14.68207284
 20
79.28538306
  0
VERTEX
  8
0
 10
14.93077987
 20
79.44163871
  0
VERTEX
  8
0
 10
15.21551573
 20
79.57144317
  0
VERTEX
  8
0
 10
15.53880267
 20
79.67567553
  0
VERTEX
  8
0
 10
15.90316298
 20
79.75521487
  0
VERTEX
  8
0
 10
16.31111890
 20
79.81094030
  0
VERTEX
  8
0
 10
16.76519269
 20
79.84373089
  0
VERTEX
  8
0
 10
17.26790662
 20
79.85446573
  0
VERTEX
  8
0
 10
28.22089870
 20
79.85446573
  0
VERTEX
  8
0
 10
28.49986531
 20
79.61707342
  0
VERTEX
  8
0
 10
28.79976087
 20
79.40543252
  0
VERTEX
  8
0
 10
29.11890590
 20
79.22136181
  0
VERTEX
  8
0
 10
29.45562092
 20
79.06668005
  0
VERTEX
  8
0
 10
29.80822645
 20
78.94320601
  0
VERTEX
  8
0
 10
30.17504299
 20
78.85275846
  0
VERTEX
  8
0
 10
30.55439107
 20
78.79715617
  0
VERTEX
  8
0
 10
30.94459119
 20
78.77821790
  0
VERTEX
  8
0
 10
31.35354539
 20
78.79886833
  0
VERTEX
  8
0
 10
31.75069374
 20
78.85947943
  0
VERTEX
  8
0
 10
32.13402471
 20
78.95804091
  0
VERTEX
  8
0
 10
32.50152674
 20
79.09254249
  0
VERTEX
  8
0
 10
32.85118828
 20
79.26097389
  0
VERTEX
  8
0
 10
33.18099781
 20
79.46132482
  0
VERTEX
  8
0
 10
33.48894376
 20
79.69158500
  0
VERTEX
  8
0
 10
33.77301459
 20
79.94974415
  0
VERTEX
  8
0
 10
34.03119876
 20
80.23379198
  0
VERTEX
  8
0
 10
34.26148472
 20
80.54171821
  0
VERTEX
  8
0
 10
34.46186093
 20
80.87151254
  0
VERTEX
  8
0
 10
34.63031583
 20
81.22116471
  0
VERTEX
  8
0
 10
34.76483790
 20
81.58866443
  0
VERTEX
  8
0
 10
34.86341557
 20
81.97200141
  0
VERTEX
  8
0
 10
34.92403731
 20
82.36916536
  0
VERTEX
  8
0
 10
34.94469156
 20
82.77814601
  0
VERTEX
  8
0
 10
34.92403731
 20
83.18712666
  0
VERTEX
  8
0
 10
34.86341557
 20
83.58429062
  0
VERTEX
  8
0
 10
34.76483790
 20
83.96762760
  0
VERTEX
  8
0
 10
34.63031583
 20
84.33512731
  0
VERTEX
  8
0
 10
34.46186093
 20
84.68477948
  0
VERTEX
  8
0
 10
34.26148472
 20
85.01457382
  0
VERTEX
  8
0
 10
34.03119876
 20
85.32250005
  0
VERTEX
  8
0
 10
33.77301459
 20
85.60654788
  0
VERTEX
  8
0
 10
33.48894376
 20
85.86470702
  0
VERTEX
  8
0
 10
33.18099781
 20
86.09496720
  0
VERTEX
  8
0
 10
32.85118828
 20
86.29531814
  0
VERTEX
  8
0
 10
32.50152674
 20
86.46374954
  0
VERTEX
  8
0
 10
32.13402471
 20
86.59825112
  0
VERTEX
  8
0
 10
31.75069374
 20
86.69681260
  0
VERTEX
  8
0
 10
31.35354539
 20
86.75742370
  0
VERTEX
  8
0
 10
30.94459119
 20
86.77807413
  0
VERTEX
  8
0
 10
30.55539095
 20
86.75923040
  0
VERTEX
  8
0
 10
30.17697009
 20
86.70390230
  0
VERTEX
  8
0
 10
29.81100002
 20
86.61389447
  0
VERTEX
  8
0
 10
29.45915215
 20
86.49101155
  0
VERTEX
  8
0
 10
29.12309789
 20
86.33705817
  0
VERTEX
  8
0
 10
28.80450864
 20
86.15383897
  0
VERTEX
  8
0
 10
28.50505583
 20
85.94315860
  0
VERTEX
  8
0
 10
28.22641085
 20
85.70682169
  0
VERTEX
  8
0
 10
23.72529644
 20
85.68548387
  0
VERTEX
  8
0
 10
23.27173024
 20
85.70112144
  0
VERTEX
  8
0
 10
22.81670830
 20
85.74745732
  0
VERTEX
  8
0
 10
22.36127037
 20
85.82362629
  0
VERTEX
  8
0
 10
21.90645619
 20
85.92876311
  0
VERTEX
  8
0
 10
21.45330549
 20
86.06200257
  0
VERTEX
  8
0
 10
21.00285803
 20
86.22247942
  0
VERTEX
  8
0
 10
20.55615353
 20
86.40932845
  0
VERTEX
  8
0
 10
20.11423174
 20
86.62168441
  0
VERTEX
  8
0
 10
19.67813240
 20
86.85868209
  0
VERTEX
  8
0
 10
19.24889525
 20
87.11945626
  0
VERTEX
  8
0
 10
18.82756002
 20
87.40314168
  0
VERTEX
  8
0
 10
18.41516646
 20
87.70887313
  0
VERTEX
  8
0
 10
18.01275431
 20
88.03578538
  0
VERTEX
  8
0
 10
17.62136331
 20
88.38301320
  0
VERTEX
  8
0
 10
17.24203320
 20
88.74969136
  0
VERTEX
  8
0
 10
16.87580371
 20
89.13495464
  0
VERTEX
  8
0
 10
16.52371459
 20
89.53793779
  0
VERTEX
  8
0
 10
16.18680558
 20
89.95777561
  0
VERTEX
  8
0
 10
15.86611641
 20
90.39360285
  0
VERTEX
  8
0
 10
15.56268684
 20
90.84455429
  0
VERTEX
  8
0
 10
15.27755659
 20
91.30976469
  0
VERTEX
  8
0
 10
15.01176540
 20
91.78836884
  0
VERTEX
  8
0
 10
14.76635303
 20
92.27950150
  0
VERTEX
  8
0
 10
14.54235920
 20
92.78229744
  0
VERTEX
  8
0
 10
14.34082366
 20
93.29589144
  0
VERTEX
  8
0
 10
14.16278614
 20
93.81941826
  0
VERTEX
  8
0
 10
14.00928639
 20
94.35201268
  0
VERTEX
  8
0
 10
13.88136415
 20
94.89280947
  0
VERTEX
  8
0
 10
13.78005916
 20
95.44094339
  0
VERTEX
  8
0
 10
13.70641115
 20
95.99554923
  0
VERTEX
  8
0
 10
13.66145987
 20
96.55576175
  0
VERTEX
  8
0
 10
13.64624506
 20
97.12071573
  0
VERTEX
  8
0
 10
13.64624506
 20
157.35257056
  0
VERTEX
  8
0
 10
13.63893147
 20
157.77394464
  0
VERTEX
  8
0
 10
13.65242396
 20
158.20992377
  0
VERTEX
  8
0
 10
13.68672118
 20
158.65868522
  0
VERTEX
  8
0
 10
13.74182177
 20
159.11840623
  0
VERTEX
  8
0
 10
13.81772437
 20
159.58726406
  0
VERTEX
  8
0
 10
13.91442763
 20
160.06343595
  0
VERTEX
  8
0
 10
14.03193018
 20
160.54509917
  0
VERTEX
  8
0
 10
14.17023067
 20
161.03043095
  0
VERTEX
  8
0
 10
14.32932775
 20
161.51760855
  0
VERTEX
  8
0
 10
14.50922005
 20
162.00480923
  0
VERTEX
  8
0
 10
14.70990622
 20
162.49021023
  0
VERTEX
  8
0
 10
14.93138490
 20
162.97198880
  0
VERTEX
  8
0
 10
15.17365474
 20
163.44832220
  0
VERTEX
  8
0
 10
15.43671438
 20
163.91738769
  0
VERTEX
  8
0
 10
15.72056246
 20
164.37736250
  0
VERTEX
  8
0
 10
16.02519763
 20
164.82642389
  0
VERTEX
  8
0
 10
16.35061852
 20
165.26274912
  0
VERTEX
  8
0
 10
16.69682378
 20
165.68451543
  0
VERTEX
  8
0
 10
17.06381206
 20
166.08990008
  0
VERTEX
  8
0
 10
17.45158199
 20
166.47708031
  0
VERTEX
  8
0
 10
17.86013222
 20
166.84423339
  0
VERTEX
  8
0
 10
18.28946140
 20
167.18953656
  0
VERTEX
  8
0
 10
18.73956816
 20
167.51116706
  0
VERTEX
  8
0
 10
19.21045115
 20
167.80730217
  0
VERTEX
  8
0
 10
19.70210901
 20
168.07611912
  0
VERTEX
  8
0
 10
20.21454038
 20
168.31579516
  0
VERTEX
  8
0
 10
20.74774392
 20
168.52450755
  0
VERTEX
  8
0
 10
21.30171825
 20
168.70043355
  0
VERTEX
  8
0
 10
21.87646202
 20
168.84175039
  0
VERTEX
  8
0
 10
22.47197389
 20
168.94663534
  0
VERTEX
  8
0
 10
23.08825248
 20
169.01326564
  0
VERTEX
  8
0
 10
23.72529644
 20
169.03981855
  0
VERTEX
  8
0
 10
28.22641085
 20
169.04282022
  0
VERTEX
  8
0
 10
28.50504170
 20
168.80647590
  0
VERTEX
  8
0
 10
28.80446020
 20
168.59577602
  0
VERTEX
  8
0
 10
29.12300705
 20
168.41252924
  0
VERTEX
  8
0
 10
29.45902296
 20
168.25854423
  0
VERTEX
  8
0
 10
29.81084862
 20
168.13562969
  0
VERTEX
  8
0
 10
30.17682475
 20
168.04559427
  0
VERTEX
  8
0
 10
30.55529204
 20
167.99024666
  0
VERTEX
  8
0
 10
30.94459119
 20
167.97139552
  0
VERTEX
  8
0
 10
31.35354539
 20
167.99204600
  0
VERTEX
  8
0
 10
31.75069374
 20
168.05265739
  0
VERTEX
  8
0
 10
32.13402471
 20
168.15121967
  0
VERTEX
  8
0
 10
32.50152674
 20
168.28572281
  0
VERTEX
  8
0
 10
32.85118828
 20
168.45415677
  0
VERTEX
  8
0
 10
33.18099781
 20
168.65451153
  0
VERTEX
  8
0
 10
33.48894376
 20
168.88477705
  0
VERTEX
  8
0
 10
33.77301459
 20
169.14294331
  0
VERTEX
  8
0
 10
34.03119876
 20
169.42700026
  0
VERTEX
  8
0
 10
34.26148472
 20
169.73493789
  0
VERTEX
  8
0
 10
34.46186093
 20
170.06474615
  0
VERTEX
  8
0
 10
34.63031583
 20
170.41441501
  0
VERTEX
  8
0
 10
34.76483790
 20
170.78193445
  0
VERTEX
  8
0
 10
34.86341557
 20
171.16529443
  0
VERTEX
  8
0
 10
34.92403731
 20
171.56248492
  0
VERTEX
  8
0
 10
34.94469156
 20
171.97149589
  0
VERTEX
  8
0
 10
34.92403731
 20
172.38044622
  0
VERTEX
  8
0
 10
34.86341557
 20
172.77758364
  0
VERTEX
  8
0
 10
34.76483790
 20
173.16089762
  0
VERTEX
  8
0
 10
34.63031583
 20
173.52837761
  0
VERTEX
  8
0
 10
34.46186093
 20
173.87801308
  0
VERTEX
  8
0
 10
34.26148472
 20
174.20779350
  0
VERTEX
  8
0
 10
34.03119876
 20
174.51570833
  0
VERTEX
  8
0
 10
33.77301459
 20
174.79974703
  0
VERTEX
  8
0
 10
33.48894376
 20
175.05789907
  0
VERTEX
  8
0
 10
33.18099781
 20
175.28815391
  0
VERTEX
  8
0
 10
32.85118828
 20
175.48850102
  0
VERTEX
  8
0
 10
32.50152674
 20
175.65692985
  0
VERTEX
  8
0
 10
32.13402471
 20
175.79142988
  0
VERTEX
  8
0
 10
31.75069374
 20
175.88999056
  0
VERTEX
  8
0
 10
31.35354539
 20
175.95060137
  0
VERTEX
  8
0
 10
30.94459119
 20
175.97125175
  0
VERTEX
  8
0
 10
30.55439107
 20
175.95232055
  0
VERTEX
  8
0
 10
30.17504299
 20
175.89673541
  0
VERTEX
  8
0
 10
29.80822645
 20
175.80630906
  0
VERTEX
  8
0
 10
29.45562092
 20
175.68285420
  0
VERTEX
  8
0
 10
29.11890590
 20
175.52818354
  0
VERTEX
  8
0
 10
28.79976087
 20
175.34410980
  0
VERTEX
  8
0
 10
28.49986531
 20
175.13244569
  0
VERTEX
  8
0
 10
28.22089870
 20
174.89500392
  0
VERTEX
  8
0
 10
17.26790662
 20
174.89500392
  0
VERTEX
  8
0
 10
16.76555054
 20
174.90576667
  0
VERTEX
  8
0
 10
16.31245486
 20
174.93863354
  0
VERTEX
  8
0
 10
15.90595418
 20
174.99447245
  0
VERTEX
  8
0
 10
15.54338312
 20
175.07415133
  0
VERTEX
  8
0
 10
15.22207626
 20
175.17853810
  0
VERTEX
  8
0
 10
14.93936820
 20
175.30850070
  0
VERTEX
  8
0
 10
14.69259355
 20
175.46490704
  0
VERTEX
  8
0
 10
14.47908690
 20
175.64862506
  0
VERTEX
  8
0
 10
14.29618285
 20
175.86052268
  0
VERTEX
  8
0
 10
14.14121601
 20
176.10146783
  0
VERTEX
  8
0
 10
14.01152097
 20
176.37232843
  0
VERTEX
  8
0
 10
13.90443234
 20
176.67397242
  0
VERTEX
  8
0
 10
13.81728470
 20
177.00726771
  0
VERTEX
  8
0
 10
13.74741267
 20
177.37308223
  0
VERTEX
  8
0
 10
13.69215084
 20
177.77228391
  0
VERTEX
  8
0
 10
13.64883381
 20
178.20574069
  0
VERTEX
  8
0
 10
13.54537115
 20
179.60773659
  0
VERTEX
  8
0
 10
13.47479944
 20
180.98151790
  0
VERTEX
  8
0
 10
13.43657913
 20
182.32728097
  0
VERTEX
  8
0
 10
13.43017065
 20
183.64522214
  0
VERTEX
  8
0
 10
13.45503445
 20
184.93553778
  0
VERTEX
  8
0
 10
13.51063097
 20
186.19842424
  0
VERTEX
  8
0
 10
13.59642065
 20
187.43407786
  0
VERTEX
  8
0
 10
13.71186392
 20
188.64269501
  0
VERTEX
  8
0
 10
13.85642124
 20
189.82447204
  0
VERTEX
  8
0
 10
14.02955303
 20
190.97960530
  0
VERTEX
  8
0
 10
14.23071974
 20
192.10829114
  0
VERTEX
  8
0
 10
14.45938181
 20
193.21072593
  0
VERTEX
  8
0
 10
14.71499969
 20
194.28710600
  0
VERTEX
  8
0
 10
14.99703380
 20
195.33762772
  0
VERTEX
  8
0
 10
15.30494459
 20
196.36248744
  0
VERTEX
  8
0
 10
15.63819250
 20
197.36188152
  0
VERTEX
  8
0
 10
15.99623798
 20
198.33600630
  0
VERTEX
  8
0
 10
16.37854145
 20
199.28505814
  0
VERTEX
  8
0
 10
16.78456337
 20
200.20923339
  0
VERTEX
  8
0
 10
17.21376417
 20
201.10872841
  0
VERTEX
  8
0
 10
17.66560429
 20
201.98373956
  0
VERTEX
  8
0
 10
18.13954417
 20
202.83446318
  0
VERTEX
  8
0
 10
18.63504426
 20
203.66109562
  0
VERTEX
  8
0
 10
19.15156499
 20
204.46383325
  0
VERTEX
  8
0
 10
19.68856680
 20
205.24287242
  0
VERTEX
  8
0
 10
20.24551014
 20
205.99840947
  0
VERTEX
  8
0
 10
20.82185544
 20
206.73064077
  0
VERTEX
  8
0
 10
21.41706314
 20
207.43976266
  0
VERTEX
  8
0
 10
22.03059369
 20
208.12597150
  0
VERTEX
  8
0
 10
22.66190752
 20
208.78946365
  0
VERTEX
  8
0
 10
23.31046508
 20
209.43043546
  0
VERTEX
  8
0
 10
23.97572681
 20
210.04908327
  0
VERTEX
  8
0
 10
24.65715314
 20
210.64560345
  0
VERTEX
  8
0
 10
25.35420451
 20
211.22019235
  0
VERTEX
  8
0
 10
26.06634138
 20
211.77304632
  0
VERTEX
  8
0
 10
26.79302417
 20
212.30436172
  0
VERTEX
  8
0
 10
27.53371332
 20
212.81433490
  0
VERTEX
  8
0
 10
28.28786928
 20
213.30316220
  0
VERTEX
  8
0
 10
29.05495249
 20
213.77104000
  0
VERTEX
  8
0
 10
29.83442339
 20
214.21816463
  0
VERTEX
  8
0
 10
30.62574242
 20
214.64473246
  0
VERTEX
  8
0
 10
31.42837001
 20
215.05093984
  0
VERTEX
  8
0
 10
32.24176662
 20
215.43698312
  0
VERTEX
  8
0
 10
33.06539267
 20
215.80305865
  0
VERTEX
  8
0
 10
33.89870861
 20
216.14936279
  0
VERTEX
  8
0
 10
34.74117488
 20
216.47609189
  0
VERTEX
  8
0
 10
35.59225192
 20
216.78344231
  0
VERTEX
  8
0
 10
36.45140017
 20
217.07161040
  0
VERTEX
  8
0
 10
37.31808007
 20
217.34079251
  0
VERTEX
  8
0
 10
38.19175207
 20
217.59118499
  0
VERTEX
  8
0
 10
39.07187659
 20
217.82298421
  0
VERTEX
  8
0
 10
39.95791408
 20
218.03638651
  0
VERTEX
  8
0
 10
40.84932499
 20
218.23158824
  0
VERTEX
  8
0
 10
41.74556975
 20
218.40878577
  0
VERTEX
  8
0
 10
42.64610880
 20
218.56817544
  0
VERTEX
  8
0
 10
43.55040258
 20
218.70995361
  0
VERTEX
  8
0
 10
44.45791154
 20
218.83431663
  0
VERTEX
  8
0
 10
45.36809610
 20
218.94146086
  0
VERTEX
  8
0
 10
46.28041673
 20
219.03158265
  0
VERTEX
  8
0
 10
47.19433384
 20
219.10487835
  0
VERTEX
  8
0
 10
48.10930789
 20
219.16154431
  0
VERTEX
  8
0
 10
49.02479931
 20
219.20177690
  0
VERTEX
  8
0
 10
49.94026855
 20
219.22577245
  0
VERTEX
  8
0
 10
50.85517605
 20
219.23372734
  0
VERTEX
  8
0
 10
51.98799686
 20
219.37550274
  0
VERTEX
  8
0
 10
53.70413609
 20
219.60915763
  0
VERTEX
  8
0
 10
55.82311367
 20
219.91386411
  0
VERTEX
  8
0
 10
58.16444955
 20
220.26879427
  0
VERTEX
  8
0
 10
60.54766366
 20
220.65312020
  0
VERTEX
  8
0
 10
62.79227593
 20
221.04601400
  0
VERTEX
  8
0
 10
64.71780630
 20
221.42664775
  0
VERTEX
  8
0
 10
65.50451575
 20
221.60585839
  0
VERTEX
  8
0
 10
66.14377470
 20
221.77419355
  0
VERTEX
  8
0
 10
67.84658319
 20
222.27724137
  0
VERTEX
  8
0
 10
68.82569807
 20
222.58155577
  0
VERTEX
  8
0
 10
69.84467638
 20
222.91614163
  0
VERTEX
  8
0
 10
70.86956039
 20
223.27730733
  0
VERTEX
  8
0
 10
71.86639235
 20
223.66136120
  0
VERTEX
  8
0
 10
72.80121453
 20
224.06461162
  0
VERTEX
  8
0
 10
73.23476015
 20
224.27228189
  0
VERTEX
  8
0
 10
73.64006917
 20
224.48336694
  0
VERTEX
  8
0
 10
75.41931598
 20
225.42913928
  0
VERTEX
  8
0
 10
77.35642091
 20
226.45064837
  0
VERTEX
  8
0
 10
78.32996474
 20
226.97869108
  0
VERTEX
  8
0
 10
79.27792656
 20
227.51233226
  0
VERTEX
  8
0
 10
80.17862420
 20
228.04712666
  0
VERTEX
  8
0
 10
81.01037549
 20
228.57862903
  0
VERTEX
  8
0
 10
81.88089959
 20
229.19174346
  0
VERTEX
  8
0
 10
82.85470241
 20
229.92658628
  0
VERTEX
  8
0
 10
83.89527088
 20
230.74496259
  0
VERTEX
  8
0
 10
84.96609193
 20
231.60867746
  0
VERTEX
  8
0
 10
87.05243943
 20
233.31934321
  0
VERTEX
  8
0
 10
88.82164032
 20
234.75302419
  0
VERTEX
  8
0
 10
89.95688711
 20
235.66192627
  0
VERTEX
  8
0
 10
90.97314130
 20
236.49167657
  0
VERTEX
  8
0
 10
91.91772987
 20
237.26063641
  0
VERTEX
  8
0
 10
92.83797980
 20
237.98716714
  0
VERTEX
  8
0
 10
93.78121810
 20
238.68963008
  0
VERTEX
  8
0
 10
94.79477173
 20
239.38638657
  0
VERTEX
  8
0
 10
95.92596770
 20
240.09579793
  0
VERTEX
  8
0
 10
97.22213300
 20
240.83622549
  0
VERTEX
  8
0
 10
97.76212660
 20
241.13164855
  0
VERTEX
  8
0
 10
98.31678109
 20
241.39917657
  0
VERTEX
  8
0
 10
98.99350594
 20
241.68307145
  0
VERTEX
  8
0
 10
99.68381047
 20
241.93163339
  0
VERTEX
  8
0
 10
100.38525029
 20
242.14753423
  0
VERTEX
  8
0
 10
101.09538102
 20
242.33344585
  0
VERTEX
  8
0
 10
101.83320339
 20
242.49716835
  0
VERTEX
  8
0
 10
102.57594103
 20
242.63600124
  0
VERTEX
  8
0
 10
103.32274451
 20
242.75233566
  0
VERTEX
  8
0
 10
104.07276438
 20
242.84856273
  0
VERTEX
  8
0
 10
104.95943592
 20
242.94054137
  0
VERTEX
  8
0
 10
105.84744650
 20
243.01293335
  0
VERTEX
  8
0
 10
106.73657111
 20
243.06806896
  0
VERTEX
  8
0
 10
107.62658470
 20
243.10827848
  0
VERTEX
  8
0
 10
109.40837866
 20
243.15324033
  0
VERTEX
  8
0
 10
111.19102810
 20
243.16646117
  0
VERTEX
  8
0
 10
207.92793131
 20
243.16646117
  0
VERTEX
  8
0
 10
209.19900553
 20
243.14016153
  0
VERTEX
  8
0
 10
210.41090129
 20
243.06212188
  0
VERTEX
  8
0
 10
211.56453918
 20
242.93363109
  0
VERTEX
  8
0
 10
212.66083982
 20
242.75597804
  0
VERTEX
  8
0
 10
213.70072383
 20
242.53045163
  0
VERTEX
  8
0
 10
214.68511182
 20
242.25834073
  0
VERTEX
  8
0
 10
215.61492440
 20
241.94093423
  0
VERTEX
  8
0
 10
216.05965260
 20
241.76564790
  0
VERTEX
  8
0
 10
216.49108218
 20
241.57952100
  0
VERTEX
  8
0
 10
216.90932821
 20
241.38271464
  0
VERTEX
  8
0
 10
217.31450578
 20
241.17538994
  0
VERTEX
  8
0
 10
217.70672995
 20
240.95770799
  0
VERTEX
  8
0
 10
218.08611580
 20
240.72982992
  0
VERTEX
  8
0
 10
218.45277842
 20
240.49191682
  0
VERTEX
  8
0
 10
218.80683287
 20
240.24412982
  0
VERTEX
  8
0
 10
219.14839424
 20
239.98663003
  0
VERTEX
  8
0
 10
219.47757759
 20
239.71957854
  0
VERTEX
  8
0
 10
219.79449801
 20
239.44313648
  0
VERTEX
  8
0
 10
220.09927058
 20
239.15746495
  0
VERTEX
  8
0
 10
220.67283244
 20
238.55907794
  0
VERTEX
  8
0
 10
221.19918380
 20
237.92570639
  0
VERTEX
  8
0
 10
221.67924526
 20
237.25863918
  0
VERTEX
  8
0
 10
222.11393744
 20
236.55916519
  0
VERTEX
  8
0
 10
222.50418094
 20
235.82857331
  0
VERTEX
  8
0
 10
222.85089639
 20
235.06815242
  0
VERTEX
  8
0
 10
223.15500439
 20
234.27919141
  0
VERTEX
  8
0
 10
223.41742556
 20
233.46297915
  0
VERTEX
  8
0
 10
223.63908051
 20
232.62080453
  0
VERTEX
  8
0
 10
223.82088986
 20
231.75395644
  0
VERTEX
  8
0
 10
223.96377420
 20
230.86372374
  0
VERTEX
  8
0
 10
224.06865417
 20
229.95139534
  0
VERTEX
  8
0
 10
224.13645036
 20
229.01826011
  0
VERTEX
  8
0
 10
224.16808340
 20
228.06560693
  0
VERTEX
  8
0
 10
224.16447389
 20
227.09472469
  0
VERTEX
  8
0
 10
224.12654245
 20
226.10690226
  0
VERTEX
  8
0
 10
224.05520970
 20
225.10342854
  0
VERTEX
  8
0
 10
223.95139623
 20
224.08559241
  0
VERTEX
  8
0
 10
223.81602267
 20
223.05468274
  0
VERTEX
  8
0
 10
223.45374266
 20
220.71217081
  0
VERTEX
  8
0
 10
222.98246601
 20
217.83908473
  0
VERTEX
  8
0
 10
222.42045734
 20
214.44519206
  0
VERTEX
  8
0
 10
221.78598132
 20
210.54026035
  0
VERTEX
  8
0
 10
221.09730256
 20
206.13405715
  0
VERTEX
  8
0
 10
220.37268573
 20
201.23635002
  0
VERTEX
  8
0
 10
219.63039546
 20
195.85690651
  0
VERTEX
  8
0
 10
219.25833048
 20
192.98958597
  0
VERTEX
  8
0
 10
218.88869638
 20
190.00549417
  0
VERTEX
  8
0
 10
218.52377625
 20
186.90585205
  0
VERTEX
  8
0
 10
218.16585315
 20
183.69188055
  0
VERTEX
  8
0
 10
217.81721018
 20
180.36480063
  0
VERTEX
  8
0
 10
217.48013040
 20
176.92583321
  0
VERTEX
  8
0
 10
217.15689691
 20
173.37619925
  0
VERTEX
  8
0
 10
216.84979278
 20
169.71711969
  0
VERTEX
  8
0
 10
216.56110109
 20
165.94981548
  0
VERTEX
  8
0
 10
216.29310492
 20
162.07550756
  0
VERTEX
  8
0
 10
216.04808736
 20
158.09541687
  0
VERTEX
  8
0
 10
215.82833147
 20
154.01076435
  0
VERTEX
  8
0
 10
215.63612035
 20
149.82277096
  0
VERTEX
  8
0
 10
215.47373707
 20
145.53265763
  0
VERTEX
  8
0
 10
215.34346472
 20
141.14164531
  0
VERTEX
  8
0
 10
215.24758636
 20
136.65095494
  0
VERTEX
  8
0
 10
215.18838509
 20
132.06180747
  0
VERTEX
  8
0
 10
215.16814398
 20
127.37542385
  0
VERTEX
  8
0
 10
215.18838509
 20
122.68893067
  0
VERTEX
  8
0
 10
215.24758636
 20
118.09968046
  0
VERTEX
  8
0
 10
215.34346472
 20
113.60889391
  0
VERTEX
  8
0
 10
215.47373707
 20
109.21779172
  0
VERTEX
  8
0
 10
215.63612035
 20
104.92759458
  0
VERTEX
  8
0
 10
215.82833147
 20
100.73952317
  0
VERTEX
  8
0
 10
216.04808736
 20
96.65479820
  0
VERTEX
  8
0
 10
216.29310492
 20
92.67464035
  0
VERTEX
  8
0
 10
216.56110109
 20
88.80027031
  0
VERTEX
  8
0
 10
216.84979278
 20
85.03290878
  0
VERTEX
  8
0
 10
217.15689691
 20
81.37377644
  0
VERTEX
  8
0
 10
217.48013040
 20
77.82409399
  0
VERTEX
  8
0
 10
217.81721018
 20
74.38508213
  0
VERTEX
  8
0
 10
218.16585315
 20
71.05796153
  0
VERTEX
  8
0
 10
218.52377625
 20
67.84395290
  0
VERTEX
  8
0
 10
218.88869638
 20
64.74427693
  0
VERTEX
  8
0
 10
219.25833048
 20
61.76015430
  0
VERTEX
  8
0
 10
219.63039546
 20
58.89280571
  0
VERTEX
  8
0
 10
220.37268573
 20
53.51331342
  0
VERTEX
  8
0
 10
221.09730256
 20
48.61556558
  0
VERTEX
  8
0
 10
221.78598132
 20
44.20932773
  0
VERTEX
  8
0
 10
222.42045734
 20
40.30436541
  0
VERTEX
  8
0
 10
222.98246601
 20
36.91044414
  0
VERTEX
  8
0
 10
223.45374266
 20
34.03732946
  0
VERTEX
  8
0
 10
223.81602267
 20
31.69478691
  0
VERTEX
  8
0
 10
223.95139623
 20
30.66389289
  0
VERTEX
  8
0
 10
224.05520970
 20
29.64607143
  0
VERTEX
  8
0
 10
224.12654245
 20
28.64261143
  0
VERTEX
  8
0
 10
224.16447389
 20
27.65480182
  0
VERTEX
  8
0
 10
224.16808340
 20
26.68393151
  0
VERTEX
  8
0
 10
224.13645036
 20
25.73128940
  0
VERTEX
  8
0
 10
224.06865417
 20
24.79816443
  0
VERTEX
  8
0
 10
223.96377420
 20
23.88584549
  0
VERTEX
  8
0
 10
223.82088986
 20
22.99562151
  0
VERTEX
  8
0
 10
223.63908051
 20
22.12878140
  0
VERTEX
  8
0
 10
223.41742556
 20
21.28661407
  0
VERTEX
  8
0
 10
223.15500439
 20
20.47040844
  0
VERTEX
  8
0
 10
222.85089639
 20
19.68145343
  0
VERTEX
  8
0
 10
222.50418094
 20
18.92103794
  0
VERTEX
  8
0
 10
222.11393744
 20
18.19045089
  0
VERTEX
  8
0
 10
221.67924526
 20
17.49098120
  0
VERTEX
  8
0
 10
221.19918380
 20
16.82391778
  0
VERTEX
  8
0
 10
220.67283244
 20
16.19054954
  0
VERTEX
  8
0
 10
220.09927058
 20
15.59216540
  0
VERTEX
  8
0
 10
219.79449801
 20
15.30649516
  0
VERTEX
  8
0
 10
219.47757759
 20
15.03005428
  0
VERTEX
  8
0
 10
219.14839424
 20
14.76300389
  0
VERTEX
  8
0
 10
218.80683287
 20
14.50550509
  0
VERTEX
  8
0
 10
218.45277842
 20
14.25771900
  0
VERTEX
  8
0
 10
218.08611580
 20
14.01980673
  0
VERTEX
  8
0
 10
217.70672995
 20
13.79192941
  0
VERTEX
  8
0
 10
217.31450578
 20
13.57424814
  0
VERTEX
  8
0
 10
216.90932821
 20
13.36692404
  0
VERTEX
  8
0
 10
216.49108218
 20
13.17011822
  0
VERTEX
  8
0
 10
216.05965260
 20
12.98399179
  0
VERTEX
  8
0
 10
215.61492440
 20
12.80870588
  0
VERTEX
  8
0
 10
214.68511182
 20
12.49130004
  0
VERTEX
  8
0
 10
213.70072383
 20
12.21918962
  0
VERTEX
  8
0
 10
212.66083982
 20
11.99366353
  0
VERTEX
  8
0
 10
211.56453918
 20
11.81601068
  0
VERTEX
  8
0
 10
210.41090129
 20
11.68751999
  0
VERTEX
  8
0
 10
209.19900553
 20
11.60948037
  0
VERTEX
  8
0
 10
207.92793131
 20
11.58318074
  0
VERTEX
  8
0
 10
111.19102810
 20
11.58318074
  0
VERTEX
  8
0
 10
109.00757982
 20
11.60272379
  0
VERTEX
  8
0
 10
107.96461184
 20
11.62985336
  0
VERTEX
  8
0
 10
106.95377729
 20
11.67095564
  0
VERTEX
  8
0
 10
105.97479818
 20
11.72783112
  0
VERTEX
  8
0
 10
105.02739652
 20
11.80228031
  0
VERTEX
  8
0
 10
104.11129431
 20
11.89610372
  0
VERTEX
  8
0
 10
103.22621356
 20
12.01110184
  0
VERTEX
  8
0
 10
102.37187626
 20
12.14907518
  0
VERTEX
  8
0
 10
101.54800443
 20
12.31182424
  0
VERTEX
  8
0
 10
100.75432006
 20
12.50114954
  0
VERTEX
  8
0
 10
99.99054516
 20
12.71885156
  0
VERTEX
  8
0
 10
99.25640174
 20
12.96673081
  0
VERTEX
  8
0
 10
98.55161180
 20
13.24658781
  0
VERTEX
  8
0
 10
97.87589734
 20
13.56022304
  0
VERTEX
  8
0
 10
97.22898037
 20
13.90943702
  0
SEQEND
  0
POLYLINE
  8
По умолчанию
 66
   1
 39
0.000000
 70
    1
  0
VERTEX
  8
0
 10
37.35671937
 20
101.01612903
  0
VERTEX
  8
0
 10
37.38034539
 20
100.60715227
  0
VERTEX
  8
0
 10
37.44968998
 20
100.20998951
  0
VERTEX
  8
0
 10
37.56245292
 20
99.82665139
  0
VERTEX
  8
0
 10
37.71633400
 20
99.45914852
  0
VERTEX
  8
0
 10
37.90903302
 20
99.10949151
  0
VERTEX
  8
0
 10
38.13824975
 20
98.77969100
  0
VERTEX
  8
0
 10
38.40168399
 20
98.47175759
  0
VERTEX
  8
0
 10
38.69703553
 20
98.18770191
  0
VERTEX
  8
0
 10
39.02200414
 20
97.92953458
  0
VERTEX
  8
0
 10
39.37428963
 20
97.69926621
  0
VERTEX
  8
0
 10
39.75159178
 20
97.49890743
  0
VERTEX
  8
0
 10
40.15161037
 20
97.33046886
  0
VERTEX
  8
0
 10
40.57204520
 20
97.19596112
  0
VERTEX
  8
0
 10
41.01059605
 20
97.09739482
  0
VERTEX
  8
0
 10
41.46496271
 20
97.03678058
  0
VERTEX
  8
0
 10
41.93284497
 20
97.01612903
  0
VERTEX
  8
0
 10
118.58294887
 20
97.01612903
  0
VERTEX
  8
0
 10
119.05083113
 20
97.03678058
  0
VERTEX
  8
0
 10
119.50519779
 20
97.09739482
  0
VERTEX
  8
0
 10
119.94374864
 20
97.19596112
  0
VERTEX
  8
0
 10
120.36418347
 20
97.33046886
  0
VERTEX
  8
0
 10
120.76420206
 20
97.49890743
  0
VERTEX
  8
0
 10
121.14150421
 20
97.69926621
  0
VERTEX
  8
0
 10
121.49378970
 20
97.92953458
  0
VERTEX
  8
0
 10
121.81875832
 20
98.18770191
  0
VERTEX
  8
0
 10
122.11410985
 20
98.47175759
  0
VERTEX
  8
0
 10
122.37754409
 20
98.77969100
  0
VERTEX
  8
0
 10
122.60676083
 20
99.10949151
  0
VERTEX
  8
0
 10
122.79945984
 20
99.45914852
  0
VERTEX
  8
0
 10
122.95334092
 20
99.82665139
  0
VERTEX
  8
0
 10
123.06610387
 20
100.20998951
  0
VERTEX
  8
0
 10
123.13544845
 20
100.60715227
  0
VERTEX
  8
0
 10
123.15907447
 20
101.01612903
  0
VERTEX
  8
0
 10
123.15907447
 20
153.01612903
  0
VERTEX
  8
0
 10
123.13544845
 20
153.42510580
  0
VERTEX
  8
0
 10
123.06610387
 20
153.82226855
  0
VERTEX
  8
0
 10
122.95334092
 20
154.20560667
  0
VERTEX
  8
0
 10
122.79945984
 20
154.57310955
  0
VERTEX
  8
0
 10
122.60676083
 20
154.92276655
  0
VERTEX
  8
0
 10
122.37754409
 20
155.25256707
  0
VERTEX
  8
0
 10
122.11410985
 20
155.56050048
  0
VERTEX
  8
0
 10
121.81875832
 20
155.84455616
  0
VERTEX
  8
0
 10
121.49378970
 20
156.10272349
  0
VERTEX
  8
0
 10
121.14150421
 20
156.33299185
  0
VERTEX
  8
0
 10
120.76420206
 20
156.53335063
  0
VERTEX
  8
0
 10
120.36418347
 20
156.70178920
  0
VERTEX
  8
0
 10
119.94374864
 20
156.83629695
  0
VERTEX
  8
0
 10
119.50519779
 20
156.93486325
  0
VERTEX
  8
0
 10
119.05083113
 20
156.99547748
  0
VERTEX
  8
0
 10
118.58294887
 20
157.01612903
  0
VERTEX
  8
0
 10
41.93284497
 20
157.01612903
  0
VERTEX
  8
0
 10
41.46496271
 20
156.99547748
  0
VERTEX
  8
0
 10
41.01059605
 20
156.93486325
  0
VERTEX
  8
0
 10
40.57204520
 20
156.83629695
  0
VERTEX
  8
0
 10
40.15161037
 20
156.70178920
  0
VERTEX
  8
0
 10
39.75159178
 20
156.53335063
  0
VERTEX
  8
0
 10
39.37428963
 20
156.33299185
  0
VERTEX
  8
0
 10
39.02200414
 20
156.10272349
  0
VERTEX
  8
0
 10
38.69703553
 20
155.84455616
  0
VERTEX
  8
0
 10
38.40168399
 20
155.56050048
  0
VERTEX
  8
0
 10
38.13824975
 20
155.25256707
  0
VERTEX
  8
0
 10
37.90903302
 20
154.92276655
  0
VERTEX
  8
0
 10
37.71633400
 20
154.57310955
  0
VERTEX
  8
0
 10
37.56245292
 20
154.20560667
  0
VERTEX
  8
0
 10
37.44968998
 20
153.82226855
  0
VERTEX
  8
0
 10
37.38034539
 20
153.42510580
  0
VERTEX
  8
0
 10
37.35671937
 20
153.01612903
  0
VERTEX
  8
0
 10
37.35671937
 20
101.01612903
  0
SEQEND
  0
POLYLINE
  8
По умолчанию
 66
   1
 39
0.000000
 70
    1
  0
VERTEX
  8
0
 10
171.42197699
 20
188.90138413
  0
VERTEX
  8
0
 10
171.21750183
 20
188.91171319
  0
VERTEX
  8
0
 10
171.01893312
 20
188.94202953
  0
VERTEX
  8
0
 10
170.82727613
 20
188.99132686
  0
VERTEX
  8
0
 10
170.64353613
 20
189.05859891
  0
VERTEX
  8
0
 10
170.46871840
 20
189.14283940
  0
VERTEX
  8
0
 10
170.30382819
 20
189.24304206
  0
VERTEX
  8
0
 10
170.14987077
 20
189.35820060
  0
VERTEX
  8
0
 10
170.00785142
 20
189.48730875
  0
VERTEX
  8
0
 10
169.87877540
 20
189.62936023
  0
VERTEX
  8
0
 10
169.76364798
 20
189.78334876
  0
VERTEX
  8
0
 10
169.66347443
 20
189.94826807
  0
VERTEX
  8
0
 10
169.57926001
 20
190.12311188
  0
VERTEX
  8
0
 10
169.51201000
 20
190.30687392
  0
VERTEX
  8
0
 10
169.46272965
 20
190.49854789
  0
VERTEX
  8
0
 10
169.43242425
 20
190.69712754
  0
VERTEX
  8
0
 10
169.42209906
 20
190.90160657
  0
VERTEX
  8
0
 10
169.43242425
 20
191.10608174
  0
VERTEX
  8
0
 10
169.46272965
 20
191.30465044
  0
VERTEX
  8
0
 10
169.51201000
 20
191.49630743
  0
VERTEX
  8
0
 10
169.57926001
 20
191.68004743
  0
VERTEX
  8
0
 10
169.66347443
 20
191.85486516
  0
VERTEX
  8
0
 10
169.76364798
 20
192.01975537
  0
VERTEX
  8
0
 10
169.87877540
 20
192.17371279
  0
VERTEX
  8
0
 10
170.00785142
 20
192.31573214
  0
VERTEX
  8
0
 10
170.14987077
 20
192.44480816
  0
VERTEX
  8
0
 10
170.30382819
 20
192.55993558
  0
VERTEX
  8
0
 10
170.46871840
 20
192.66010913
  0
VERTEX
  8
0
 10
170.64353613
 20
192.74432355
  0
VERTEX
  8
0
 10
170.82727613
 20
192.81157356
  0
VERTEX
  8
0
 10
171.01893312
 20
192.86085391
  0
VERTEX
  8
0
 10
171.21750183
 20
192.89115931
  0
VERTEX
  8
0
 10
171.42197699
 20
192.90148450
  0
VERTEX
  8
0
 10
182.42216688
 20
192.90148450
  0
VERTEX
  8
0
 10
182.62664204
 20
192.89115931
  0
VERTEX
  8
0
 10
182.82521075
 20
192.86085391
  0
VERTEX
  8
0
 10
183.01686774
 20
192.81157356
  0
VERTEX
  8
0
 10
183.20060773
 20
192.74432355
  0
VERTEX
  8
0
 10
183.37542547
 20
192.66010913
  0
VERTEX
  8
0
 10
183.54031568
 20
192.55993558
  0
VERTEX
  8
0
 10
183.69427310
 20
192.44480816
  0
VERTEX
  8
0
 10
183.83629245
 20
192.31573214
  0
VERTEX
  8
0
 10
183.96536847
 20
192.17371279
  0
VERTEX
  8
0
 10
184.08049589
 20
192.01975537
  0
VERTEX
  8
0
 10
184.18066944
 20
191.85486516
  0
VERTEX
  8
0
 10
184.26488386
 20
191.68004743
  0
VERTEX
  8
0
 10
184.33213387
 20
191.49630743
  0
VERTEX
  8
0
 10
184.38141421
 20
191.30465044
  0
VERTEX
  8
0
 10
184.41171961
 20
191.10608174
  0
VERTEX
  8
0
 10
184.42204481
 20
190.90160657
  0
VERTEX
  8
0
 10
184.41171961
 20
190.69712754
  0
VERTEX
  8
0
 10
184.38141421
 20
190.49854789
  0
VERTEX
  8
0
 10
184.33213387
 20
190.30687392
  0
VERTEX
  8
0
 10
184.26488386
 20
190.12311188
  0
VERTEX
  8
0
 10
184.18066944
 20
189.94826807
  0
VERTEX
  8
0
 10
184.08049589
 20
189.78334876
  0
VERTEX
  8
0
 10
183.96536847
 20
189.62936023
  0
VERTEX
  8
0
 10
183.83629245
 20
189.48730875
  0
VERTEX
  8
0
 10
183.69427310
 20
189.35820060
  0
VERTEX
  8
0
 10
183.54031568
 20
189.24304206
  0
VERTEX
  8
0
 10
183.37542547
 20
189.14283940
  0
VERTEX
  8
0
 10
183.20060773
 20
189.05859891
  0
VERTEX
  8
0
 10
183.01686774
 20
188.99132686
  0
VERTEX
  8
0
 10
182.82521075
 20
188.94202953
  0
VERTEX
  8
0
 10
182.62664204
 20
188.91171319
  0
VERTEX
  8
0
 10
182.42216688
 20
188.90138413
  0
VERTEX
  8
0
 10
171.42197699
 20
188.90138413
  0
SEQEND
  0
POLYLINE
  8
По умолчанию
 66
   1
 39
0.000000
 70
    1
  0
VERTEX
  8
0
 10
204.23461660
 20
184.90421179
 42
0.41421356
  0
VERTEX
  8
0
 10
200.73457160
 20
188.40425679
 42
0.41421356
  0
VERTEX
  8
0
 10
197.23452660
 20
184.90421179
 42
0.41421356
  0
VERTEX
  8
0
 10
200.73457160
 20
181.40416679
 42
0.41421356
  0
VERTEX
  8
0
 10
204.23461660
 20
184.90421179
  0
SEQEND
  0
POLYLINE
  8
По умолчанию
 66
   1
 39
0.000000
 70
    1
  0
VERTEX
  8
0
 10
112.42351060
 20
230.94171179
 42
0.41421356
  0
VERTEX
  8
0
 10
110.42346060
 20
232.94176179
 42
0.41421356
  0
VERTEX
  8
0
 10
108.42341060
 20
230.94171179
 42
0.41421356
  0
VERTEX
  8
0
 10
110.42346060
 20
228.94166179
 42
0.41421356
  0
VERTEX
  8
0
 10
112.42351060
 20
230.94171179
  0
SEQEND
  0
POLYLINE
  8
По умолчанию
 66
   1
 39
0.000000
 70
    1
  0
VERTEX
  8
0
 10
170.27906660
 20
230.94171179
 42
0.41421356
  0
VERTEX
  8
0
 10
168.27901660
 20
232.94176179
 42
0.41421356
  0
VERTEX
  8
0
 10
166.27896660
 20
230.94171179
 42
0.41421356
  0
VERTEX
  8
0
 10
168.27901660
 20
228.94166179
 42
0.41421356
  0
VERTEX
  8
0
 10
170.27906660
 20
230.94171179
  0
SEQEND
  0
POLYLINE
  8
По умолчанию
 66
   1
 39
0.000000
 70
    1
  0
VERTEX
  8
0
 10
171.42197699
 20
65.84808552
  0
VERTEX
  8
0
 10
171.21750183
 20
65.83775839
  0
VERTEX
  8
0
 10
171.01893312
 20
65.80744752
  0
VERTEX
  8
0
 10
170.82727613
 20
65.75815869
  0
VERTEX
  8
0
 10
170.64353613
 20
65.69089766
  0
VERTEX
  8
0
 10
170.46871840
 20
65.60667020
  0
VERTEX
  8
0
 10
170.30382819
 20
65.50648210
  0
VERTEX
  8
0
 10
170.14987077
 20
65.39133912
  0
VERTEX
  8
0
 10
170.00785142
 20
65.26224703
  0
VERTEX
  8
0
 10
169.87877540
 20
65.12021162
  0
VERTEX
  8
0
 10
169.76364798
 20
64.96623864
  0
VERTEX
  8
0
 10
169.66347443
 20
64.80133388
  0
VERTEX
  8
0
 10
169.57926001
 20
64.62650311
  0
VERTEX
  8
0
 10
169.51201000
 20
64.44275209
  0
VERTEX
  8
0
 10
169.46272965
 20
64.25108661
  0
VERTEX
  8
0
 10
169.43242425
 20
64.05251243
  0
VERTEX
  8
0
 10
169.42209906
 20
63.84803534
  0
VERTEX
  8
0
 10
169.43242425
 20
63.64355824
  0
VERTEX
  8
0
 10
169.46272965
 20
63.44498406
  0
VERTEX
  8
0
 10
169.51201000
 20
63.25331858
  0
VERTEX
  8
0
 10
169.57926001
 20
63.06956756
  0
VERTEX
  8
0
 10
169.66347443
 20
62.89473679
  0
VERTEX
  8
0
 10
169.76364798
 20
62.72983203
  0
VERTEX
  8
0
 10
169.87877540
 20
62.57585906
  0
VERTEX
  8
0
 10
170.00785142
 20
62.43382364
  0
VERTEX
  8
0
 10
170.14987077
 20
62.30473155
  0
VERTEX
  8
0
 10
170.30382819
 20
62.18958857
  0
VERTEX
  8
0
 10
170.46871840
 20
62.08940047
  0
VERTEX
  8
0
 10
170.64353613
 20
62.00517302
  0
VERTEX
  8
0
 10
170.82727613
 20
61.93791198
  0
VERTEX
  8
0
 10
171.01893312
 20
61.88862315
  0
VERTEX
  8
0
 10
171.21750183
 20
61.85831228
  0
VERTEX
  8
0
 10
171.42197699
 20
61.84798515
  0
VERTEX
  8
0
 10
182.42216688
 20
61.84798515
  0
VERTEX
  8
0
 10
182.62664204
 20
61.85831228
  0
VERTEX
  8
0
 10
182.82521075
 20
61.88862315
  0
VERTEX
  8
0
 10
183.01686774
 20
61.93791198
  0
VERTEX
  8
0
 10
183.20060773
 20
62.00517302
  0
VERTEX
  8
0
 10
183.37542547
 20
62.08940047
  0
VERTEX
  8
0
 10
183.54031568
 20
62.18958857
  0
VERTEX
  8
0
 10
183.69427310
 20
62.30473155
  0
VERTEX
  8
0
 10
183.83629245
 20
62.43382364
  0
VERTEX
  8
0
 10
183.96536847
 20
62.57585906
  0
VERTEX
  8
0
 10
184.08049589
 20
62.72983203
  0
VERTEX
  8
0
 10
184.18066944
 20
62.89473679
  0
VERTEX
  8
0
 10
184.26488386
 20
63.06956756
  0
VERTEX
  8
0
 10
184.33213387
 20
63.25331858
  0
VERTEX
  8
0
 10
184.38141421
 20
63.44498406
  0
VERTEX
  8
0
 10
184.41171961
 20
63.64355824
  0
VERTEX
  8
0
 10
184.42204481
 20
63.84803534
  0
VERTEX
  8
0
 10
184.41171961
 20
64.05251243
  0
VERTEX
  8
0
 10
184.38141421
 20
64.25108661
  0
VERTEX
  8
0
 10
184.33213387
 20
64.44275209
  0
VERTEX
  8
0
 10
184.26488386
 20
64.62650311
  0
VERTEX
  8
0
 10
184.18066944
 20
64.80133388
  0
VERTEX
  8
0
 10
184.08049589
 20
64.96623864
  0
VERTEX
  8
0
 10
183.96536847
 20
65.12021162
  0
VERTEX
  8
0
 10
183.83629245
 20
65.26224703
  0
VERTEX
  8
0
 10
183.69427310
 20
65.39133912
  0
VERTEX
  8
0
 10
183.54031568
 20
65.50648210
  0
VERTEX
  8
0
 10
183.37542547
 20
65.60667020
  0
VERTEX
  8
0
 10
183.20060773
 20
65.69089766
  0
VERTEX
  8
0
 10
183.01686774
 20
65.75815869
  0
VERTEX
  8
0
 10
182.82521075
 20
65.80744752
  0
VERTEX
  8
0
 10
182.62664204
 20
65.83775839
  0
VERTEX
  8
0
 10
182.42216688
 20
65.84808552
  0
VERTEX
  8
0
 10
171.42197699
 20
65.84808552
  0
SEQEND
  0
POLYLINE
  8
По умолчанию
 66
   1
 39
0.000000
 70
    1
  0
VERTEX
  8
0
 10
204.23461660
 20
69.84525779
 42
0.41421356
  0
VERTEX
  8
0
 10
200.73457160
 20
73.34530279
 42
0.41421356
  0
VERTEX
  8
0
 10
197.23452660
 20
69.84525779
 42
0.41421356
  0
VERTEX
  8
0
 10
200.73457160
 20
66.34521279
 42
0.41421356
  0
VERTEX
  8
0
 10
204.23461660
 20
69.84525779
  0
SEQEND
  0
POLYLINE
  8
По умолчанию
 66
   1
 39
0.000000
 70
    1
  0
VERTEX
  8
0
 10
112.42351060
 20
23.80775779
 42
0.41421356
  0
VERTEX
  8
0
 10
110.42346060
 20
25.80780779
 42
0.41421356
  0
VERTEX
  8
0
 10
108.42341060
 20
23.80775779
 42
0.41421356
  0
VERTEX
  8
0
 10
110.42346060
 20
21.80770779
 42
0.41421356
  0
VERTEX
  8
0
 10
112.42351060
 20
23.80775779
  0
SEQEND
  0
POLYLINE
  8
По умолчанию
 66
   1
 39
0.000000
 70
    1
  0
VERTEX
  8
0
 10
170.27906660
 20
23.80775779
 42
0.41421356
  0
VERTEX
  8
0
 10
168.27901660
 20
25.80780779
 42
0.41421356
  0
VERTEX
  8
0
 10
166.27896660
 20
23.80775779
 42
0.41421356
  0
VERTEX
  8
0
 10
168.27901660
 20
21.80770779
 42
0.41421356
  0
VERTEX
  8
0
 10
170.27906660
 20
23.80775779
  0
SEQEND
  0
POLYLINE
  8
По умолчанию
 66
   1
 39
0.000000
 70
    1
  0
VERTEX
  8
0
 10
39.95445652
 20
194.49514919
  0
VERTEX
  8
0
 10
39.95445652
 20
202.49514919
  0
VERTEX
  8
0
 10
59.95445652
 20
202.49514919
  0
VERTEX
  8
0
 10
59.95445652
 20
194.49514919
  0
VERTEX
  8
0
 10
39.95445652
 20
194.49514919
  0
SEQEND
  0
POLYLINE
  8
По умолчанию
 66
   1
 39
0.000000
 70
    1
  0
VERTEX
  8
0
 10
140.80796443
 20
194.43619758
  0
VERTEX
  8
0
 10
140.80796443
 20
202.43619758
  0
VERTEX
  8
0
 10
160.80796443
 20
202.43619758
  0
VERTEX
  8
0
 10
160.80796443
 20
194.43619758
  0
VERTEX
  8
0
 10
140.80796443
 20
194.43619758
  0
SEQEND
  0
POLYLINE
  8
По умолчанию
 66
   1
 39
0.000000
 70
    1
  0
VERTEX
  8
0
 10
39.82846838
 20
51.71628629
  0
VERTEX
  8
0
 10
39.82846838
 20
59.71628629
  0
VERTEX
  8
0
 10
59.82846838
 20
59.71628629
  0
VERTEX
  8
0
 10
59.82846838
 20
51.71628629
  0
VERTEX
  8
0
 10
39.82846838
 20
51.71628629
  0
SEQEND
  0
POLYLINE
  8
По умолчанию
 66
   1
 39
0.000000
 70
    1
  0
VERTEX
  8
0
 10
140.72922184
 20
51.71628629
  0
VERTEX
  8
0
 10
140.72922184
 20
59.71628629
  0
VERTEX
  8
0
 10
160.72922184
 20
59.71628629
  0
VERTEX
  8
0
 10
160.72922184
 20
51.71628629
  0
VERTEX
  8
0
 10
140.72922184
 20
51.71628629
  0
SEQEND
  0
POLYLINE
  8
По умолчанию
 66
   1
 39
0.000000
 70
    1
  0
VERTEX
  8
0
 10
78.29070461
 20
190.84274953
  0
VERTEX
  8
0
 10
78.31998124
 20
189.68491159
  0
VERTEX
  8
0
 10
78.40686866
 20
188.54227327
  0
VERTEX
  8
0
 10
78.54995317
 20
187.41624828
  0
VERTEX
  8
0
 10
78.74782105
 20
186.30825031
  0
VERTEX
  8
0
 10
78.99905861
 20
185.21969307
  0
VERTEX
  8
0
 10
79.30225214
 20
184.15199027
  0
VERTEX
  8
0
 10
79.65598793
 20
183.10655562
  0
VERTEX
  8
0
 10
80.05885227
 20
182.08480282
  0
VERTEX
  8
0
 10
80.50943147
 20
181.08814557
  0
VERTEX
  8
0
 10
81.00631181
 20
180.11799759
  0
VERTEX
  8
0
 10
81.54807958
 20
179.17577258
  0
VERTEX
  8
0
 10
82.13332109
 20
178.26288424
  0
VERTEX
  8
0
 10
82.76062263
 20
177.38074628
  0
VERTEX
  8
0
 10
83.42857049
 20
176.53077240
  0
VERTEX
  8
0
 10
84.13575096
 20
175.71437632
  0
VERTEX
  8
0
 10
84.88075034
 20
174.93297173
  0
VERTEX
  8
0
 10
85.66215493
 20
174.18797235
  0
VERTEX
  8
0
 10
86.47855101
 20
173.48079188
  0
VERTEX
  8
0
 10
87.32852488
 20
172.81284402
  0
VERTEX
  8
0
 10
88.21066285
 20
172.18554248
  0
VERTEX
  8
0
 10
89.12355119
 20
171.60030097
  0
VERTEX
  8
0
 10
90.06577620
 20
171.05853320
  0
VERTEX
  8
0
 10
91.03592418
 20
170.56165286
  0
VERTEX
  8
0
 10
92.03258143
 20
170.11107366
  0
VERTEX
  8
0
 10
93.05433423
 20
169.70820932
  0
VERTEX
  8
0
 10
94.09976888
 20
169.35447353
  0
VERTEX
  8
0
 10
95.16747168
 20
169.05128000
  0
VERTEX
  8
0
 10
96.25602892
 20
168.80004244
  0
VERTEX
  8
0
 10
97.36402689
 20
168.60217456
  0
VERTEX
  8
0
 10
98.49005188
 20
168.45909005
  0
VERTEX
  8
0
 10
99.63269020
 20
168.37220263
  0
VERTEX
  8
0
 10
100.79052814
 20
168.34292600
  0
VERTEX
  8
0
 10
101.94836607
 20
168.37220263
  0
VERTEX
  8
0
 10
103.09100439
 20
168.45909005
  0
VERTEX
  8
0
 10
104.21702939
 20
168.60217456
  0
VERTEX
  8
0
 10
105.32502736
 20
168.80004244
  0
VERTEX
  8
0
 10
106.41358459
 20
169.05128000
  0
VERTEX
  8
0
 10
107.48128739
 20
169.35447353
  0
VERTEX
  8
0
 10
108.52672204
 20
169.70820932
  0
VERTEX
  8
0
 10
109.54847485
 20
170.11107366
  0
VERTEX
  8
0
 10
110.54513209
 20
170.56165286
  0
VERTEX
  8
0
 10
111.51528007
 20
171.05853320
  0
VERTEX
  8
0
 10
112.45750509
 20
171.60030097
  0
VERTEX
  8
0
 10
113.37039343
 20
172.18554248
  0
VERTEX
  8
0
 10
114.25253139
 20
172.81284402
  0
VERTEX
  8
0
 10
115.10250526
 20
173.48079188
  0
VERTEX
  8
0
 10
115.91890135
 20
174.18797235
  0
VERTEX
  8
0
 10
116.70030593
 20
174.93297173
  0
VERTEX
  8
0
 10
117.44530531
 20
175.71437632
  0
VERTEX
  8
0
 10
118.15248579
 20
176.53077240
  0
VERTEX
  8
0
 10
118.82043364
 20
177.38074628
  0
VERTEX
  8
0
 10
119.44773518
 20
178.26288424
  0
VERTEX
  8
0
 10
120.03297669
 20
179.17577258
  0
VERTEX
  8
0
 10
120.57474447
 20
180.11799759
  0
VERTEX
  8
0
 10
121.07162481
 20
181.08814557
  0
VERTEX
  8
0
 10
121.52220400
 20
182.08480282
  0
VERTEX
  8
0
 10
121.92506835
 20
183.10655562
  0
VERTEX
  8
0
 10
122.27880414
 20
184.15199027
  0
VERTEX
  8
0
 10
122.58199766
 20
185.21969307
  0
VERTEX
  8
0
 10
122.83323522
 20
186.30825031
  0
VERTEX
  8
0
 10
123.03110311
 20
187.41624828
  0
VERTEX
  8
0
 10
123.17418762
 20
188.54227327
  0
VERTEX
  8
0
 10
123.26107504
 20
189.68491159
  0
VERTEX
  8
0
 10
123.29035167
 20
190.84274953
  0
VERTEX
  8
0
 10
123.26107504
 20
192.00058746
  0
VERTEX
  8
0
 10
123.17418762
 20
193.14322578
  0
VERTEX
  8
0
 10
123.03110311
 20
194.26925078
  0
VERTEX
  8
0
 10
122.83323522
 20
195.37724875
  0
VERTEX
  8
0
 10
122.58199766
 20
196.46580598
  0
VERTEX
  8
0
 10
122.27880414
 20
197.53350878
  0
VERTEX
  8
0
 10
121.92506835
 20
198.57894343
  0
VERTEX
  8
0
 10
121.52220400
 20
199.60069624
  0
VERTEX
  8
0
 10
121.07162481
 20
200.59735348
  0
VERTEX
  8
0
 10
120.57474447
 20
201.56750146
  0
VERTEX
  8
0
 10
120.03297669
 20
202.50972648
  0
VERTEX
  8
0
 10
119.44773518
 20
203.42261482
  0
VERTEX
  8
0
 10
118.82043364
 20
204.30475278
  0
VERTEX
  8
0
 10
118.15248579
 20
205.15472665
  0
VERTEX
  8
0
 10
117.44530531
 20
205.97112274
  0
VERTEX
  8
0
 10
116.70030593
 20
206.75252732
  0
VERTEX
  8
0
 10
115.91890135
 20
207.49752670
  0
VERTEX
  8
0
 10
115.10250526
 20
208.20470718
  0
VERTEX
  8
0
 10
114.25253139
 20
208.87265503
  0
VERTEX
  8
0
 10
113.37039343
 20
209.49995657
  0
VERTEX
  8
0
 10
112.45750509
 20
210.08519808
  0
VERTEX
  8
0
 10
111.51528007
 20
210.62696586
  0
VERTEX
  8
0
 10
110.54513209
 20
211.12384620
  0
VERTEX
  8
0
 10
109.54847485
 20
211.57442539
  0
VERTEX
  8
0
 10
108.52672204
 20
211.97728974
  0
VERTEX
  8
0
 10
107.48128739
 20
212.33102553
  0
VERTEX
  8
0
 10
106.41358459
 20
212.63421905
  0
VERTEX
  8
0
 10
105.32502736
 20
212.88545661
  0
VERTEX
  8
0
 10
104.21702939
 20
213.08332450
  0
VERTEX
  8
0
 10
103.09100439
 20
213.22640901
  0
VERTEX
  8
0
 10
101.94836607
 20
213.31329643
  0
VERTEX
  8
0
 10
100.79052814
 20
213.34257306
  0
VERTEX
  8
0
 10
99.63269020
 20
213.31329643
  0
VERTEX
  8
0
 10
98.49005188
 20
213.22640901
  0
VERTEX
  8
0
 10
97.36402689
 20
213.08332450
  0
VERTEX
  8
0
 10
96.25602892
 20
212.88545661
  0
VERTEX
  8
0
 10
95.16747168
 20
212.63421905
  0
VERTEX
  8
0
 10
94.09976888
 20
212.33102553
  0
VERTEX
  8
0
 10
93.05433423
 20
211.97728974
  0
VERTEX
  8
0
 10
92.03258143
 20
211.57442539
  0
VERTEX
  8
0
 10
91.03592418
 20
211.12384620
  0
VERTEX
  8
0
 10
90.06577620
 20
210.62696586
  0
VERTEX
  8
0
 10
89.12355119
 20
210.08519808
  0
VERTEX
  8
0
 10
88.21066285
 20
209.49995657
  0
VERTEX
  8
0
 10
87.32852488
 20
208.87265503
  0
VERTEX
  8
0
 10
86.47855101
 20
208.20470718
  0
VERTEX
  8
0
 10
85.66215493
 20
207.49752670
  0
VERTEX
  8
0
 10
84.88075034
 20
206.75252732
  0
VERTEX
  8
0
 10
84.13575096
 20
205.97112274
  0
VERTEX
  8
0
 10
83.42857049
 20
205.15472665
  0
VERTEX
  8
0
 10
82.76062263
 20
204.30475278
  0
VERTEX
  8
0
 10
82.13332109
 20
203.42261482
  0
VERTEX
  8
0
 10
81.54807958
 20
202.50972648
  0
VERTEX
  8
0
 10
81.00631181
 20
201.56750146
  0
VERTEX
  8
0
 10
80.50943147
 20
200.59735348
  0
VERTEX
  8
0
 10
80.05885227
 20
199.60069624
  0
VERTEX
  8
0
 10
79.65598793
 20
198.57894343
  0
VERTEX
  8
0
 10
79.30225214
 20
197.53350878
  0
VERTEX
  8
0
 10
78.99905861
 20
196.46580598
  0
VERTEX
  8
0
 10
78.74782105
 20
195.37724875
  0
VERTEX
  8
0
 10
78.54995317
 20
194.26925078
  0
VERTEX
  8
0
 10
78.40686866
 20
193.14322578
  0
VERTEX
  8
0
 10
78.31998124
 20
192.00058746
  0
VERTEX
  8
0
 10
78.29070461
 20
190.84274953
  0
SEQEND
  0
POLYLINE
  8
По умолчанию
 66
   1
 39
0.000000
 70
    1
  0
VERTEX
  8
0
 10
78.57434351
 20
63.82923497
  0
VERTEX
  8
0
 10
78.60362007
 20
62.67139991
  0
VERTEX
  8
0
 10
78.69050727
 20
61.52876443
  0
VERTEX
  8
0
 10
78.83359142
 20
60.40274223
  0
VERTEX
  8
0
 10
79.03145882
 20
59.29474701
  0
VERTEX
  8
0
 10
79.28269575
 20
58.20619247
  0
VERTEX
  8
0
 10
79.58588853
 20
57.13849232
  0
VERTEX
  8
0
 10
79.93962344
 20
56.09306027
  0
VERTEX
  8
0
 10
80.34248679
 20
55.07131000
  0
VERTEX
  8
0
 10
80.79306486
 20
54.07465523
  0
VERTEX
  8
0
 10
81.28994397
 20
53.10450966
  0
VERTEX
  8
0
 10
81.83171040
 20
52.16228698
  0
VERTEX
  8
0
 10
82.41695046
 20
51.24940090
  0
VERTEX
  8
0
 10
83.04425044
 20
50.36726513
  0
VERTEX
  8
0
 10
83.71219664
 20
49.51729337
  0
VERTEX
  8
0
 10
84.41937536
 20
48.70089931
  0
VERTEX
  8
0
 10
85.16437289
 20
47.91949667
  0
VERTEX
  8
0
 10
85.94577553
 20
47.17449913
  0
VERTEX
  8
0
 10
86.76216959
 20
46.46732042
  0
VERTEX
  8
0
 10
87.61214135
 20
45.79937422
  0
VERTEX
  8
0
 10
88.49427713
 20
45.17207424
  0
VERTEX
  8
0
 10
89.40716320
 20
44.58683418
  0
VERTEX
  8
0
 10
90.34938588
 20
44.04506775
  0
VERTEX
  8
0
 10
91.31953145
 20
43.54818864
  0
VERTEX
  8
0
 10
92.31618622
 20
43.09761056
  0
VERTEX
  8
0
 10
93.33793649
 20
42.69474722
  0
VERTEX
  8
0
 10
94.38336855
 20
42.34101231
  0
VERTEX
  8
0
 10
95.45106869
 20
42.03781953
  0
VERTEX
  8
0
 10
96.53962323
 20
41.78658260
  0
VERTEX
  8
0
 10
97.64761845
 20
41.58871520
  0
VERTEX
  8
0
 10
98.77364065
 20
41.44563105
  0
VERTEX
  8
0
 10
99.91627613
 20
41.35874385
  0
VERTEX
  8
0
 10
101.07411119
 20
41.32946729
  0
VERTEX
  8
0
 10
102.23194625
 20
41.35874385
  0
VERTEX
  8
0
 10
103.37458174
 20
41.44563105
  0
VERTEX
  8
0
 10
104.50060394
 20
41.58871520
  0
VERTEX
  8
0
 10
105.60859916
 20
41.78658260
  0
VERTEX
  8
0
 10
106.69715369
 20
42.03781953
  0
VERTEX
  8
0
 10
107.76485384
 20
42.34101231
  0
VERTEX
  8
0
 10
108.81028590
 20
42.69474722
  0
VERTEX
  8
0
 10
109.83203616
 20
43.09761056
  0
VERTEX
  8
0
 10
110.82869094
 20
43.54818864
  0
VERTEX
  8
0
 10
111.79883651
 20
44.04506775
  0
VERTEX
  8
0
 10
112.74105919
 20
44.58683418
  0
VERTEX
  8
0
 10
113.65394526
 20
45.17207424
  0
VERTEX
  8
0
 10
114.53608103
 20
45.79937422
  0
VERTEX
  8
0
 10
115.38605280
 20
46.46732042
  0
VERTEX
  8
0
 10
116.20244685
 20
47.17449913
  0
VERTEX
  8
0
 10
116.98384950
 20
47.91949667
  0
VERTEX
  8
0
 10
117.72884703
 20
48.70089931
  0
VERTEX
  8
0
 10
118.43602575
 20
49.51729337
  0
VERTEX
  8
0
 10
119.10397195
 20
50.36726513
  0
VERTEX
  8
0
 10
119.73127193
 20
51.24940090
  0
VERTEX
  8
0
 10
120.31651199
 20
52.16228698
  0
VERTEX
  8
0
 10
120.85827842
 20
53.10450966
  0
VERTEX
  8
0
 10
121.35515752
 20
54.07465523
  0
VERTEX
  8
0
 10
121.80573560
 20
55.07131000
  0
VERTEX
  8
0
 10
122.20859895
 20
56.09306027
  0
VERTEX
  8
0
 10
122.56233386
 20
57.13849232
  0
VERTEX
  8
0
 10
122.86552663
 20
58.20619247
  0
VERTEX
  8
0
 10
123.11676357
 20
59.29474701
  0
VERTEX
  8
0
 10
123.31463096
 20
60.40274223
  0
VERTEX
  8
0
 10
123.45771511
 20
61.52876443
  0
VERTEX
  8
0
 10
123.54460232
 20
62.67139991
  0
VERTEX
  8
0
 10
123.57387888
 20
63.82923497
  0
VERTEX
  8
0
 10
123.54460232
 20
64.98707003
  0
VERTEX
  8
0
 10
123.45771511
 20
66.12970552
  0
VERTEX
  8
0
 10
123.31463096
 20
67.25572772
  0
VERTEX
  8
0
 10
123.11676357
 20
68.36372294
  0
VERTEX
  8
0
 10
122.86552663
 20
69.45227747
  0
VERTEX
  8
0
 10
122.56233386
 20
70.51997762
  0
VERTEX
  8
0
 10
122.20859895
 20
71.56540968
  0
VERTEX
  8
0
 10
121.80573560
 20
72.58715994
  0
VERTEX
  8
0
 10
121.35515752
 20
73.58381472
  0
VERTEX
  8
0
 10
120.85827842
 20
74.55396029
  0
VERTEX
  8
0
 10
120.31651199
 20
75.49618297
  0
VERTEX
  8
0
 10
119.73127193
 20
76.40906904
  0
VERTEX
  8
0
 10
119.10397195
 20
77.29120481
  0
VERTEX
  8
0
 10
118.43602575
 20
78.14117658
  0
VERTEX
  8
0
 10
117.72884703
 20
78.95757063
  0
VERTEX
  8
0
 10
116.98384950
 20
79.73897328
  0
VERTEX
  8
0
 10
116.20244685
 20
80.48397081
  0
VERTEX
  8
0
 10
115.38605280
 20
81.19114953
  0
VERTEX
  8
0
 10
114.53608103
 20
81.85909573
  0
VERTEX
  8
0
 10
113.65394526
 20
82.48639571
  0
VERTEX
  8
0
 10
112.74105919
 20
83.07163577
  0
VERTEX
  8
0
 10
111.79883651
 20
83.61340220
  0
VERTEX
  8
0
 10
110.82869094
 20
84.11028130
  0
VERTEX
  8
0
 10
109.83203616
 20
84.56085938
  0
VERTEX
  8
0
 10
108.81028590
 20
84.96372273
  0
VERTEX
  8
0
 10
107.76485384
 20
85.31745764
  0
VERTEX
  8
0
 10
106.69715369
 20
85.62065041
  0
VERTEX
  8
0
 10
105.60859916
 20
85.87188735
  0
VERTEX
  8
0
 10
104.50060394
 20
86.06975474
  0
VERTEX
  8
0
 10
103.37458174
 20
86.21283889
  0
VERTEX
  8
0
 10
102.23194625
 20
86.29972610
  0
VERTEX
  8
0
 10
101.07411119
 20
86.32900266
  0
VERTEX
  8
0
 10
99.91627613
 20
86.29972610
  0
VERTEX
  8
0
 10
98.77364065
 20
86.21283889
  0
VERTEX
  8
0
 10
97.64761845
 20
86.06975474
  0
VERTEX
  8
0
 10
96.53962323
 20
85.87188735
  0
VERTEX
  8
0
 10
95.45106869
 20
85.62065041
  0
VERTEX
  8
0
 10
94.38336855
 20
85.31745764
  0
VERTEX
  8
0
 10
93.33793649
 20
84.96372273
  0
VERTEX
  8
0
 10
92.31618622
 20
84.56085938
  0
VERTEX
  8
0
 10
91.31953145
 20
84.11028130
  0
VERTEX
  8
0
 10
90.34938588
 20
83.61340220
  0
VERTEX
  8
0
 10
89.40716320
 20
83.07163577
  0
VERTEX
  8
0
 10
88.49427713
 20
82.48639571
  0
VERTEX
  8
0
 10
87.61214135
 20
81.85909573
  0
VERTEX
  8
0
 10
86.76216959
 20
81.19114953
  0
VERTEX
  8
0
 10
85.94577553
 20
80.48397081
  0
VERTEX
  8
0
 10
85.16437289
 20
79.73897328
  0
VERTEX
  8
0
 10
84.41937536
 20
78.95757063
  0
VERTEX
  8
0
 10
83.71219664
 20
78.14117658
  0
VERTEX
  8
0
 10
83.04425044
 20
77.29120481
  0
VERTEX
  8
0
 10
82.41695046
 20
76.40906904
  0
VERTEX
  8
0
 10
81.83171040
 20
75.49618297
  0
VERTEX
  8
0
 10
81.28994397
 20
74.55396029
  0
VERTEX
  8
0
 10
80.79306486
 20
73.58381472
  0
VERTEX
  8
0
 10
80.34248679
 20
72.58715994
  0
VERTEX
  8
0
 10
79.93962344
 20
71.56540968
  0
VERTEX
  8
0
 10
79.58588853
 20
70.51997762
  0
VERTEX
  8
0
 10
79.28269575
 20
69.45227747
  0
VERTEX
  8
0
 10
79.03145882
 20
68.36372294
  0
VERTEX
  8
0
 10
78.83359142
 20
67.25572772
  0
VERTEX
  8
0
 10
78.69050727
 20
66.12970552
  0
VERTEX
  8
0
 10
78.60362007
 20
64.98707003
  0
VERTEX
  8
0
 10
78.57434351
 20
63.82923497
  0
SEQEND
  0
POLYLINE
  8
По умолчанию
 66
   1
 39
0.000000
 70
    1
  0
VERTEX
  8
0
 10
144.37265933
 20
126.81141757
  0
VERTEX
  8
0
 10
144.38082450
 20
126.16615784
  0
VERTEX
  8
0
 10
144.40518910
 20
125.52492390
  0
VERTEX
  8
0
 10
144.44555679
 20
124.88791210
  0
VERTEX
  8
0
 10
144.50173121
 20
124.25531878
  0
VERTEX
  8
0
 10
144.57351602
 20
123.62734031
  0
VERTEX
  8
0
 10
144.66071487
 20
123.00417302
  0
VERTEX
  8
0
 10
144.76313141
 20
122.38601326
  0
VERTEX
  8
0
 10
144.88056929
 20
121.77305739
  0
VERTEX
  8
0
 10
145.01283216
 20
121.16550175
  0
VERTEX
  8
0
 10
145.15972367
 20
120.56354270
  0
VERTEX
  8
0
 10
145.32104747
 20
119.96737657
  0
VERTEX
  8
0
 10
145.49660722
 20
119.37719973
  0
VERTEX
  8
0
 10
145.68620656
 20
118.79320852
  0
VERTEX
  8
0
 10
145.88964915
 20
118.21559928
  0
VERTEX
  8
0
 10
146.10673863
 20
117.64456838
  0
VERTEX
  8
0
 10
146.33727866
 20
117.08031215
  0
VERTEX
  8
0
 10
146.83792496
 20
115.97290912
  0
VERTEX
  8
0
 10
147.39001726
 20
114.89496099
  0
VERTEX
  8
0
 10
147.99198477
 20
113.84803855
  0
VERTEX
  8
0
 10
148.64225669
 20
112.83371259
  0
VERTEX
  8
0
 10
149.33926223
 20
111.85355391
  0
VERTEX
  8
0
 10
150.08143060
 20
110.90913330
  0
VERTEX
  8
0
 10
150.86719100
 20
110.00202155
  0
VERTEX
  8
0
 10
151.69497265
 20
109.13378946
  0
VERTEX
  8
0
 10
152.56320474
 20
108.30600782
  0
VERTEX
  8
0
 10
153.47031649
 20
107.52024742
  0
VERTEX
  8
0
 10
154.41473710
 20
106.77807905
  0
VERTEX
  8
0
 10
155.39489578
 20
106.08107351
  0
VERTEX
  8
0
 10
156.40922173
 20
105.43080159
  0
VERTEX
  8
0
 10
157.45614417
 20
104.82883408
  0
VERTEX
  8
0
 10
158.53409230
 20
104.27674178
  0
VERTEX
  8
0
 10
159.64149533
 20
103.77609547
  0
VERTEX
  8
0
 10
160.20575156
 20
103.54555544
  0
VERTEX
  8
0
 10
160.77678247
 20
103.32846596
  0
VERTEX
  8
0
 10
161.35439170
 20
103.12502338
  0
VERTEX
  8
0
 10
161.93838291
 20
102.93542403
  0
VERTEX
  8
0
 10
162.52855976
 20
102.75986429
  0
VERTEX
  8
0
 10
163.12472588
 20
102.59854049
  0
VERTEX
  8
0
 10
163.72668494
 20
102.45164897
  0
VERTEX
  8
0
 10
164.33424057
 20
102.31938611
  0
VERTEX
  8
0
 10
164.94719644
 20
102.20194823
  0
VERTEX
  8
0
 10
165.56535620
 20
102.09953169
  0
VERTEX
  8
0
 10
166.18852349
 20
102.01233284
  0
VERTEX
  8
0
 10
166.81650197
 20
101.94054803
  0
VERTEX
  8
0
 10
167.44909528
 20
101.88437361
  0
VERTEX
  8
0
 10
168.08610708
 20
101.84400592
  0
VERTEX
  8
0
 10
168.72734102
 20
101.81964132
  0
VERTEX
  8
0
 10
169.37260075
 20
101.81147615
  0
VERTEX
  8
0
 10
170.01786048
 20
101.81964132
  0
VERTEX
  8
0
 10
170.65909442
 20
101.84400592
  0
VERTEX
  8
0
 10
171.29610622
 20
101.88437361
  0
VERTEX
  8
0
 10
171.92869953
 20
101.94054803
  0
VERTEX
  8
0
 10
172.55667801
 20
102.01233284
  0
VERTEX
  8
0
 10
173.17984530
 20
102.09953169
  0
VERTEX
  8
0
 10
173.79800506
 20
102.20194823
  0
VERTEX
  8
0
 10
174.41096093
 20
102.31938611
  0
VERTEX
  8
0
 10
175.01851657
 20
102.45164897
  0
VERTEX
  8
0
 10
175.62047562
 20
102.59854049
  0
VERTEX
  8
0
 10
176.21664174
 20
102.75986429
  0
VERTEX
  8
0
 10
176.80681859
 20
102.93542403
  0
VERTEX
  8
0
 10
177.39080980
 20
103.12502338
  0
VERTEX
  8
0
 10
177.96841903
 20
103.32846596
  0
VERTEX
  8
0
 10
178.53944994
 20
103.54555544
  0
VERTEX
  8
0
 10
179.10370617
 20
103.77609547
  0
VERTEX
  8
0
 10
180.21110920
 20
104.27674178
  0
VERTEX
  8
0
 10
181.28905733
 20
104.82883408
  0
VERTEX
  8
0
 10
182.33597977
 20
105.43080159
  0
VERTEX
  8
0
 10
183.35030573
 20
106.08107351
  0
VERTEX
  8
0
 10
184.33046441
 20
106.77807905
  0
VERTEX
  8
0
 10
185.27488502
 20
107.52024742
  0
VERTEX
  8
0
 10
186.18199676
 20
108.30600782
  0
VERTEX
  8
0
 10
187.05022885
 20
109.13378946
  0
VERTEX
  8
0
 10
187.87801050
 20
110.00202155
  0
VERTEX
  8
0
 10
188.66377090
 20
110.90913330
  0
VERTEX
  8
0
 10
189.40593927
 20
111.85355391
  0
VERTEX
  8
0
 10
190.10294481
 20
112.83371259
  0
VERTEX
  8
0
 10
190.75321673
 20
113.84803855
  0
VERTEX
  8
0
 10
191.35518424
 20
114.89496099
  0
VERTEX
  8
0
 10
191.90727654
 20
115.97290912
  0
VERTEX
  8
0
 10
192.40792284
 20
117.08031215
  0
VERTEX
  8
0
 10
192.63846287
 20
117.64456838
  0
VERTEX
  8
0
 10
192.85555236
 20
118.21559928
  0
VERTEX
  8
0
 10
193.05899494
 20
118.79320852
  0
VERTEX
  8
0
 10
193.24859428
 20
119.37719973
  0
VERTEX
  8
0
 10
193.42415403
 20
119.96737657
  0
VERTEX
  8
0
 10
193.58547783
 20
120.56354270
  0
VERTEX
  8
0
 10
193.73236934
 20
121.16550175
  0
VERTEX
  8
0
 10
193.86463221
 20
121.77305739
  0
VERTEX
  8
0
 10
193.98207009
 20
122.38601326
  0
VERTEX
  8
0
 10
194.08448663
 20
123.00417302
  0
VERTEX
  8
0
 10
194.17168548
 20
123.62734031
  0
VERTEX
  8
0
 10
194.24347029
 20
124.25531878
  0
VERTEX
  8
0
 10
194.29964471
 20
124.88791210
  0
VERTEX
  8
0
 10
194.34001240
 20
125.52492390
  0
VERTEX
  8
0
 10
194.36437700
 20
126.16615784
  0
VERTEX
  8
0
 10
194.37254217
 20
126.81141757
  0
VERTEX
  8
0
 10
194.36437700
 20
127.45667730
  0
VERTEX
  8
0
 10
194.34001240
 20
128.09791124
  0
VERTEX
  8
0
 10
194.29964471
 20
128.73492304
  0
VERTEX
  8
0
 10
194.24347029
 20
129.36751635
  0
VERTEX
  8
0
 10
194.17168548
 20
129.99549483
  0
VERTEX
  8
0
 10
194.08448663
 20
130.61866212
  0
VERTEX
  8
0
 10
193.98207009
 20
131.23682187
  0
VERTEX
  8
0
 10
193.86463221
 20
131.84977774
  0
VERTEX
  8
0
 10
193.73236934
 20
132.45733338
  0
VERTEX
  8
0
 10
193.58547783
 20
133.05929244
  0
VERTEX
  8
0
 10
193.42415403
 20
133.65545856
  0
VERTEX
  8
0
 10
193.24859428
 20
134.24563540
  0
VERTEX
  8
0
 10
193.05899494
 20
134.82962662
  0
VERTEX
  8
0
 10
192.85555236
 20
135.40723585
  0
VERTEX
  8
0
 10
192.63846287
 20
135.97826676
  0
VERTEX
  8
0
 10
192.40792284
 20
136.54252298
  0
VERTEX
  8
0
 10
191.90727654
 20
137.64992601
  0
VERTEX
  8
0
 10
191.35518424
 20
138.72787414
  0
VERTEX
  8
0
 10
190.75321673
 20
139.77479659
  0
VERTEX
  8
0
 10
190.10294481
 20
140.78912254
  0
VERTEX
  8
0
 10
189.40593927
 20
141.76928122
  0
VERTEX
  8
0
 10
188.66377090
 20
142.71370183
  0
VERTEX
  8
0
 10
187.87801050
 20
143.62081358
  0
VERTEX
  8
0
 10
187.05022885
 20
144.48904567
  0
VERTEX
  8
0
 10
186.18199676
 20
145.31682731
  0
VERTEX
  8
0
 10
185.27488502
 20
146.10258772
  0
VERTEX
  8
0
 10
184.33046441
 20
146.84475608
  0
VERTEX
  8
0
 10
183.35030573
 20
147.54176163
  0
VERTEX
  8
0
 10
182.33597977
 20
148.19203355
  0
VERTEX
  8
0
 10
181.28905733
 20
148.79400105
  0
VERTEX
  8
0
 10
180.21110920
 20
149.34609336
  0
VERTEX
  8
0
 10
179.10370617
 20
149.84673966
  0
VERTEX
  8
0
 10
178.53944994
 20
150.07727969
  0
VERTEX
  8
0
 10
177.96841903
 20
150.29436917
  0
VERTEX
  8
0
 10
177.39080980
 20
150.49781176
  0
VERTEX
  8
0
 10
176.80681859
 20
150.68741110
  0
VERTEX
  8
0
 10
176.21664174
 20
150.86297085
  0
VERTEX
  8
0
 10
175.62047562
 20
151.02429465
  0
VERTEX
  8
0
 10
175.01851657
 20
151.17118616
  0
VERTEX
  8
0
 10
174.41096093
 20
151.30344903
  0
VERTEX
  8
0
 10
173.79800506
 20
151.42088691
  0
VERTEX
  8
0
 10
173.17984530
 20
151.52330344
  0
VERTEX
  8
0
 10
172.55667801
 20
151.61050229
  0
VERTEX
  8
0
 10
171.92869953
 20
151.68228710
  0
VERTEX
  8
0
 10
171.29610622
 20
151.73846153
  0
VERTEX
  8
0
 10
170.65909442
 20
151.77882921
  0
VERTEX
  8
0
 10
170.01786048
 20
151.80319382
  0
VERTEX
  8
0
 10
169.37260075
 20
151.81135898
  0
VERTEX
  8
0
 10
168.72734102
 20
151.80319382
  0
VERTEX
  8
0
 10
168.08610708
 20
151.77882921
  0
VERTEX
  8
0
 10
167.44909528
 20
151.73846153
  0
VERTEX
  8
0
 10
166.81650197
 20
151.68228710
  0
VERTEX
  8
0
 10
166.18852349
 20
151.61050229
  0
VERTEX
  8
0
 10
165.56535620
 20
151.52330344
  0
VERTEX
  8
0
 10
164.94719644
 20
151.42088691
  0
VERTEX
  8
0
 10
164.33424057
 20
151.30344903
  0
VERTEX
  8
0
 10
163.72668494
 20
151.17118616
  0
VERTEX
  8
0
 10
163.12472588
 20
151.02429465
  0
VERTEX
  8
0
 10
162.52855976
 20
150.86297085
  0
VERTEX
  8
0
 10
161.93838291
 20
150.68741110
  0
VERTEX
  8
0
 10
161.35439170
 20
150.49781176
  0
VERTEX
  8
0
 10
160.77678247
 20
150.29436917
  0
VERTEX
  8
0
 10
160.20575156
 20
150.07727969
  0
VERTEX
  8
0
 10
159.64149533
 20
149.84673966
  0
VERTEX
  8
0
 10
158.53409230
 20
149.34609336
  0
VERTEX
  8
0
 10
157.45614417
 20
148.79400105
  0
VERTEX
  8
0
 10
156.40922173
 20
148.19203355
  0
VERTEX
  8
0
 10
155.39489578
 20
147.54176163
  0
VERTEX
  8
0
 10
154.41473710
 20
146.84475608
  0
VERTEX
  8
0
 10
153.47031649
 20
146.10258772
  0
VERTEX
  8
0
 10
152.56320474
 20
145.31682731
  0
VERTEX
  8
0
 10
151.69497265
 20
144.48904567
  0
VERTEX
  8
0
 10
150.86719100
 20
143.62081358
  0
VERTEX
  8
0
 10
150.08143060
 20
142.71370183
  0
VERTEX
  8
0
 10
149.33926223
 20
141.76928122
  0
VERTEX
  8
0
 10
148.64225669
 20
140.78912254
  0
VERTEX
  8
0
 10
147.99198477
 20
139.77479659
  0
VERTEX
  8
0
 10
147.39001726
 20
138.72787414
  0
VERTEX
  8
0
 10
146.83792496
 20
137.64992601
  0
VERTEX
  8
0
 10
146.33727866
 20
136.54252298
  0
VERTEX
  8
0
 10
146.10673863
 20
135.97826676
  0
VERTEX
  8
0
 10
145.88964915
 20
135.40723585
  0
VERTEX
  8
0
 10
145.68620656
 20
134.82962662
  0
VERTEX
  8
0
 10
145.49660722
 20
134.24563540
  0
VERTEX
  8
0
 10
145.32104747
 20
133.65545856
  0
VERTEX
  8
0
 10
145.15972367
 20
133.05929244
  0
VERTEX
  8
0
 10
145.01283216
 20
132.45733338
  0
VERTEX
  8
0
 10
144.88056929
 20
131.84977774
  0
VERTEX
  8
0
 10
144.76313141
 20
131.23682187
  0
VERTEX
  8
0
 10
144.66071487
 20
130.61866212
  0
VERTEX
  8
0
 10
144.57351602
 20
129.99549483
  0
VERTEX
  8
0
 10
144.50173121
 20
129.36751635
  0
VERTEX
  8
0
 10
144.44555679
 20
128.73492304
  0
VERTEX
  8
0
 10
144.40518910
 20
128.09791124
  0
VERTEX
  8
0
 10
144.38082450
 20
127.45667730
  0
VERTEX
  8
0
 10
144.37265933
 20
126.81141757
  0
SEQEND
  0
POLYLINE
  8
По умолчанию
 66
   1
 39
0.000000
 70
    1
  0
VERTEX
  8
0
 10
332.61663477
 20
75.37728349
  0
VERTEX
  8
0
 10
332.61663477
 20
125.66452770
 42
-0.41421356
  0
VERTEX
  8
0
 10
337.61663477
 20
130.66452770
  0
VERTEX
  8
0
 10
358.86663477
 20
130.66452770
 42
-0.41421356
  0
VERTEX
  8
0
 10
363.86663477
 20
125.66452770
  0
VERTEX
  8
0
 10
363.86663477
 20
45.45701782
 42
-0.41421356
  0
VERTEX
  8
0
 10
358.86663477
 20
40.45701782
  0
VERTEX
  8
0
 10
358.25564308
 20
40.45701782
 42
-0.24154606
  0
VERTEX
  8
0
 10
355.16903508
 20
42.04052260
  0
VERTEX
  8
0
 10
333.74304319
 20
71.87755419
 42
-0.15696309
  0
VERTEX
  8
0
 10
332.61663477
 20
75.37728349
  0
SEQEND
  0
POLYLINE
  8
По умолчанию
 66
   1
 39
0.000000
 70
    1
  0
VERTEX
  8
0
 10
296.72692645
 20
71.88428103
  0
VERTEX
  8
0
 10
274.78115157
 20
41.04584107
 42
-0.24267815
  0
VERTEX
  8
0
 10
271.68509050
 20
39.44911269
  0
VERTEX
  8
0
 10
271.58840896
 20
39.44911269
 42
-0.41421356
  0
VERTEX
  8
0
 10
266.58840896
 20
44.44911269
  0
VERTEX
  8
0
 10
266.58840896
 20
124.65662257
 42
-0.41421356
  0
VERTEX
  8
0
 10
271.58840896
 20
129.65662257
  0
VERTEX
  8
0
 10
292.83840896
 20
129.65662257
 42
-0.41421356
  0
VERTEX
  8
0
 10
297.83840896
 20
124.65662257
  0
VERTEX
  8
0
 10
297.83840896
 20
75.36313094
 42
-0.15586752
  0
VERTEX
  8
0
 10
296.72692645
 20
71.88428103
  0
SEQEND
  0
POLYLINE
  8
По умолчанию
 66
   1
 39
0.000000
 70
    1
  0
VERTEX
  8
0
 10
312.20594929
 20
105.22617872
 42
-0.41421356
  0
VERTEX
  8
0
 10
315.00594929
 20
108.02617872
  0
VERTEX
  8
0
 10
315.35352993
 20
108.02617872
 42
-0.41421356
  0
VERTEX
  8
0
 10
318.15352993
 20
105.22617872
  0
VERTEX
  8
0
 10
318.15352993
 20
89.99861861
 42
-0.41421356
  0
VERTEX
  8
0
 10
315.35352993
 20
87.19861861
  0
VERTEX
  8
0
 10
315.00594929
 20
87.19861861
 42
-0.41421356
  0
VERTEX
  8
0
 10
312.20594929
 20
89.99861861
  0
VERTEX
  8
0
 10
312.20594929
 20
105.22617872
  0
SEQEND
  0
POLYLINE
  8
По умолчанию
 66
   1
 39
0.000000
 70
    1
  0
VERTEX
  8
0
 10
338.90149031
 20
38.57269115
 42
-0.61312588
  0
VERTEX
  8
0
 10
334.85918506
 20
30.62994272
  0
VERTEX
  8
0
 10
295.67133323
 20
30.62994272
 42
-0.61010509
  0
VERTEX
  8
0
 10
291.60330708
 20
38.53703117
  0
VERTEX
  8
0
 10
311.01565435
 20
65.70164546
 42
-0.51170122
  0
VERTEX
  8
0
 10
319.12598575
 20
65.73730544
  0
VERTEX
  8
0
 10
338.90149031
 20
38.57269115
  0
SEQEND
  0
POLYLINE
  8
По умолчанию
 66
   1
 39
0.000000
 70
    1
  0
VERTEX
  8
0
 10
248.14635251
 20
138.77470557
  0
VERTEX
  8
0
 10
256.14635251
 20
138.77470557
  0
VERTEX
  8
0
 10
256.14635251
 20
118.77470557
  0
VERTEX
  8
0
 10
248.14635251
 20
118.77470557
  0
VERTEX
  8
0
 10
248.14635251
 20
138.77470557
  0
SEQEND
  0
POLYLINE
  8
По умолчанию
 66
   1
 39
0.000000
 70
    1
  0
VERTEX
  8
0
 10
248.12064687
 20
41.07448324
  0
VERTEX
  8
0
 10
256.12064687
 20
41.07448324
  0
VERTEX
  8
0
 10
256.12064687
 20
21.07448324
  0
VERTEX
  8
0
 10
248.12064687
 20
21.07448324
  0
VERTEX
  8
0
 10
248.12064687
 20
41.07448324
  0
SEQEND
  0
POLYLINE
  8
По умолчанию
 66
   1
 39
0.000000
 70
    1
  0
VERTEX
  8
0
 10
360.14946320
 20
21.51149631
  0
VERTEX
  8
0
 10
360.35394923
 20
21.50117065
  0
VERTEX
  8
0
 10
360.55252832
 20
21.47086388
  0
VERTEX
  8
0
 10
360.74419518
 20
21.42158130
  0
VERTEX
  8
0
 10
360.92794450
 20
21.35432820
  0
VERTEX
  8
0
 10
361.10277100
 20
21.27010988
  0
VERTEX
  8
0
 10
361.26766936
 20
21.16993165
  0
VERTEX
  8
0
 10
361.42163429
 20
21.05479879
  0
VERTEX
  8
0
 10
361.56366050
 20
20.92571660
  0
VERTEX
  8
0
 10
361.69274268
 20
20.78369040
  0
VERTEX
  8
0
 10
361.80787554
 20
20.62972546
  0
VERTEX
  8
0
 10
361.90805378
 20
20.46482710
  0
VERTEX
  8
0
 10
361.99227209
 20
20.29000061
  0
VERTEX
  8
0
 10
362.05952519
 20
20.10625129
  0
VERTEX
  8
0
 10
362.10880778
 20
19.91458443
  0
VERTEX
  8
0
 10
362.13911455
 20
19.71600533
  0
VERTEX
  8
0
 10
362.14944020
 20
19.51151930
  0
VERTEX
  8
0
 10
362.13911455
 20
19.30703327
  0
VERTEX
  8
0
 10
362.10880778
 20
19.10845418
  0
VERTEX
  8
0
 10
362.05952519
 20
18.91678732
  0
VERTEX
  8
0
 10
361.99227209
 20
18.73303800
  0
VERTEX
  8
0
 10
361.90805378
 20
18.55821150
  0
VERTEX
  8
0
 10
361.80787554
 20
18.39331314
  0
VERTEX
  8
0
 10
361.69274268
 20
18.23934821
  0
VERTEX
  8
0
 10
361.56366050
 20
18.09732200
  0
VERTEX
  8
0
 10
361.42163429
 20
17.96823982
  0
VERTEX
  8
0
 10
361.26766936
 20
17.85310696
  0
VERTEX
  8
0
 10
361.10277100
 20
17.75292872
  0
VERTEX
  8
0
 10
360.92794450
 20
17.66871041
  0
VERTEX
  8
0
 10
360.74419518
 20
17.60145731
  0
VERTEX
  8
0
 10
360.55252832
 20
17.55217472
  0
VERTEX
  8
0
 10
360.35394923
 20
17.52186796
  0
VERTEX
  8
0
 10
360.14946320
 20
17.51154230
  0
VERTEX
  8
0
 10
359.94497717
 20
17.52186796
  0
VERTEX
  8
0
 10
359.74639807
 20
17.55217472
  0
VERTEX
  8
0
 10
359.55473122
 20
17.60145731
  0
VERTEX
  8
0
 10
359.37098189
 20
17.66871041
  0
VERTEX
  8
0
 10
359.19615540
 20
17.75292872
  0
VERTEX
  8
0
 10
359.03125704
 20
17.85310696
  0
VERTEX
  8
0
 10
358.87729210
 20
17.96823982
  0
VERTEX
  8
0
 10
358.73526590
 20
18.09732200
  0
VERTEX
  8
0
 10
358.60618371
 20
18.23934821
  0
VERTEX
  8
0
 10
358.49105086
 20
18.39331314
  0
VERTEX
  8
0
 10
358.39087262
 20
18.55821150
  0
VERTEX
  8
0
 10
358.30665430
 20
18.73303800
  0
VERTEX
  8
0
 10
358.23940120
 20
18.91678732
  0
VERTEX
  8
0
 10
358.19011862
 20
19.10845418
  0
VERTEX
  8
0
 10
358.15981185
 20
19.30703327
  0
VERTEX
  8
0
 10
358.14948619
 20
19.51151930
  0
VERTEX
  8
0
 10
358.15981185
 20
19.71600533
  0
VERTEX
  8
0
 10
358.19011862
 20
19.91458443
  0
VERTEX
  8
0
 10
358.23940120
 20
20.10625129
  0
VERTEX
  8
0
 10
358.30665430
 20
20.29000061
  0
VERTEX
  8
0
 10
358.39087262
 20
20.46482710
  0
VERTEX
  8
0
 10
358.49105086
 20
20.62972546
  0
VERTEX
  8
0
 10
358.60618371
 20
20.78369040
  0
VERTEX
  8
0
 10
358.73526590
 20
20.92571660
  0
VERTEX
  8
0
 10
358.87729210
 20
21.05479879
  0
VERTEX
  8
0
 10
359.03125704
 20
21.16993165
  0
VERTEX
  8
0
 10
359.19615540
 20
21.27010988
  0
VERTEX
  8
0
 10
359.37098189
 20
21.35432820
  0
VERTEX
  8
0
 10
359.55473122
 20
21.42158130
  0
VERTEX
  8
0
 10
359.74639807
 20
21.47086388
  0
VERTEX
  8
0
 10
359.94497717
 20
21.50117065
  0
VERTEX
  8
0
 10
360.14946320
 20
21.51149631
  0
SEQEND
  0
POLYLINE
  8
По умолчанию
 66
   1
 39
0.000000
 70
    1
  0
VERTEX
  8
0
 10
270.12926078
 20
21.54318725
  0
VERTEX
  8
0
 10
270.33374681
 20
21.53286159
  0
VERTEX
  8
0
 10
270.53232590
 20
21.50255482
  0
VERTEX
  8
0
 10
270.72399276
 20
21.45327224
  0
VERTEX
  8
0
 10
270.90774208
 20
21.38601914
  0
VERTEX
  8
0
 10
271.08256858
 20
21.30180082
  0
VERTEX
  8
0
 10
271.24746694
 20
21.20162258
  0
VERTEX
  8
0
 10
271.40143187
 20
21.08648973
  0
VERTEX
  8
0
 10
271.54345808
 20
20.95740754
  0
VERTEX
  8
0
 10
271.67254026
 20
20.81538134
  0
VERTEX
  8
0
 10
271.78767312
 20
20.66141640
  0
VERTEX
  8
0
 10
271.88785136
 20
20.49651804
  0
VERTEX
  8
0
 10
271.97206967
 20
20.32169155
  0
VERTEX
  8
0
 10
272.03932277
 20
20.13794222
  0
VERTEX
  8
0
 10
272.08860536
 20
19.94627537
  0
VERTEX
  8
0
 10
272.11891213
 20
19.74769627
  0
VERTEX
  8
0
 10
272.12923778
 20
19.54321024
  0
VERTEX
  8
0
 10
272.11891213
 20
19.33872421
  0
VERTEX
  8
0
 10
272.08860536
 20
19.14014512
  0
VERTEX
  8
0
 10
272.03932277
 20
18.94847826
  0
VERTEX
  8
0
 10
271.97206967
 20
18.76472894
  0
VERTEX
  8
0
 10
271.88785136
 20
18.58990244
  0
VERTEX
  8
0
 10
271.78767312
 20
18.42500408
  0
VERTEX
  8
0
 10
271.67254026
 20
18.27103915
  0
VERTEX
  8
0
 10
271.54345808
 20
18.12901294
  0
VERTEX
  8
0
 10
271.40143187
 20
17.99993076
  0
VERTEX
  8
0
 10
271.24746694
 20
17.88479790
  0
VERTEX
  8
0
 10
271.08256858
 20
17.78461966
  0
VERTEX
  8
0
 10
270.90774208
 20
17.70040135
  0
VERTEX
  8
0
 10
270.72399276
 20
17.63314825
  0
VERTEX
  8
0
 10
270.53232590
 20
17.58386566
  0
VERTEX
  8
0
 10
270.33374681
 20
17.55355889
  0
VERTEX
  8
0
 10
270.12926078
 20
17.54323324
  0
VERTEX
  8
0
 10
269.92477475
 20
17.55355889
  0
VERTEX
  8
0
 10
269.72619565
 20
17.58386566
  0
VERTEX
  8
0
 10
269.53452880
 20
17.63314825
  0
VERTEX
  8
0
 10
269.35077947
 20
17.70040135
  0
VERTEX
  8
0
 10
269.17595298
 20
17.78461966
  0
VERTEX
  8
0
 10
269.01105462
 20
17.88479790
  0
VERTEX
  8
0
 10
268.85708968
 20
17.99993076
  0
VERTEX
  8
0
 10
268.71506348
 20
18.12901294
  0
VERTEX
  8
0
 10
268.58598129
 20
18.27103915
  0
VERTEX
  8
0
 10
268.47084844
 20
18.42500408
  0
VERTEX
  8
0
 10
268.37067020
 20
18.58990244
  0
VERTEX
  8
0
 10
268.28645188
 20
18.76472894
  0
VERTEX
  8
0
 10
268.21919878
 20
18.94847826
  0
VERTEX
  8
0
 10
268.16991620
 20
19.14014512
  0
VERTEX
  8
0
 10
268.13960943
 20
19.33872421
  0
VERTEX
  8
0
 10
268.12928377
 20
19.54321024
  0
VERTEX
  8
0
 10
268.13960943
 20
19.74769627
  0
VERTEX
  8
0
 10
268.16991620
 20
19.94627537
  0
VERTEX
  8
0
 10
268.21919878
 20
20.13794222
  0
VERTEX
  8
0
 10
268.28645188
 20
20.32169155
  0
VERTEX
  8
0
 10
268.37067020
 20
20.49651804
  0
VERTEX
  8
0
 10
268.47084844
 20
20.66141640
  0
VERTEX
  8
0
 10
268.58598129
 20
20.81538134
  0
VERTEX
  8
0
 10
268.71506348
 20
20.95740754
  0
VERTEX
  8
0
 10
268.85708968
 20
21.08648973
  0
VERTEX
  8
0
 10
269.01105462
 20
21.20162258
  0
VERTEX
  8
0
 10
269.17595298
 20
21.30180082
  0
VERTEX
  8
0
 10
269.35077947
 20
21.38601914
  0
VERTEX
  8
0
 10
269.53452880
 20
21.45327224
  0
VERTEX
  8
0
 10
269.72619565
 20
21.50255482
  0
VERTEX
  8
0
 10
269.92477475
 20
21.53286159
  0
VERTEX
  8
0
 10
270.12926078
 20
21.54318725
  0
SEQEND
  0
POLYLINE
  8
По умолчанию
 66
   1
 39
0.000000
 70
    1
  0
VERTEX
  8
0
 10
283.47348961
 20
16.06531822
 42
-0.41421356
  0
VERTEX
  8
0
 10
279.67348961
 20
12.26531822
  0
VERTEX
  8
0
 10
247.36361058
 20
12.26531822
 42
-0.41421356
  0
VERTEX
  8
0
 10
241.36361058
 20
18.26531822
  0
VERTEX
  8
0
 10
241.36361058
 20
141.26531822
 42
-0.41421356
  0
VERTEX
  8
0
 10
247.36361058
 20
147.26531822
  0
VERTEX
  8
0
 10
265.99264283
 20
147.26531822
 42
-0.41421356
  0
VERTEX
  8
0
 10
269.99264283
 20
143.26531822
  0
VERTEX
  8
0
 10
269.99264283
 20
142.51531822
 42
0.41421356
  0
VERTEX
  8
0
 10
273.99264283
 20
138.51531822
  0
VERTEX
  8
0
 10
356.00675574
 20
138.51531822
 42
0.41421356
  0
VERTEX
  8
0
 10
360.00675574
 20
142.51531822
  0
VERTEX
  8
0
 10
360.00675574
 20
143.26531822
 42
-0.41421356
  0
VERTEX
  8
0
 10
364.00675574
 20
147.26531822
  0
VERTEX
  8
0
 10
385.36361058
 20
147.26531822
 42
-0.41421356
  0
VERTEX
  8
0
 10
391.36361058
 20
141.26531822
  0
VERTEX
  8
0
 10
391.36361058
 20
18.26531822
 42
-0.41421356
  0
VERTEX
  8
0
 10
385.36361058
 20
12.26531822
  0
VERTEX
  8
0
 10
350.02550574
 20
12.26531822
 42
-0.41421356
  0
VERTEX
  8
0
 10
346.22550574
 20
16.06531822
  0
VERTEX
  8
0
 10
346.22550574
 20
17.03794668
 42
0.41421356
  0
VERTEX
  8
0
 10
342.42550574
 20
20.83794668
  0
VERTEX
  8
0
 10
287.27348961
 20
20.83794668
 42
0.41421356
  0
VERTEX
  8
0
 10
283.47348961
 20
17.03794668
  0
VERTEX
  8
0
 10
283.47348961
 20
16.06531822
  0
SEQEND
  0
POLYLINE
  8
По умолчанию
 66
   1
 39
0.000000
 70
    0
  0
VERTEX
  8
0
 10
376.50830190
 20
194.38295902
  0
VERTEX
  8
0
 10
376.50744964
 20
194.38148286
  0
SEQEND
  0
POLYLINE
  8
По умолчанию
 66
   1
 39
0.000000
 70
    0
  0
VERTEX
  8
0
 10
381.12649298
 20
202.38190060
  0
VERTEX
  8
0
 10
381.12625180
 20
202.38148286
  0
SEQEND
  0
POLYLINE
  8
По умолчанию
 66
   1
 39
0.000000
 70
    0
  0
VERTEX
  8
0
 10
350.55911363
 20
149.43764652
  0
VERTEX
  8
0
 10
350.55900436
 20
149.43745726
  0
SEQEND
  0
POLYLINE
  8
По умолчанию
 66
   1
 39
0.000000
 70
    1
  0
VERTEX
  8
0
 10
315.01009091
 20
161.63491129
  0
VERTEX
  8
0
 10
314.99460225
 20
161.32817872
  0
VERTEX
  8
0
 10
314.94914157
 20
161.03030665
  0
VERTEX
  8
0
 10
314.87521685
 20
160.74280306
  0
VERTEX
  8
0
 10
314.77433604
 20
160.46717590
  0
VERTEX
  8
0
 10
314.64800711
 20
160.20493315
  0
VERTEX
  8
0
 10
314.49773803
 20
159.95758276
  0
VERTEX
  8
0
 10
314.32503675
 20
159.72663271
  0
VERTEX
  8
0
 10
314.13141125
 20
159.51359095
  0
VERTEX
  8
0
 10
313.91836949
 20
159.31996545
  0
VERTEX
  8
0
 10
313.68741944
 20
159.14726417
  0
VERTEX
  8
0
 10
313.44006905
 20
158.99699509
  0
VERTEX
  8
0
 10
313.17782630
 20
158.87066616
  0
VERTEX
  8
0
 10
312.90219914
 20
158.76978535
  0
VERTEX
  8
0
 10
312.61469555
 20
158.69586063
  0
VERTEX
  8
0
 10
312.31682348
 20
158.65039995
  0
VERTEX
  8
0
 10
312.01009091
 20
158.63491129
  0
VERTEX
  8
0
 10
311.70335834
 20
158.65039995
  0
VERTEX
  8
0
 10
311.40548627
 20
158.69586063
  0
VERTEX
  8
0
 10
311.11798268
 20
158.76978535
  0
VERTEX
  8
0
 10
310.84235552
 20
158.87066616
  0
VERTEX
  8
0
 10
310.58011277
 20
158.99699509
  0
VERTEX
  8
0
 10
310.33276238
 20
159.14726417
  0
VERTEX
  8
0
 10
310.10181233
 20
159.31996545
  0
VERTEX
  8
0
 10
309.88877057
 20
159.51359095
  0
VERTEX
  8
0
 10
309.69514507
 20
159.72663271
  0
VERTEX
  8
0
 10
309.52244379
 20
159.95758276
  0
VERTEX
  8
0
 10
309.37217471
 20
160.20493315
  0
VERTEX
  8
0
 10
309.24584578
 20
160.46717590
  0
VERTEX
  8
0
 10
309.14496497
 20
160.74280306
  0
VERTEX
  8
0
 10
309.07104025
 20
161.03030665
  0
VERTEX
  8
0
 10
309.02557957
 20
161.32817872
  0
VERTEX
  8
0
 10
309.01009091
 20
161.63491129
  0
VERTEX
  8
0
 10
309.02557957
 20
161.94164386
  0
VERTEX
  8
0
 10
309.07104025
 20
162.23951593
  0
VERTEX
  8
0
 10
309.14496497
 20
162.52701952
  0
VERTEX
  8
0
 10
309.24584578
 20
162.80264668
  0
VERTEX
  8
0
 10
309.37217471
 20
163.06488943
  0
VERTEX
  8
0
 10
309.52244379
 20
163.31223982
  0
VERTEX
  8
0
 10
309.69514507
 20
163.54318987
  0
VERTEX
  8
0
 10
309.88877057
 20
163.75623163
  0
VERTEX
  8
0
 10
310.10181233
 20
163.94985713
  0
VERTEX
  8
0
 10
310.33276238
 20
164.12255841
  0
VERTEX
  8
0
 10
310.58011277
 20
164.27282749
  0
VERTEX
  8
0
 10
310.84235552
 20
164.39915642
  0
VERTEX
  8
0
 10
311.11798268
 20
164.50003723
  0
VERTEX
  8
0
 10
311.40548627
 20
164.57396195
  0
VERTEX
  8
0
 10
311.70335834
 20
164.61942263
  0
VERTEX
  8
0
 10
312.01009091
 20
164.63491129
  0
VERTEX
  8
0
 10
312.31682348
 20
164.61942263
  0
VERTEX
  8
0
 10
312.61469555
 20
164.57396195
  0
VERTEX
  8
0
 10
312.90219914
 20
164.50003723
  0
VERTEX
  8
0
 10
313.17782630
 20
164.39915642
  0
VERTEX
  8
0
 10
313.44006905
 20
164.27282749
  0
VERTEX
  8
0
 10
313.68741944
 20
164.12255841
  0
VERTEX
  8
0
 10
313.91836949
 20
163.94985713
  0
VERTEX
  8
0
 10
314.13141125
 20
163.75623163
  0
VERTEX
  8
0
 10
314.32503675
 20
163.54318987
  0
VERTEX
  8
0
 10
314.49773803
 20
163.31223982
  0
VERTEX
  8
0
 10
314.64800711
 20
163.06488943
  0
VERTEX
  8
0
 10
314.77433604
 20
162.80264668
  0
VERTEX
  8
0
 10
314.87521685
 20
162.52701952
  0
VERTEX
  8
0
 10
314.94914157
 20
162.23951593
  0
VERTEX
  8
0
 10
314.99460225
 20
161.94164386
  0
VERTEX
  8
0
 10
315.01009091
 20
161.63491129
  0
SEQEND
  0
POLYLINE
  8
По умолчанию
 66
   1
 39
0.000000
 70
    1
  0
VERTEX
  8
0
 10
316.21586065
 20
178.07450259
  0
VERTEX
  8
0
 10
313.52007551
 20
175.11938120
  0
VERTEX
  8
0
 10
306.13227203
 20
181.85884407
  0
VERTEX
  8
0
 10
308.82805718
 20
184.81396546
  0
VERTEX
  8
0
 10
316.21586065
 20
178.07450259
  0
SEQEND
  0
POLYLINE
  8
По умолчанию
 66
   1
 39
0.000000
 70
    1
  0
VERTEX
  8
0
 10
330.99051058
 20
164.59691400
  0
VERTEX
  8
0
 10
328.29472543
 20
161.64179261
  0
VERTEX
  8
0
 10
320.90692195
 20
168.38125548
  0
VERTEX
  8
0
 10
323.60270710
 20
171.33637687
  0
VERTEX
  8
0
 10
330.99051058
 20
164.59691400
  0
SEQEND
  0
POLYLINE
  8
По умолчанию
 66
   1
 39
0.000000
 70
    1
  0
VERTEX
  8
0
 10
375.04226985
 20
40.82250695
  0
VERTEX
  8
0
 10
383.04226985
 20
40.82250695
  0
VERTEX
  8
0
 10
383.04226985
 20
20.82250695
  0
VERTEX
  8
0
 10
375.04226985
 20
20.82250695
  0
VERTEX
  8
0
 10
375.04226985
 20
40.82250695
  0
SEQEND
  0
POLYLINE
  8
По умолчанию
 66
   1
 39
0.000000
 70
    1
  0
VERTEX
  8
0
 10
375.06797550
 20
138.52272929
  0
VERTEX
  8
0
 10
383.06797550
 20
138.52272929
  0
VERTEX
  8
0
 10
383.06797550
 20
118.52272929
  0
VERTEX
  8
0
 10
375.06797550
 20
118.52272929
  0
VERTEX
  8
0
 10
375.06797550
 20
138.52272929
  0
SEQEND
  0
POLYLINE
  8
По умолчанию
 66
   1
 39
0.000000
 70
    1
  0
VERTEX
  8
0
 10
183.23616601
 20
215.97782258
  0
VERTEX
  8
0
 10
183.25449458
 20
216.70268465
  0
VERTEX
  8
0
 10
183.30889027
 20
217.41803102
  0
VERTEX
  8
0
 10
183.39846804
 20
218.12297666
  0
VERTEX
  8
0
 10
183.52234282
 20
218.81663652
  0
VERTEX
  8
0
 10
183.67962958
 20
219.49812554
  0
VERTEX
  8
0
 10
183.86944327
 20
220.16655869
  0
VERTEX
  8
0
 10
184.09089883
 20
220.82105091
  0
VERTEX
  8
0
 10
184.34311123
 20
221.46071716
  0
VERTEX
  8
0
 10
184.62519541
 20
222.08467238
  0
VERTEX
  8
0
 10
184.93626633
 20
222.69203154
  0
VERTEX
  8
0
 10
185.27543893
 20
223.28190957
  0
VERTEX
  8
0
 10
185.64182818
 20
223.85342145
  0
VERTEX
  8
0
 10
186.03454902
 20
224.40568211
  0
VERTEX
  8
0
 10
186.45271641
 20
224.93780651
  0
VERTEX
  8
0
 10
186.89544529
 20
225.44890960
  0
VERTEX
  8
0
 10
187.36185063
 20
225.93810634
  0
VERTEX
  8
0
 10
187.85104736
 20
226.40451168
  0
VERTEX
  8
0
 10
188.36215046
 20
226.84724056
  0
VERTEX
  8
0
 10
188.89427486
 20
227.26540795
  0
VERTEX
  8
0
 10
189.44653552
 20
227.65812879
  0
VERTEX
  8
0
 10
190.01804739
 20
228.02451804
  0
VERTEX
  8
0
 10
190.60792543
 20
228.36369064
  0
VERTEX
  8
0
 10
191.21528459
 20
228.67476156
  0
VERTEX
  8
0
 10
191.83923981
 20
228.95684574
  0
VERTEX
  8
0
 10
192.47890606
 20
229.20905814
  0
VERTEX
  8
0
 10
193.13339828
 20
229.43051370
  0
VERTEX
  8
0
 10
193.80183142
 20
229.62032739
  0
VERTEX
  8
0
 10
194.48332045
 20
229.77761415
  0
VERTEX
  8
0
 10
195.17698031
 20
229.90148893
  0
VERTEX
  8
0
 10
195.88192595
 20
229.99106669
  0
VERTEX
  8
0
 10
196.59727232
 20
230.04546239
  0
VERTEX
  8
0
 10
197.32213439
 20
230.06379096
  0
VERTEX
  8
0
 10
198.04699645
 20
230.04546239
  0
VERTEX
  8
0
 10
198.76234283
 20
229.99106669
  0
VERTEX
  8
0
 10
199.46728847
 20
229.90148893
  0
VERTEX
  8
0
 10
200.16094833
 20
229.77761415
  0
VERTEX
  8
0
 10
200.84243735
 20
229.62032739
  0
VERTEX
  8
0
 10
201.51087050
 20
229.43051370
  0
VERTEX
  8
0
 10
202.16536272
 20
229.20905814
  0
VERTEX
  8
0
 10
202.80502896
 20
228.95684574
  0
VERTEX
  8
0
 10
203.42898419
 20
228.67476156
  0
VERTEX
  8
0
 10
204.03634334
 20
228.36369064
  0
VERTEX
  8
0
 10
204.62622138
 20
228.02451804
  0
VERTEX
  8
0
 10
205.19773325
 20
227.65812879
  0
VERTEX
  8
0
 10
205.74999392
 20
227.26540795
  0
VERTEX
  8
0
 10
206.28211832
 20
226.84724056
  0
VERTEX
  8
0
 10
206.79322141
 20
226.40451168
  0
VERTEX
  8
0
 10
207.28241815
 20
225.93810634
  0
VERTEX
  8
0
 10
207.74882348
 20
225.44890960
  0
VERTEX
  8
0
 10
208.19155237
 20
224.93780651
  0
VERTEX
  8
0
 10
208.60971975
 20
224.40568211
  0
VERTEX
  8
0
 10
209.00244060
 20
223.85342145
  0
VERTEX
  8
0
 10
209.36882984
 20
223.28190957
  0
VERTEX
  8
0
 10
209.70800245
 20
222.69203154
  0
VERTEX
  8
0
 10
210.01907337
 20
222.08467238
  0
VERTEX
  8
0
 10
210.30115755
 20
221.46071716
  0
VERTEX
  8
0
 10
210.55336994
 20
220.82105091
  0
VERTEX
  8
0
 10
210.77482551
 20
220.16655869
  0
VERTEX
  8
0
 10
210.96463919
 20
219.49812554
  0
VERTEX
  8
0
 10
211.12192595
 20
218.81663652
  0
VERTEX
  8
0
 10
211.24580074
 20
218.12297666
  0
VERTEX
  8
0
 10
211.33537850
 20
217.41803102
  0
VERTEX
  8
0
 10
211.38977419
 20
216.70268465
  0
VERTEX
  8
0
 10
211.40810277
 20
215.97782258
  0
VERTEX
  8
0
 10
211.38977419
 20
215.25296052
  0
VERTEX
  8
0
 10
211.33537850
 20
214.53761414
  0
VERTEX
  8
0
 10
211.24580074
 20
213.83266850
  0
VERTEX
  8
0
 10
211.12192595
 20
213.13900864
  0
VERTEX
  8
0
 10
210.96463919
 20
212.45751962
  0
VERTEX
  8
0
 10
210.77482551
 20
211.78908647
  0
VERTEX
  8
0
 10
210.55336994
 20
211.13459425
  0
VERTEX
  8
0
 10
210.30115755
 20
210.49492800
  0
VERTEX
  8
0
 10
210.01907337
 20
209.87097278
  0
VERTEX
  8
0
 10
209.70800245
 20
209.26361362
  0
VERTEX
  8
0
 10
209.36882984
 20
208.67373559
  0
VERTEX
  8
0
 10
209.00244060
 20
208.10222371
  0
VERTEX
  8
0
 10
208.60971975
 20
207.54996305
  0
VERTEX
  8
0
 10
208.19155237
 20
207.01783865
  0
VERTEX
  8
0
 10
207.74882348
 20
206.50673556
  0
VERTEX
  8
0
 10
207.28241815
 20
206.01753882
  0
VERTEX
  8
0
 10
206.79322141
 20
205.55113348
  0
VERTEX
  8
0
 10
206.28211832
 20
205.10840460
  0
VERTEX
  8
0
 10
205.74999392
 20
204.69023721
  0
VERTEX
  8
0
 10
205.19773325
 20
204.29751637
  0
VERTEX
  8
0
 10
204.62622138
 20
203.93112713
  0
VERTEX
  8
0
 10
204.03634334
 20
203.59195452
  0
VERTEX
  8
0
 10
203.42898419
 20
203.28088360
  0
VERTEX
  8
0
 10
202.80502896
 20
202.99879942
  0
VERTEX
  8
0
 10
202.16536272
 20
202.74658702
  0
VERTEX
  8
0
 10
201.51087050
 20
202.52513146
  0
VERTEX
  8
0
 10
200.84243735
 20
202.33531777
  0
VERTEX
  8
0
 10
200.16094833
 20
202.17803101
  0
VERTEX
  8
0
 10
199.46728847
 20
202.05415623
  0
VERTEX
  8
0
 10
198.76234283
 20
201.96457847
  0
VERTEX
  8
0
 10
198.04699645
 20
201.91018278
  0
VERTEX
  8
0
 10
197.32213439
 20
201.89185420
  0
VERTEX
  8
0
 10
196.59727232
 20
201.91018278
  0
VERTEX
  8
0
 10
195.88192595
 20
201.96457847
  0
VERTEX
  8
0
 10
195.17698031
 20
202.05415623
  0
VERTEX
  8
0
 10
194.48332045
 20
202.17803101
  0
VERTEX
  8
0
 10
193.80183142
 20
202.33531777
  0
VERTEX
  8
0
 10
193.13339828
 20
202.52513146
  0
VERTEX
  8
0
 10
192.47890606
 20
202.74658702
  0
VERTEX
  8
0
 10
191.83923981
 20
202.99879942
  0
VERTEX
  8
0
 10
191.21528459
 20
203.28088360
  0
VERTEX
  8
0
 10
190.60792543
 20
203.59195452
  0
VERTEX
  8
0
 10
190.01804739
 20
203.93112713
  0
VERTEX
  8
0
 10
189.44653552
 20
204.29751637
  0
VERTEX
  8
0
 10
188.89427486
 20
204.69023721
  0
VERTEX
  8
0
 10
188.36215046
 20
205.10840460
  0
VERTEX
  8
0
 10
187.85104736
 20
205.55113348
  0
VERTEX
  8
0
 10
187.36185063
 20
206.01753882
  0
VERTEX
  8
0
 10
186.89544529
 20
206.50673556
  0
VERTEX
  8
0
 10
186.45271641
 20
207.01783865
  0
VERTEX
  8
0
 10
186.03454902
 20
207.54996305
  0
VERTEX
  8
0
 10
185.64182818
 20
208.10222371
  0
VERTEX
  8
0
 10
185.27543893
 20
208.67373559
  0
VERTEX
  8
0
 10
184.93626633
 20
209.26361362
  0
VERTEX
  8
0
 10
184.62519541
 20
209.87097278
  0
VERTEX
  8
0
 10
184.34311123
 20
210.49492800
  0
VERTEX
  8
0
 10
184.09089883
 20
211.13459425
  0
VERTEX
  8
0
 10
183.86944327
 20
211.78908647
  0
VERTEX
  8
0
 10
183.67962958
 20
212.45751962
  0
VERTEX
  8
0
 10
183.52234282
 20
213.13900864
  0
VERTEX
  8
0
 10
183.39846804
 20
213.83266850
  0
VERTEX
  8
0
 10
183.30889027
 20
214.53761414
  0
VERTEX
  8
0
 10
183.25449458
 20
215.25296052
  0
VERTEX
  8
0
 10
183.23616601
 20
215.97782258
  0
SEQEND
  0
POLYLINE
  8
По умолчанию
 66
   1
 39
0.000000
 70
    1
  0
VERTEX
  8
0
 10
183.23616601
 20
39.06250000
  0
VERTEX
  8
0
 10
183.25449458
 20
39.78736206
  0
VERTEX
  8
0
 10
183.30889027
 20
40.50270844
  0
VERTEX
  8
0
 10
183.39846804
 20
41.20765408
  0
VERTEX
  8
0
 10
183.52234282
 20
41.90131394
  0
VERTEX
  8
0
 10
183.67962958
 20
42.58280296
  0
VERTEX
  8
0
 10
183.86944327
 20
43.25123611
  0
VERTEX
  8
0
 10
184.09089883
 20
43.90572833
  0
VERTEX
  8
0
 10
184.34311123
 20
44.54539458
  0
VERTEX
  8
0
 10
184.62519541
 20
45.16934980
  0
VERTEX
  8
0
 10
184.93626633
 20
45.77670896
  0
VERTEX
  8
0
 10
185.27543893
 20
46.36658699
  0
VERTEX
  8
0
 10
185.64182818
 20
46.93809887
  0
VERTEX
  8
0
 10
186.03454902
 20
47.49035953
  0
VERTEX
  8
0
 10
186.45271641
 20
48.02248393
  0
VERTEX
  8
0
 10
186.89544529
 20
48.53358702
  0
VERTEX
  8
0
 10
187.36185063
 20
49.02278376
  0
VERTEX
  8
0
 10
187.85104736
 20
49.48918910
  0
VERTEX
  8
0
 10
188.36215046
 20
49.93191798
  0
VERTEX
  8
0
 10
188.89427486
 20
50.35008537
  0
VERTEX
  8
0
 10
189.44653552
 20
50.74280621
  0
VERTEX
  8
0
 10
190.01804739
 20
51.10919545
  0
VERTEX
  8
0
 10
190.60792543
 20
51.44836806
  0
VERTEX
  8
0
 10
191.21528459
 20
51.75943898
  0
VERTEX
  8
0
 10
191.83923981
 20
52.04152316
  0
VERTEX
  8
0
 10
192.47890606
 20
52.29373556
  0
VERTEX
  8
0
 10
193.13339828
 20
52.51519112
  0
VERTEX
  8
0
 10
193.80183142
 20
52.70500481
  0
VERTEX
  8
0
 10
194.48332045
 20
52.86229157
  0
VERTEX
  8
0
 10
195.17698031
 20
52.98616635
  0
VERTEX
  8
0
 10
195.88192595
 20
53.07574411
  0
VERTEX
  8
0
 10
196.59727232
 20
53.13013980
  0
VERTEX
  8
0
 10
197.32213439
 20
53.14846838
  0
VERTEX
  8
0
 10
198.04699645
 20
53.13013980
  0
VERTEX
  8
0
 10
198.76234283
 20
53.07574411
  0
VERTEX
  8
0
 10
199.46728847
 20
52.98616635
  0
VERTEX
  8
0
 10
200.16094833
 20
52.86229157
  0
VERTEX
  8
0
 10
200.84243735
 20
52.70500481
  0
VERTEX
  8
0
 10
201.51087050
 20
52.51519112
  0
VERTEX
  8
0
 10
202.16536272
 20
52.29373556
  0
VERTEX
  8
0
 10
202.80502896
 20
52.04152316
  0
VERTEX
  8
0
 10
203.42898419
 20
51.75943898
  0
VERTEX
  8
0
 10
204.03634334
 20
51.44836806
  0
VERTEX
  8
0
 10
204.62622138
 20
51.10919545
  0
VERTEX
  8
0
 10
205.19773325
 20
50.74280621
  0
VERTEX
  8
0
 10
205.74999392
 20
50.35008537
  0
VERTEX
  8
0
 10
206.28211832
 20
49.93191798
  0
VERTEX
  8
0
 10
206.79322141
 20
49.48918910
  0
VERTEX
  8
0
 10
207.28241815
 20
49.02278376
  0
VERTEX
  8
0
 10
207.74882348
 20
48.53358702
  0
VERTEX
  8
0
 10
208.19155237
 20
48.02248393
  0
VERTEX
  8
0
 10
208.60971975
 20
47.49035953
  0
VERTEX
  8
0
 10
209.00244060
 20
46.93809887
  0
VERTEX
  8
0
 10
209.36882984
 20
46.36658699
  0
VERTEX
  8
0
 10
209.70800245
 20
45.77670896
  0
VERTEX
  8
0
 10
210.01907337
 20
45.16934980
  0
VERTEX
  8
0
 10
210.30115755
 20
44.54539458
  0
VERTEX
  8
0
 10
210.55336994
 20
43.90572833
  0
VERTEX
  8
0
 10
210.77482551
 20
43.25123611
  0
VERTEX
  8
0
 10
210.96463919
 20
42.58280296
  0
VERTEX
  8
0
 10
211.12192595
 20
41.90131394
  0
VERTEX
  8
0
 10
211.24580074
 20
41.20765408
  0
VERTEX
  8
0
 10
211.33537850
 20
40.50270844
  0
VERTEX
  8
0
 10
211.38977419
 20
39.78736206
  0
VERTEX
  8
0
 10
211.40810277
 20
39.06250000
  0
VERTEX
  8
0
 10
211.38977419
 20
38.33763794
  0
VERTEX
  8
0
 10
211.33537850
 20
37.62229156
  0
VERTEX
  8
0
 10
211.24580074
 20
36.91734592
  0
VERTEX
  8
0
 10
211.12192595
 20
36.22368606
  0
VERTEX
  8
0
 10
210.96463919
 20
35.54219704
  0
VERTEX
  8
0
 10
210.77482551
 20
34.87376389
  0
VERTEX
  8
0
 10
210.55336994
 20
34.21927167
  0
VERTEX
  8
0
 10
210.30115755
 20
33.57960542
  0
VERTEX
  8
0
 10
210.01907337
 20
32.95565020
  0
VERTEX
  8
0
 10
209.70800245
 20
32.34829104
  0
VERTEX
  8
0
 10
209.36882984
 20
31.75841301
  0
VERTEX
  8
0
 10
209.00244060
 20
31.18690113
  0
VERTEX
  8
0
 10
208.60971975
 20
30.63464047
  0
VERTEX
  8
0
 10
208.19155237
 20
30.10251607
  0
VERTEX
  8
0
 10
207.74882348
 20
29.59141298
  0
VERTEX
  8
0
 10
207.28241815
 20
29.10221624
  0
VERTEX
  8
0
 10
206.79322141
 20
28.63581090
  0
VERTEX
  8
0
 10
206.28211832
 20
28.19308202
  0
VERTEX
  8
0
 10
205.74999392
 20
27.77491463
  0
VERTEX
  8
0
 10
205.19773325
 20
27.38219379
  0
VERTEX
  8
0
 10
204.62622138
 20
27.01580455
  0
VERTEX
  8
0
 10
204.03634334
 20
26.67663194
  0
VERTEX
  8
0
 10
203.42898419
 20
26.36556102
  0
VERTEX
  8
0
 10
202.80502896
 20
26.08347684
  0
VERTEX
  8
0
 10
202.16536272
 20
25.83126444
  0
VERTEX
  8
0
 10
201.51087050
 20
25.60980888
  0
VERTEX
  8
0
 10
200.84243735
 20
25.41999519
  0
VERTEX
  8
0
 10
200.16094833
 20
25.26270843
  0
VERTEX
  8
0
 10
199.46728847
 20
25.13883365
  0
VERTEX
  8
0
 10
198.76234283
 20
25.04925589
  0
VERTEX
  8
0
 10
198.04699645
 20
24.99486020
  0
VERTEX
  8
0
 10
197.32213439
 20
24.97653162
  0
VERTEX
  8
0
 10
196.59727232
 20
24.99486020
  0
VERTEX
  8
0
 10
195.88192595
 20
25.04925589
  0
VERTEX
  8
0
 10
195.17698031
 20
25.13883365
  0
VERTEX
  8
0
 10
194.48332045
 20
25.26270843
  0
VERTEX
  8
0
 10
193.80183142
 20
25.41999519
  0
VERTEX
  8
0
 10
193.13339828
 20
25.60980888
  0
VERTEX
  8
0
 10
192.47890606
 20
25.83126444
  0
VERTEX
  8
0
 10
191.83923981
 20
26.08347684
  0
VERTEX
  8
0
 10
191.21528459
 20
26.36556102
  0
VERTEX
  8
0
 10
190.60792543
 20
26.67663194
  0
VERTEX
  8
0
 10
190.01804739
 20
27.01580455
  0
VERTEX
  8
0
 10
189.44653552
 20
27.38219379
  0
VERTEX
  8
0
 10
188.89427486
 20
27.77491463
  0
VERTEX
  8
0
 10
188.36215046
 20
28.19308202
  0
VERTEX
  8
0
 10
187.85104736
 20
28.63581090
  0
VERTEX
  8
0
 10
187.36185063
 20
29.10221624
  0
VERTEX
  8
0
 10
186.89544529
 20
29.59141298
  0
VERTEX
  8
0
 10
186.45271641
 20
30.10251607
  0
VERTEX
  8
0
 10
186.03454902
 20
30.63464047
  0
VERTEX
  8
0
 10
185.64182818
 20
31.18690113
  0
VERTEX
  8
0
 10
185.27543893
 20
31.75841301
  0
VERTEX
  8
0
 10
184.93626633
 20
32.34829104
  0
VERTEX
  8
0
 10
184.62519541
 20
32.95565020
  0
VERTEX
  8
0
 10
184.34311123
 20
33.57960542
  0
VERTEX
  8
0
 10
184.09089883
 20
34.21927167
  0
VERTEX
  8
0
 10
183.86944327
 20
34.87376389
  0
VERTEX
  8
0
 10
183.67962958
 20
35.54219704
  0
VERTEX
  8
0
 10
183.52234282
 20
36.22368606
  0
VERTEX
  8
0
 10
183.39846804
 20
36.91734592
  0
VERTEX
  8
0
 10
183.30889027
 20
37.62229156
  0
VERTEX
  8
0
 10
183.25449458
 20
38.33763794
  0
VERTEX
  8
0
 10
183.23616601
 20
39.06250000
  0
SEQEND
  0
POLYLINE
  8
По умолчанию
 66
   1
 39
0.000000
 70
    1
  0
VERTEX
  8
0
 10
349.62516206
 20
179.40187097
  0
VERTEX
  8
0
 10
349.61605370
 20
179.04165190
  0
VERTEX
  8
0
 10
349.58902184
 20
178.68616163
  0
VERTEX
  8
0
 10
349.54450632
 20
178.33584000
  0
VERTEX
  8
0
 10
349.48294693
 20
177.99112681
  0
VERTEX
  8
0
 10
349.40478353
 20
177.65246190
  0
VERTEX
  8
0
 10
349.31045591
 20
177.32028510
  0
VERTEX
  8
0
 10
349.20040391
 20
176.99503621
  0
VERTEX
  8
0
 10
349.07506736
 20
176.67715507
  0
VERTEX
  8
0
 10
348.93488606
 20
176.36708149
  0
VERTEX
  8
0
 10
348.78029986
 20
176.06525531
  0
VERTEX
  8
0
 10
348.61174856
 20
175.77211634
  0
VERTEX
  8
0
 10
348.42967199
 20
175.48810440
  0
VERTEX
  8
0
 10
348.23450999
 20
175.21365933
  0
VERTEX
  8
0
 10
348.02670236
 20
174.94922094
  0
VERTEX
  8
0
 10
347.80668893
 20
174.69522905
  0
VERTEX
  8
0
 10
347.57490952
 20
174.45212350
  0
VERTEX
  8
0
 10
347.33180397
 20
174.22034410
  0
VERTEX
  8
0
 10
347.07781208
 20
174.00033067
  0
VERTEX
  8
0
 10
346.81337369
 20
173.79252304
  0
VERTEX
  8
0
 10
346.53892862
 20
173.59736103
  0
VERTEX
  8
0
 10
346.25491669
 20
173.41528446
  0
VERTEX
  8
0
 10
345.96177772
 20
173.24673317
  0
VERTEX
  8
0
 10
345.65995153
 20
173.09214696
  0
VERTEX
  8
0
 10
345.34987796
 20
172.95196567
  0
VERTEX
  8
0
 10
345.03199681
 20
172.82662911
  0
VERTEX
  8
0
 10
344.70674793
 20
172.71657711
  0
VERTEX
  8
0
 10
344.37457112
 20
172.62224950
  0
VERTEX
  8
0
 10
344.03590621
 20
172.54408609
  0
VERTEX
  8
0
 10
343.69119303
 20
172.48252671
  0
VERTEX
  8
0
 10
343.34087139
 20
172.43801118
  0
VERTEX
  8
0
 10
342.98538113
 20
172.41097932
  0
VERTEX
  8
0
 10
342.62516206
 20
172.40187097
  0
VERTEX
  8
0
 10
342.26494298
 20
172.41097932
  0
VERTEX
  8
0
 10
341.90945272
 20
172.43801118
  0
VERTEX
  8
0
 10
341.55913108
 20
172.48252671
  0
VERTEX
  8
0
 10
341.21441790
 20
172.54408609
  0
VERTEX
  8
0
 10
340.87575299
 20
172.62224950
  0
VERTEX
  8
0
 10
340.54357618
 20
172.71657711
  0
VERTEX
  8
0
 10
340.21832730
 20
172.82662911
  0
VERTEX
  8
0
 10
339.90044615
 20
172.95196567
  0
VERTEX
  8
0
 10
339.59037258
 20
173.09214696
  0
VERTEX
  8
0
 10
339.28854639
 20
173.24673317
  0
VERTEX
  8
0
 10
338.99540742
 20
173.41528446
  0
VERTEX
  8
0
 10
338.71139549
 20
173.59736103
  0
VERTEX
  8
0
 10
338.43695042
 20
173.79252304
  0
VERTEX
  8
0
 10
338.17251203
 20
174.00033067
  0
VERTEX
  8
0
 10
337.91852014
 20
174.22034410
  0
VERTEX
  8
0
 10
337.67541459
 20
174.45212350
  0
VERTEX
  8
0
 10
337.44363518
 20
174.69522905
  0
VERTEX
  8
0
 10
337.22362176
 20
174.94922094
  0
VERTEX
  8
0
 10
337.01581413
 20
175.21365933
  0
VERTEX
  8
0
 10
336.82065212
 20
175.48810440
  0
VERTEX
  8
0
 10
336.63857555
 20
175.77211634
  0
VERTEX
  8
0
 10
336.47002425
 20
176.06525531
  0
VERTEX
  8
0
 10
336.31543805
 20
176.36708149
  0
VERTEX
  8
0
 10
336.17525675
 20
176.67715507
  0
VERTEX
  8
0
 10
336.04992020
 20
176.99503621
  0
VERTEX
  8
0
 10
335.93986820
 20
177.32028510
  0
VERTEX
  8
0
 10
335.84554059
 20
177.65246190
  0
VERTEX
  8
0
 10
335.76737718
 20
177.99112681
  0
VERTEX
  8
0
 10
335.70581780
 20
178.33584000
  0
VERTEX
  8
0
 10
335.66130227
 20
178.68616163
  0
VERTEX
  8
0
 10
335.63427041
 20
179.04165190
  0
VERTEX
  8
0
 10
335.62516206
 20
179.40187097
  0
VERTEX
  8
0
 10
335.63427041
 20
179.76209004
  0
VERTEX
  8
0
 10
335.66130227
 20
180.11758030
  0
VERTEX
  8
0
 10
335.70581780
 20
180.46790194
  0
VERTEX
  8
0
 10
335.76737718
 20
180.81261512
  0
VERTEX
  8
0
 10
335.84554059
 20
181.15128003
  0
VERTEX
  8
0
 10
335.93986820
 20
181.48345684
  0
VERTEX
  8
0
 10
336.04992020
 20
181.80870573
  0
VERTEX
  8
0
 10
336.17525675
 20
182.12658687
  0
VERTEX
  8
0
 10
336.31543805
 20
182.43666044
  0
VERTEX
  8
0
 10
336.47002425
 20
182.73848663
  0
VERTEX
  8
0
 10
336.63857555
 20
183.03162560
  0
VERTEX
  8
0
 10
336.82065212
 20
183.31563753
  0
VERTEX
  8
0
 10
337.01581413
 20
183.59008261
  0
VERTEX
  8
0
 10
337.22362176
 20
183.85452100
  0
VERTEX
  8
0
 10
337.44363518
 20
184.10851288
  0
VERTEX
  8
0
 10
337.67541459
 20
184.35161844
  0
VERTEX
  8
0
 10
337.91852014
 20
184.58339784
  0
VERTEX
  8
0
 10
338.17251203
 20
184.80341127
  0
VERTEX
  8
0
 10
338.43695042
 20
185.01121890
  0
VERTEX
  8
0
 10
338.71139549
 20
185.20638091
  0
VERTEX
  8
0
 10
338.99540742
 20
185.38845747
  0
VERTEX
  8
0
 10
339.28854639
 20
185.55700877
  0
VERTEX
  8
0
 10
339.59037258
 20
185.71159497
  0
VERTEX
  8
0
 10
339.90044615
 20
185.85177627
  0
VERTEX
  8
0
 10
340.21832730
 20
185.97711283
  0
VERTEX
  8
0
 10
340.54357618
 20
186.08716482
  0
VERTEX
  8
0
 10
340.87575299
 20
186.18149244
  0
VERTEX
  8
0
 10
341.21441790
 20
186.25965585
  0
VERTEX
  8
0
 10
341.55913108
 20
186.32121523
  0
VERTEX
  8
0
 10
341.90945272
 20
186.36573076
  0
VERTEX
  8
0
 10
342.26494298
 20
186.39276261
  0
VERTEX
  8
0
 10
342.62516206
 20
186.40187097
  0
VERTEX
  8
0
 10
342.98538113
 20
186.39276261
  0
VERTEX
  8
0
 10
343.34087139
 20
186.36573076
  0
VERTEX
  8
0
 10
343.69119303
 20
186.32121523
  0
VERTEX
  8
0
 10
344.03590621
 20
186.25965585
  0
VERTEX
  8
0
 10
344.37457112
 20
186.18149244
  0
VERTEX
  8
0
 10
344.70674793
 20
186.08716482
  0
VERTEX
  8
0
 10
345.03199681
 20
185.97711283
  0
VERTEX
  8
0
 10
345.34987796
 20
185.85177627
  0
VERTEX
  8
0
 10
345.65995153
 20
185.71159497
  0
VERTEX
  8
0
 10
345.96177772
 20
185.55700877
  0
VERTEX
  8
0
 10
346.25491669
 20
185.38845747
  0
VERTEX
  8
0
 10
346.53892862
 20
185.20638091
  0
VERTEX
  8
0
 10
346.81337369
 20
185.01121890
  0
VERTEX
  8
0
 10
347.07781208
 20
184.80341127
  0
VERTEX
  8
0
 10
347.33180397
 20
184.58339784
  0
VERTEX
  8
0
 10
347.57490952
 20
184.35161844
  0
VERTEX
  8
0
 10
347.80668893
 20
184.10851288
  0
VERTEX
  8
0
 10
348.02670236
 20
183.85452100
  0
VERTEX
  8
0
 10
348.23450999
 20
183.59008261
  0
VERTEX
  8
0
 10
348.42967199
 20
183.31563753
  0
VERTEX
  8
0
 10
348.61174856
 20
183.03162560
  0
VERTEX
  8
0
 10
348.78029986
 20
182.73848663
  0
VERTEX
  8
0
 10
348.93488606
 20
182.43666044
  0
VERTEX
  8
0
 10
349.07506736
 20
182.12658687
  0
VERTEX
  8
0
 10
349.20040391
 20
181.80870573
  0
VERTEX
  8
0
 10
349.31045591
 20
181.48345684
  0
VERTEX
  8
0
 10
349.40478353
 20
181.15128003
  0
VERTEX
  8
0
 10
349.48294693
 20
180.81261512
  0
VERTEX
  8
0
 10
349.54450632
 20
180.46790194
  0
VERTEX
  8
0
 10
349.58902184
 20
180.11758030
  0
VERTEX
  8
0
 10
349.61605370
 20
179.76209004
  0
VERTEX
  8
0
 10
349.62516206
 20
179.40187097
  0
SEQEND
  0
POLYLINE
  8
По умолчанию
 66
   1
 39
0.000000
 70
    0
  0
VERTEX
  8
0
 10
284.99664009
 20
338.74863339
  0
VERTEX
  8
0
 10
284.99684979
 20
338.74869493
  0
SEQEND
  0
POLYLINE
  8
По умолчанию
 66
   1
 39
0.000000
 70
    1
  0
VERTEX
  8
0
 10
327.86044132
 20
291.45807531
  0
VERTEX
  8
0
 10
328.06695272
 20
291.38940273
  0
VERTEX
  8
0
 10
328.27693253
 20
291.33615260
  0
VERTEX
  8
0
 10
328.48949021
 20
291.29830389
  0
VERTEX
  8
0
 10
328.70373527
 20
291.27583552
  0
VERTEX
  8
0
 10
328.91877719
 20
291.26872645
  0
VERTEX
  8
0
 10
329.13372546
 20
291.27695562
  0
VERTEX
  8
0
 10
329.34768957
 20
291.30050197
  0
VERTEX
  8
0
 10
329.55977901
 20
291.33934445
  0
VERTEX
  8
0
 10
329.76910326
 20
291.39346200
  0
VERTEX
  8
0
 10
329.97477181
 20
291.46283356
  0
VERTEX
  8
0
 10
330.17589416
 20
291.54743809
  0
VERTEX
  8
0
 10
330.37157979
 20
291.64725452
  0
VERTEX
  8
0
 10
330.56093818
 20
291.76226179
  0
VERTEX
  8
0
 10
330.74307884
 20
291.89243886
  0
VERTEX
  8
0
 10
330.91711124
 20
292.03776467
  0
VERTEX
  8
0
 10
331.08214487
 20
292.19821816
  0
VERTEX
  8
0
 10
331.28263386
 20
292.43087442
  0
VERTEX
  8
0
 10
331.45531840
 20
292.67780455
  0
VERTEX
  8
0
 10
331.60024899
 20
292.93687656
  0
VERTEX
  8
0
 10
331.71747611
 20
293.20595846
  0
VERTEX
  8
0
 10
331.80705024
 20
293.48291827
  0
VERTEX
  8
0
 10
331.86902187
 20
293.76562399
  0
VERTEX
  8
0
 10
331.90344149
 20
294.05194365
  0
VERTEX
  8
0
 10
331.91035958
 20
294.33974526
  0
VERTEX
  8
0
 10
331.88982662
 20
294.62689683
  0
VERTEX
  8
0
 10
331.84189311
 20
294.91126637
  0
VERTEX
  8
0
 10
331.76660952
 20
295.19072190
  0
VERTEX
  8
0
 10
331.66402634
 20
295.46313143
  0
VERTEX
  8
0
 10
331.53419407
 20
295.72636298
  0
VERTEX
  8
0
 10
331.37716317
 20
295.97828455
  0
VERTEX
  8
0
 10
331.19298414
 20
296.21676416
  0
VERTEX
  8
0
 10
330.98170747
 20
296.43966983
  0
VERTEX
  8
0
 10
330.79489081
 20
296.60382345
  0
VERTEX
  8
0
 10
330.59846816
 20
296.74981959
  0
VERTEX
  8
0
 10
330.39354433
 20
296.87768625
  0
VERTEX
  8
0
 10
330.18122413
 20
296.98745143
  0
VERTEX
  8
0
 10
329.96261237
 20
297.07914312
  0
VERTEX
  8
0
 10
329.73881384
 20
297.15278933
  0
VERTEX
  8
0
 10
329.51093337
 20
297.20841806
  0
VERTEX
  8
0
 10
329.28007574
 20
297.24605730
 42
0.01975666
  0
VERTEX
  8
0
 10
320.37444168
 20
298.79434174
 42
0.02761687
  0
VERTEX
  8
0
 10
307.78148365
 20
299.77106491
  0
VERTEX
  8
0
 10
307.45334306
 20
299.78059838
  0
VERTEX
  8
0
 10
307.12612848
 20
299.75443793
  0
VERTEX
  8
0
 10
306.80299487
 20
299.69266119
  0
VERTEX
  8
0
 10
306.48709715
 20
299.59534579
  0
VERTEX
  8
0
 10
306.18159029
 20
299.46256936
  0
VERTEX
  8
0
 10
305.88962922
 20
299.29440954
  0
VERTEX
  8
0
 10
305.61436888
 20
299.09094397
  0
VERTEX
  8
0
 10
305.35896423
 20
298.85225027
  0
VERTEX
  8
0
 10
305.15847525
 20
298.61959401
  0
VERTEX
  8
0
 10
304.98579071
 20
298.37266388
  0
VERTEX
  8
0
 10
304.84086012
 20
298.11359187
  0
VERTEX
  8
0
 10
304.72363300
 20
297.84450997
  0
VERTEX
  8
0
 10
304.63405887
 20
297.56755016
  0
VERTEX
  8
0
 10
304.57208724
 20
297.28484444
  0
VERTEX
  8
0
 10
304.53766762
 20
296.99852478
  0
VERTEX
  8
0
 10
304.53074953
 20
296.71072317
  0
VERTEX
  8
0
 10
304.55128249
 20
296.42357160
  0
VERTEX
  8
0
 10
304.59921600
 20
296.13920206
  0
VERTEX
  8
0
 10
304.67449959
 20
295.85974653
  0
VERTEX
  8
0
 10
304.77708276
 20
295.58733700
  0
VERTEX
  8
0
 10
304.90691504
 20
295.32410545
  0
VERTEX
  8
0
 10
305.06394594
 20
295.07218388
  0
VERTEX
  8
0
 10
305.24812496
 20
294.83370427
  0
VERTEX
  8
0
 10
305.45940164
 20
294.61079860
  0
VERTEX
  8
0
 10
305.73405598
 20
294.37826595
  0
VERTEX
  8
0
 10
306.02786053
 20
294.18404405
  0
VERTEX
  8
0
 10
306.33735370
 20
294.02805188
  0
VERTEX
  8
0
 10
306.65907392
 20
293.91020840
  0
VERTEX
  8
0
 10
306.98955958
 20
293.83043259
  0
VERTEX
  8
0
 10
307.32534912
 20
293.78864342
  0
VERTEX
  8
0
 10
307.66298095
 20
293.78475988
  0
VERTEX
  8
0
 10
307.99899347
 20
293.81870092
 42
-0.05120755
  0
VERTEX
  8
0
 10
320.03359371
 20
293.21345098
 42
-0.03403791
  0
VERTEX
  8
0
 10
327.86044132
 20
291.45807531
  0
SEQEND
  0
POLYLINE
  8
По умолчанию
 66
   1
 39
0.000000
 70
    1
  0
VERTEX
  8
0
 10
402.40283036
 20
257.72429918
  0
VERTEX
  8
0
 10
402.09407115
 20
257.71649202
  0
VERTEX
  8
0
 10
401.78936521
 20
257.69332186
  0
VERTEX
  8
0
 10
401.48908952
 20
257.65516569
  0
VERTEX
  8
0
 10
401.19362108
 20
257.60240051
  0
VERTEX
  8
0
 10
400.61861390
 20
257.45455106
  0
VERTEX
  8
0
 10
400.06735958
 20
257.25278944
  0
VERTEX
  8
0
 10
399.54287408
 20
257.00013158
  0
VERTEX
  8
0
 10
399.04817330
 20
256.69959342
  0
VERTEX
  8
0
 10
398.58627319
 20
256.35419087
  0
VERTEX
  8
0
 10
398.16018967
 20
255.96693987
  0
VERTEX
  8
0
 10
397.77293867
 20
255.54085635
  0
VERTEX
  8
0
 10
397.42753612
 20
255.07895624
  0
VERTEX
  8
0
 10
397.12699796
 20
254.58425546
  0
VERTEX
  8
0
 10
396.87434010
 20
254.05976996
  0
VERTEX
  8
0
 10
396.67257848
 20
253.50851565
  0
VERTEX
  8
0
 10
396.52472903
 20
252.93350846
  0
VERTEX
  8
0
 10
396.47196385
 20
252.63804002
  0
VERTEX
  8
0
 10
396.43380768
 20
252.33776433
  0
VERTEX
  8
0
 10
396.41063752
 20
252.03305839
  0
VERTEX
  8
0
 10
396.40283036
 20
251.72429918
  0
VERTEX
  8
0
 10
396.41063752
 20
251.41553998
  0
VERTEX
  8
0
 10
396.43380768
 20
251.11083404
  0
VERTEX
  8
0
 10
396.47196385
 20
250.81055835
  0
VERTEX
  8
0
 10
396.52472903
 20
250.51508991
  0
VERTEX
  8
0
 10
396.67257848
 20
249.94008272
  0
VERTEX
  8
0
 10
396.87434010
 20
249.38882841
  0
VERTEX
  8
0
 10
397.12699796
 20
248.86434290
  0
VERTEX
  8
0
 10
397.42753612
 20
248.36964213
  0
VERTEX
  8
0
 10
397.77293867
 20
247.90774202
  0
VERTEX
  8
0
 10
398.16018967
 20
247.48165850
  0
VERTEX
  8
0
 10
398.58627319
 20
247.09440750
  0
VERTEX
  8
0
 10
399.04817330
 20
246.74900495
  0
VERTEX
  8
0
 10
399.54287408
 20
246.44846678
  0
VERTEX
  8
0
 10
400.06735958
 20
246.19580893
  0
VERTEX
  8
0
 10
400.61861390
 20
245.99404731
  0
VERTEX
  8
0
 10
401.19362108
 20
245.84619786
  0
VERTEX
  8
0
 10
401.48908952
 20
245.79343268
  0
VERTEX
  8
0
 10
401.78936521
 20
245.75527651
  0
VERTEX
  8
0
 10
402.09407115
 20
245.73210635
  0
VERTEX
  8
0
 10
402.40283036
 20
245.72429918
  0
VERTEX
  8
0
 10
402.71158956
 20
245.73210635
  0
VERTEX
  8
0
 10
403.01629550
 20
245.75527651
  0
VERTEX
  8
0
 10
403.31657119
 20
245.79343268
  0
VERTEX
  8
0
 10
403.61203963
 20
245.84619786
  0
VERTEX
  8
0
 10
404.18704682
 20
245.99404731
  0
VERTEX
  8
0
 10
404.73830113
 20
246.19580893
  0
VERTEX
  8
0
 10
405.26278664
 20
246.44846678
  0
VERTEX
  8
0
 10
405.75748741
 20
246.74900495
  0
VERTEX
  8
0
 10
406.21938753
 20
247.09440750
  0
VERTEX
  8
0
 10
406.64547105
 20
247.48165850
  0
VERTEX
  8
0
 10
407.03272204
 20
247.90774202
  0
VERTEX
  8
0
 10
407.37812459
 20
248.36964213
  0
VERTEX
  8
0
 10
407.67866276
 20
248.86434290
  0
VERTEX
  8
0
 10
407.93132062
 20
249.38882841
  0
VERTEX
  8
0
 10
408.13308223
 20
249.94008272
  0
VERTEX
  8
0
 10
408.28093168
 20
250.51508991
  0
VERTEX
  8
0
 10
408.33369687
 20
250.81055835
  0
VERTEX
  8
0
 10
408.37185303
 20
251.11083404
  0
VERTEX
  8
0
 10
408.39502320
 20
251.41553998
  0
VERTEX
  8
0
 10
408.40283036
 20
251.72429918
  0
VERTEX
  8
0
 10
408.39502320
 20
252.03305839
  0
VERTEX
  8
0
 10
408.37185303
 20
252.33776433
  0
VERTEX
  8
0
 10
408.33369687
 20
252.63804002
  0
VERTEX
  8
0
 10
408.28093168
 20
252.93350846
  0
VERTEX
  8
0
 10
408.13308223
 20
253.50851565
  0
VERTEX
  8
0
 10
407.93132062
 20
254.05976996
  0
VERTEX
  8
0
 10
407.67866276
 20
254.58425546
  0
VERTEX
  8
0
 10
407.37812459
 20
255.07895624
  0
VERTEX
  8
0
 10
407.03272204
 20
255.54085635
  0
VERTEX
  8
0
 10
406.64547105
 20
255.96693987
  0
VERTEX
  8
0
 10
406.21938753
 20
256.35419087
  0
VERTEX
  8
0
 10
405.75748741
 20
256.69959342
  0
VERTEX
  8
0
 10
405.26278664
 20
257.00013158
  0
VERTEX
  8
0
 10
404.73830113
 20
257.25278944
  0
VERTEX
  8
0
 10
404.18704682
 20
257.45455106
  0
VERTEX
  8
0
 10
403.61203963
 20
257.60240051
  0
VERTEX
  8
0
 10
403.31657119
 20
257.65516569
  0
VERTEX
  8
0
 10
403.01629550
 20
257.69332186
  0
VERTEX
  8
0
 10
402.71158956
 20
257.71649202
  0
VERTEX
  8
0
 10
402.40283036
 20
257.72429918
  0
SEQEND
  0
POLYLINE
  8
По умолчанию
 66
   1
 39
0.000000
 70
    1
  0
VERTEX
  8
0
 10
414.49960455
 20
234.79445729
  0
VERTEX
  8
0
 10
414.19084535
 20
234.78665012
  0
VERTEX
  8
0
 10
413.88613941
 20
234.76347996
  0
VERTEX
  8
0
 10
413.58586372
 20
234.72532380
  0
VERTEX
  8
0
 10
413.29039528
 20
234.67255861
  0
VERTEX
  8
0
 10
412.71538809
 20
234.52470916
  0
VERTEX
  8
0
 10
412.16413378
 20
234.32294754
  0
VERTEX
  8
0
 10
411.63964827
 20
234.07028969
  0
VERTEX
  8
0
 10
411.14494750
 20
233.76975152
  0
VERTEX
  8
0
 10
410.68304738
 20
233.42434897
  0
VERTEX
  8
0
 10
410.25696386
 20
233.03709797
  0
VERTEX
  8
0
 10
409.86971287
 20
232.61101445
  0
VERTEX
  8
0
 10
409.52431032
 20
232.14911434
  0
VERTEX
  8
0
 10
409.22377215
 20
231.65441357
  0
VERTEX
  8
0
 10
408.97111429
 20
231.12992806
  0
VERTEX
  8
0
 10
408.76935268
 20
230.57867375
  0
VERTEX
  8
0
 10
408.62150323
 20
230.00366656
  0
VERTEX
  8
0
 10
408.56873804
 20
229.70819812
  0
VERTEX
  8
0
 10
408.53058188
 20
229.40792243
  0
VERTEX
  8
0
 10
408.50741171
 20
229.10321649
  0
VERTEX
  8
0
 10
408.49960455
 20
228.79445729
  0
VERTEX
  8
0
 10
408.50741171
 20
228.48569808
  0
VERTEX
  8
0
 10
408.53058188
 20
228.18099214
  0
VERTEX
  8
0
 10
408.56873804
 20
227.88071645
  0
VERTEX
  8
0
 10
408.62150323
 20
227.58524801
  0
VERTEX
  8
0
 10
408.76935268
 20
227.01024083
  0
VERTEX
  8
0
 10
408.97111429
 20
226.45898651
  0
VERTEX
  8
0
 10
409.22377215
 20
225.93450101
  0
VERTEX
  8
0
 10
409.52431032
 20
225.43980023
  0
VERTEX
  8
0
 10
409.86971287
 20
224.97790012
  0
VERTEX
  8
0
 10
410.25696386
 20
224.55181660
  0
VERTEX
  8
0
 10
410.68304738
 20
224.16456560
  0
VERTEX
  8
0
 10
411.14494750
 20
223.81916305
  0
VERTEX
  8
0
 10
411.63964827
 20
223.51862489
  0
VERTEX
  8
0
 10
412.16413378
 20
223.26596703
  0
VERTEX
  8
0
 10
412.71538809
 20
223.06420541
  0
VERTEX
  8
0
 10
413.29039528
 20
222.91635596
  0
VERTEX
  8
0
 10
413.58586372
 20
222.86359078
  0
VERTEX
  8
0
 10
413.88613941
 20
222.82543461
  0
VERTEX
  8
0
 10
414.19084535
 20
222.80226445
  0
VERTEX
  8
0
 10
414.49960455
 20
222.79445729
  0
VERTEX
  8
0
 10
414.80836376
 20
222.80226445
  0
VERTEX
  8
0
 10
415.11306970
 20
222.82543461
  0
VERTEX
  8
0
 10
415.41334538
 20
222.86359078
  0
VERTEX
  8
0
 10
415.70881383
 20
222.91635596
  0
VERTEX
  8
0
 10
416.28382101
 20
223.06420541
  0
VERTEX
  8
0
 10
416.83507532
 20
223.26596703
  0
VERTEX
  8
0
 10
417.35956083
 20
223.51862489
  0
VERTEX
  8
0
 10
417.85426161
 20
223.81916305
  0
VERTEX
  8
0
 10
418.31616172
 20
224.16456560
  0
VERTEX
  8
0
 10
418.74224524
 20
224.55181660
  0
VERTEX
  8
0
 10
419.12949624
 20
224.97790012
  0
VERTEX
  8
0
 10
419.47489878
 20
225.43980023
  0
VERTEX
  8
0
 10
419.77543695
 20
225.93450101
  0
VERTEX
  8
0
 10
420.02809481
 20
226.45898651
  0
VERTEX
  8
0
 10
420.22985643
 20
227.01024083
  0
VERTEX
  8
0
 10
420.37770588
 20
227.58524801
  0
VERTEX
  8
0
 10
420.43047106
 20
227.88071645
  0
VERTEX
  8
0
 10
420.46862723
 20
228.18099214
  0
VERTEX
  8
0
 10
420.49179739
 20
228.48569808
  0
VERTEX
  8
0
 10
420.49960455
 20
228.79445729
  0
VERTEX
  8
0
 10
420.49179739
 20
229.10321649
  0
VERTEX
  8
0
 10
420.46862723
 20
229.40792243
  0
VERTEX
  8
0
 10
420.43047106
 20
229.70819812
  0
VERTEX
  8
0
 10
420.37770588
 20
230.00366656
  0
VERTEX
  8
0
 10
420.22985643
 20
230.57867375
  0
VERTEX
  8
0
 10
420.02809481
 20
231.12992806
  0
VERTEX
  8
0
 10
419.77543695
 20
231.65441357
  0
VERTEX
  8
0
 10
419.47489878
 20
232.14911434
  0
VERTEX
  8
0
 10
419.12949624
 20
232.61101445
  0
VERTEX
  8
0
 10
418.74224524
 20
233.03709797
  0
VERTEX
  8
0
 10
418.31616172
 20
233.42434897
  0
VERTEX
  8
0
 10
417.85426161
 20
233.76975152
  0
VERTEX
  8
0
 10
417.35956083
 20
234.07028969
  0
VERTEX
  8
0
 10
416.83507532
 20
234.32294754
  0
VERTEX
  8
0
 10
416.28382101
 20
234.52470916
  0
VERTEX
  8
0
 10
415.70881383
 20
234.67255861
  0
VERTEX
  8
0
 10
415.41334538
 20
234.72532380
  0
VERTEX
  8
0
 10
415.11306970
 20
234.76347996
  0
VERTEX
  8
0
 10
414.80836376
 20
234.78665012
  0
VERTEX
  8
0
 10
414.49960455
 20
234.79445729
  0
SEQEND
  0
POLYLINE
  8
По умолчанию
 66
   1
 39
0.000000
 70
    1
  0
VERTEX
  8
0
 10
421.10030482
 20
209.38054326
  0
VERTEX
  8
0
 10
420.53796177
 20
209.35214738
  0
VERTEX
  8
0
 10
419.99186298
 20
209.26880280
  0
VERTEX
  8
0
 10
419.46477306
 20
209.13327414
  0
VERTEX
  8
0
 10
418.95945661
 20
208.94832599
  0
VERTEX
  8
0
 10
418.47867823
 20
208.71672296
  0
VERTEX
  8
0
 10
418.02520252
 20
208.44122964
  0
VERTEX
  8
0
 10
417.60179408
 20
208.12461063
  0
VERTEX
  8
0
 10
417.21121752
 20
207.76963055
  0
VERTEX
  8
0
 10
416.85623744
 20
207.37905399
  0
VERTEX
  8
0
 10
416.53961844
 20
206.95564556
  0
VERTEX
  8
0
 10
416.26412512
 20
206.50216985
  0
VERTEX
  8
0
 10
416.03252208
 20
206.02139146
  0
VERTEX
  8
0
 10
415.84757393
 20
205.51607501
  0
VERTEX
  8
0
 10
415.71204527
 20
204.98898509
  0
VERTEX
  8
0
 10
415.62870070
 20
204.44288631
  0
VERTEX
  8
0
 10
415.60030482
 20
203.88054326
  0
VERTEX
  8
0
 10
415.62870070
 20
203.31820020
  0
VERTEX
  8
0
 10
415.71204527
 20
202.77210142
  0
VERTEX
  8
0
 10
415.84757393
 20
202.24501150
  0
VERTEX
  8
0
 10
416.03252208
 20
201.73969505
  0
VERTEX
  8
0
 10
416.26412512
 20
201.25891666
  0
VERTEX
  8
0
 10
416.53961844
 20
200.80544095
  0
VERTEX
  8
0
 10
416.85623744
 20
200.38203252
  0
VERTEX
  8
0
 10
417.21121752
 20
199.99145596
  0
VERTEX
  8
0
 10
417.60179408
 20
199.63647588
  0
VERTEX
  8
0
 10
418.02520252
 20
199.31985687
  0
VERTEX
  8
0
 10
418.47867823
 20
199.04436355
  0
VERTEX
  8
0
 10
418.95945661
 20
198.81276052
  0
VERTEX
  8
0
 10
419.46477306
 20
198.62781237
  0
VERTEX
  8
0
 10
419.99186298
 20
198.49228371
  0
VERTEX
  8
0
 10
420.53796177
 20
198.40893914
  0
VERTEX
  8
0
 10
421.10030482
 20
198.38054326
  0
VERTEX
  8
0
 10
421.66264787
 20
198.40893914
  0
VERTEX
  8
0
 10
422.20874666
 20
198.49228371
  0
VERTEX
  8
0
 10
422.73583658
 20
198.62781237
  0
VERTEX
  8
0
 10
423.24115303
 20
198.81276052
  0
VERTEX
  8
0
 10
423.72193141
 20
199.04436355
  0
VERTEX
  8
0
 10
424.17540712
 20
199.31985687
  0
VERTEX
  8
0
 10
424.59881556
 20
199.63647588
  0
VERTEX
  8
0
 10
424.98939212
 20
199.99145596
  0
VERTEX
  8
0
 10
425.34437220
 20
200.38203252
  0
VERTEX
  8
0
 10
425.66099120
 20
200.80544095
  0
VERTEX
  8
0
 10
425.93648452
 20
201.25891666
  0
VERTEX
  8
0
 10
426.16808756
 20
201.73969505
  0
VERTEX
  8
0
 10
426.35303571
 20
202.24501150
  0
VERTEX
  8
0
 10
426.48856437
 20
202.77210142
  0
VERTEX
  8
0
 10
426.57190894
 20
203.31820020
  0
VERTEX
  8
0
 10
426.60030482
 20
203.88054326
  0
VERTEX
  8
0
 10
426.57190894
 20
204.44288631
  0
VERTEX
  8
0
 10
426.48856437
 20
204.98898509
  0
VERTEX
  8
0
 10
426.35303571
 20
205.51607501
  0
VERTEX
  8
0
 10
426.16808756
 20
206.02139146
  0
VERTEX
  8
0
 10
425.93648452
 20
206.50216985
  0
VERTEX
  8
0
 10
425.66099120
 20
206.95564556
  0
VERTEX
  8
0
 10
425.34437220
 20
207.37905399
  0
VERTEX
  8
0
 10
424.98939212
 20
207.76963055
  0
VERTEX
  8
0
 10
424.59881556
 20
208.12461063
  0
VERTEX
  8
0
 10
424.17540712
 20
208.44122964
  0
VERTEX
  8
0
 10
423.72193141
 20
208.71672296
  0
VERTEX
  8
0
 10
423.24115303
 20
208.94832599
  0
VERTEX
  8
0
 10
422.73583658
 20
209.13327414
  0
VERTEX
  8
0
 10
422.20874666
 20
209.26880280
  0
VERTEX
  8
0
 10
421.66264787
 20
209.35214738
  0
VERTEX
  8
0
 10
421.10030482
 20
209.38054326
  0
SEQEND
  0
POLYLINE
  8
По умолчанию
 66
   1
 39
0.000000
 70
    1
  0
VERTEX
  8
0
 10
385.26560052
 20
274.59493456
  0
VERTEX
  8
0
 10
384.70325747
 20
274.56653868
  0
VERTEX
  8
0
 10
384.15715868
 20
274.48319411
  0
VERTEX
  8
0
 10
383.63006876
 20
274.34766545
  0
VERTEX
  8
0
 10
383.12475231
 20
274.16271730
  0
VERTEX
  8
0
 10
382.64397393
 20
273.93111426
  0
VERTEX
  8
0
 10
382.19049822
 20
273.65562094
  0
VERTEX
  8
0
 10
381.76708978
 20
273.33900194
  0
VERTEX
  8
0
 10
381.37651322
 20
272.98402186
  0
VERTEX
  8
0
 10
381.02153314
 20
272.59344530
  0
VERTEX
  8
0
 10
380.70491414
 20
272.17003686
  0
VERTEX
  8
0
 10
380.42942082
 20
271.71656115
  0
VERTEX
  8
0
 10
380.19781778
 20
271.23578277
  0
VERTEX
  8
0
 10
380.01286963
 20
270.73046632
  0
VERTEX
  8
0
 10
379.87734097
 20
270.20337640
  0
VERTEX
  8
0
 10
379.79399640
 20
269.65727761
  0
VERTEX
  8
0
 10
379.76560052
 20
269.09493456
  0
VERTEX
  8
0
 10
379.79399640
 20
268.53259151
  0
VERTEX
  8
0
 10
379.87734097
 20
267.98649272
  0
VERTEX
  8
0
 10
380.01286963
 20
267.45940280
  0
VERTEX
  8
0
 10
380.19781778
 20
266.95408635
  0
VERTEX
  8
0
 10
380.42942082
 20
266.47330797
  0
VERTEX
  8
0
 10
380.70491414
 20
266.01983226
  0
VERTEX
  8
0
 10
381.02153314
 20
265.59642382
  0
VERTEX
  8
0
 10
381.37651322
 20
265.20584726
  0
VERTEX
  8
0
 10
381.76708978
 20
264.85086718
  0
VERTEX
  8
0
 10
382.19049822
 20
264.53424818
  0
VERTEX
  8
0
 10
382.64397393
 20
264.25875486
  0
VERTEX
  8
0
 10
383.12475231
 20
264.02715182
  0
VERTEX
  8
0
 10
383.63006876
 20
263.84220367
  0
VERTEX
  8
0
 10
384.15715868
 20
263.70667501
  0
VERTEX
  8
0
 10
384.70325747
 20
263.62333044
  0
VERTEX
  8
0
 10
385.26560052
 20
263.59493456
  0
VERTEX
  8
0
 10
385.82794357
 20
263.62333044
  0
VERTEX
  8
0
 10
386.37404236
 20
263.70667501
  0
VERTEX
  8
0
 10
386.90113228
 20
263.84220367
  0
VERTEX
  8
0
 10
387.40644873
 20
264.02715182
  0
VERTEX
  8
0
 10
387.88722711
 20
264.25875486
  0
VERTEX
  8
0
 10
388.34070282
 20
264.53424818
  0
VERTEX
  8
0
 10
388.76411126
 20
264.85086718
  0
VERTEX
  8
0
 10
389.15468782
 20
265.20584726
  0
VERTEX
  8
0
 10
389.50966790
 20
265.59642382
  0
VERTEX
  8
0
 10
389.82628690
 20
266.01983226
  0
VERTEX
  8
0
 10
390.10178022
 20
266.47330797
  0
VERTEX
  8
0
 10
390.33338326
 20
266.95408635
  0
VERTEX
  8
0
 10
390.51833141
 20
267.45940280
  0
VERTEX
  8
0
 10
390.65386007
 20
267.98649272
  0
VERTEX
  8
0
 10
390.73720464
 20
268.53259151
  0
VERTEX
  8
0
 10
390.76560052
 20
269.09493456
  0
VERTEX
  8
0
 10
390.73720464
 20
269.65727761
  0
VERTEX
  8
0
 10
390.65386007
 20
270.20337640
  0
VERTEX
  8
0
 10
390.51833141
 20
270.73046632
  0
VERTEX
  8
0
 10
390.33338326
 20
271.23578277
  0
VERTEX
  8
0
 10
390.10178022
 20
271.71656115
  0
VERTEX
  8
0
 10
389.82628690
 20
272.17003686
  0
VERTEX
  8
0
 10
389.50966790
 20
272.59344530
  0
VERTEX
  8
0
 10
389.15468782
 20
272.98402186
  0
VERTEX
  8
0
 10
388.76411126
 20
273.33900194
  0
VERTEX
  8
0
 10
388.34070282
 20
273.65562094
  0
VERTEX
  8
0
 10
387.88722711
 20
273.93111426
  0
VERTEX
  8
0
 10
387.40644873
 20
274.16271730
  0
VERTEX
  8
0
 10
386.90113228
 20
274.34766545
  0
VERTEX
  8
0
 10
386.37404236
 20
274.48319411
  0
VERTEX
  8
0
 10
385.82794357
 20
274.56653868
  0
VERTEX
  8
0
 10
385.26560052
 20
274.59493456
  0
SEQEND
  0
POLYLINE
  8
По умолчанию
 66
   1
 39
0.000000
 70
    1
  0
VERTEX
  8
0
 10
363.59236665
 20
287.21347211
  0
VERTEX
  8
0
 10
364.10358760
 20
287.18765767
  0
VERTEX
  8
0
 10
364.60004104
 20
287.11188988
  0
VERTEX
  8
0
 10
365.07921370
 20
286.98868201
  0
VERTEX
  8
0
 10
365.53859229
 20
286.82054732
  0
VERTEX
  8
0
 10
365.97566355
 20
286.60999911
  0
VERTEX
  8
0
 10
366.38791419
 20
286.35955064
  0
VERTEX
  8
0
 10
366.77283095
 20
286.07171518
  0
VERTEX
  8
0
 10
367.12790055
 20
285.74900601
  0
VERTEX
  8
0
 10
367.45060972
 20
285.39393641
  0
VERTEX
  8
0
 10
367.73844518
 20
285.00901965
  0
VERTEX
  8
0
 10
367.98889365
 20
284.59676901
  0
VERTEX
  8
0
 10
368.19944186
 20
284.15969775
  0
VERTEX
  8
0
 10
368.36757654
 20
283.70031916
  0
VERTEX
  8
0
 10
368.49078442
 20
283.22114651
  0
VERTEX
  8
0
 10
368.56655221
 20
282.72469306
  0
VERTEX
  8
0
 10
368.59236665
 20
282.21347211
  0
VERTEX
  8
0
 10
368.56655221
 20
281.70225115
  0
VERTEX
  8
0
 10
368.49078442
 20
281.20579771
  0
VERTEX
  8
0
 10
368.36757654
 20
280.72662506
  0
VERTEX
  8
0
 10
368.19944186
 20
280.26724646
  0
VERTEX
  8
0
 10
367.98889365
 20
279.83017521
  0
VERTEX
  8
0
 10
367.73844518
 20
279.41792456
  0
VERTEX
  8
0
 10
367.45060972
 20
279.03300780
  0
VERTEX
  8
0
 10
367.12790055
 20
278.67793820
  0
VERTEX
  8
0
 10
366.77283095
 20
278.35522904
  0
VERTEX
  8
0
 10
366.38791419
 20
278.06739358
  0
VERTEX
  8
0
 10
365.97566355
 20
277.81694511
  0
VERTEX
  8
0
 10
365.53859229
 20
277.60639689
  0
VERTEX
  8
0
 10
365.07921370
 20
277.43826221
  0
VERTEX
  8
0
 10
364.60004104
 20
277.31505434
  0
VERTEX
  8
0
 10
364.10358760
 20
277.23928655
  0
VERTEX
  8
0
 10
363.59236665
 20
277.21347211
  0
VERTEX
  8
0
 10
363.08114569
 20
277.23928655
  0
VERTEX
  8
0
 10
362.58469225
 20
277.31505434
  0
VERTEX
  8
0
 10
362.10551960
 20
277.43826221
  0
VERTEX
  8
0
 10
361.64614100
 20
277.60639689
  0
VERTEX
  8
0
 10
361.20906975
 20
277.81694511
  0
VERTEX
  8
0
 10
360.79681910
 20
278.06739358
  0
VERTEX
  8
0
 10
360.41190234
 20
278.35522904
  0
VERTEX
  8
0
 10
360.05683274
 20
278.67793820
  0
VERTEX
  8
0
 10
359.73412358
 20
279.03300780
  0
VERTEX
  8
0
 10
359.44628812
 20
279.41792456
  0
VERTEX
  8
0
 10
359.19583965
 20
279.83017521
  0
VERTEX
  8
0
 10
358.98529143
 20
280.26724646
  0
VERTEX
  8
0
 10
358.81715675
 20
280.72662506
  0
VERTEX
  8
0
 10
358.69394888
 20
281.20579771
  0
VERTEX
  8
0
 10
358.61818108
 20
281.70225115
  0
VERTEX
  8
0
 10
358.59236665
 20
282.21347211
  0
VERTEX
  8
0
 10
358.61818108
 20
282.72469306
  0
VERTEX
  8
0
 10
358.69394888
 20
283.22114651
  0
VERTEX
  8
0
 10
358.81715675
 20
283.70031916
  0
VERTEX
  8
0
 10
358.98529143
 20
284.15969775
  0
VERTEX
  8
0
 10
359.19583965
 20
284.59676901
  0
VERTEX
  8
0
 10
359.44628812
 20
285.00901965
  0
VERTEX
  8
0
 10
359.73412358
 20
285.39393641
  0
VERTEX
  8
0
 10
360.05683274
 20
285.74900601
  0
VERTEX
  8
0
 10
360.41190234
 20
286.07171518
  0
VERTEX
  8
0
 10
360.79681910
 20
286.35955064
  0
VERTEX
  8
0
 10
361.20906975
 20
286.60999911
  0
VERTEX
  8
0
 10
361.64614100
 20
286.82054732
  0
VERTEX
  8
0
 10
362.10551960
 20
286.98868201
  0
VERTEX
  8
0
 10
362.58469225
 20
287.11188988
  0
VERTEX
  8
0
 10
363.08114569
 20
287.18765767
  0
VERTEX
  8
0
 10
363.59236665
 20
287.21347211
  0
SEQEND
  0
POLYLINE
  8
По умолчанию
 66
   1
 39
0.000000
 70
    1
  0
VERTEX
  8
0
 10
307.52946745
 20
283.78168456
  0
VERTEX
  8
0
 10
306.86048918
 20
283.79860008
  0
VERTEX
  8
0
 10
306.20029297
 20
283.84880209
  0
VERTEX
  8
0
 10
305.54969565
 20
283.93147379
  0
VERTEX
  8
0
 10
304.90951402
 20
284.04579835
  0
VERTEX
  8
0
 10
304.28056491
 20
284.19095897
  0
VERTEX
  8
0
 10
303.66366512
 20
284.36613883
  0
VERTEX
  8
0
 10
303.05963147
 20
284.57052111
  0
VERTEX
  8
0
 10
302.46928078
 20
284.80328900
  0
VERTEX
  8
0
 10
301.89342986
 20
285.06362569
  0
VERTEX
  8
0
 10
301.33289551
 20
285.35071436
  0
VERTEX
  8
0
 10
300.78849457
 20
285.66373820
  0
VERTEX
  8
0
 10
300.26104384
 20
286.00188039
  0
VERTEX
  8
0
 10
299.75136013
 20
286.36432412
  0
VERTEX
  8
0
 10
299.26026026
 20
286.75025257
  0
VERTEX
  8
0
 10
298.78856105
 20
287.15884894
  0
VERTEX
  8
0
 10
298.33707930
 20
287.58929640
  0
VERTEX
  8
0
 10
297.90663184
 20
288.04077815
  0
VERTEX
  8
0
 10
297.49803547
 20
288.51247736
  0
VERTEX
  8
0
 10
297.11210701
 20
289.00357723
  0
VERTEX
  8
0
 10
296.74966328
 20
289.51326094
  0
VERTEX
  8
0
 10
296.41152109
 20
290.04071167
  0
VERTEX
  8
0
 10
296.09849725
 20
290.58511262
  0
VERTEX
  8
0
 10
295.81140858
 20
291.14564696
  0
VERTEX
  8
0
 10
295.55107190
 20
291.72149788
  0
VERTEX
  8
0
 10
295.31830400
 20
292.31184858
  0
VERTEX
  8
0
 10
295.11392172
 20
292.91588223
  0
VERTEX
  8
0
 10
294.93874187
 20
293.53278201
  0
VERTEX
  8
0
 10
294.79358125
 20
294.16173113
  0
VERTEX
  8
0
 10
294.67925669
 20
294.80191275
  0
VERTEX
  8
0
 10
294.59658499
 20
295.45251008
  0
VERTEX
  8
0
 10
294.54638297
 20
296.11270628
  0
VERTEX
  8
0
 10
294.52946745
 20
296.78168456
  0
VERTEX
  8
0
 10
294.54638297
 20
297.45066284
  0
VERTEX
  8
0
 10
294.59658499
 20
298.11085904
  0
VERTEX
  8
0
 10
294.67925669
 20
298.76145637
  0
VERTEX
  8
0
 10
294.79358125
 20
299.40163799
  0
VERTEX
  8
0
 10
294.93874187
 20
300.03058711
  0
VERTEX
  8
0
 10
295.11392172
 20
300.64748689
  0
VERTEX
  8
0
 10
295.31830400
 20
301.25152054
  0
VERTEX
  8
0
 10
295.55107190
 20
301.84187123
  0
VERTEX
  8
0
 10
295.81140858
 20
302.41772216
  0
VERTEX
  8
0
 10
296.09849725
 20
302.97825650
  0
VERTEX
  8
0
 10
296.41152109
 20
303.52265745
  0
VERTEX
  8
0
 10
296.74966328
 20
304.05010818
  0
VERTEX
  8
0
 10
297.11210701
 20
304.55979189
  0
VERTEX
  8
0
 10
297.49803547
 20
305.05089176
  0
VERTEX
  8
0
 10
297.90663184
 20
305.52259097
  0
VERTEX
  8
0
 10
298.33707930
 20
305.97407271
  0
VERTEX
  8
0
 10
298.78856105
 20
306.40452018
  0
VERTEX
  8
0
 10
299.26026026
 20
306.81311654
  0
VERTEX
  8
0
 10
299.75136013
 20
307.19904500
  0
VERTEX
  8
0
 10
300.26104384
 20
307.56148873
  0
VERTEX
  8
0
 10
300.78849457
 20
307.89963092
  0
VERTEX
  8
0
 10
301.33289551
 20
308.21265476
  0
VERTEX
  8
0
 10
301.89342986
 20
308.49974343
  0
VERTEX
  8
0
 10
302.46928078
 20
308.76008012
  0
VERTEX
  8
0
 10
303.05963147
 20
308.99284801
  0
VERTEX
  8
0
 10
303.66366512
 20
309.19723029
  0
VERTEX
  8
0
 10
304.28056491
 20
309.37241015
  0
VERTEX
  8
0
 10
304.90951402
 20
309.51757076
  0
VERTEX
  8
0
 10
305.54969565
 20
309.63189533
  0
VERTEX
  8
0
 10
306.20029297
 20
309.71456702
  0
VERTEX
  8
0
 10
306.86048918
 20
309.76476904
  0
VERTEX
  8
0
 10
307.52946745
 20
309.78168456
  0
VERTEX
  8
0
 10
308.25108630
 20
309.76196876
  0
VERTEX
  8
0
 10
308.96236096
 20
309.70340294
  0
VERTEX
  8
0
 10
311.80932699
 20
309.47025363
  0
VERTEX
  8
0
 10
314.64920031
 20
309.19081491
  0
VERTEX
  8
0
 10
317.48143817
 20
308.86527252
  0
VERTEX
  8
0
 10
320.30549776
 20
308.49381219
  0
VERTEX
  8
0
 10
323.12083632
 20
308.07661968
  0
VERTEX
  8
0
 10
325.92691107
 20
307.61388071
  0
VERTEX
  8
0
 10
328.72317922
 20
307.10578104
  0
VERTEX
  8
0
 10
331.50909800
 20
306.55250639
  0
VERTEX
  8
0
 10
334.28412462
 20
305.95424251
  0
VERTEX
  8
0
 10
337.04771631
 20
305.31117514
  0
VERTEX
  8
0
 10
339.79933028
 20
304.62349002
  0
VERTEX
  8
0
 10
342.53842376
 20
303.89137289
  0
VERTEX
  8
0
 10
345.26445397
 20
303.11500949
  0
VERTEX
  8
0
 10
347.97687812
 20
302.29458556
  0
VERTEX
  8
0
 10
350.67515344
 20
301.43028684
  0
VERTEX
  8
0
 10
353.35873715
 20
300.52229907
  0
VERTEX
  8
0
 10
356.02708646
 20
299.57080799
  0
VERTEX
  8
0
 10
358.67965860
 20
298.57599935
  0
VERTEX
  8
0
 10
361.31591079
 20
297.53805887
  0
VERTEX
  8
0
 10
363.93530024
 20
296.45717230
  0
VERTEX
  8
0
 10
366.53728418
 20
295.33352539
  0
VERTEX
  8
0
 10
369.12131983
 20
294.16730387
  0
VERTEX
  8
0
 10
371.68686441
 20
292.95869348
  0
VERTEX
  8
0
 10
374.23337513
 20
291.70787996
  0
VERTEX
  8
0
 10
376.76030922
 20
290.41504905
  0
VERTEX
  8
0
 10
379.26712390
 20
289.08038650
  0
VERTEX
  8
0
 10
381.75327639
 20
287.70407804
  0
VERTEX
  8
0
 10
384.21822391
 20
286.28630941
  0
VERTEX
  8
0
 10
386.66142368
 20
284.82726636
  0
VERTEX
  8
0
 10
389.08233291
 20
283.32713461
  0
VERTEX
  8
0
 10
391.48040884
 20
281.78609992
  0
VERTEX
  8
0
 10
393.85510867
 20
280.20434803
  0
VERTEX
  8
0
 10
395.07072734
 20
279.36203974
  0
VERTEX
  8
0
 10
396.27096708
 20
278.50227621
  0
VERTEX
  8
0
 10
397.45570829
 20
277.62528541
  0
VERTEX
  8
0
 10
398.62483135
 20
276.73129530
  0
VERTEX
  8
0
 10
399.77821662
 20
275.82053385
  0
VERTEX
  8
0
 10
400.91574451
 20
274.89322903
  0
VERTEX
  8
0
 10
402.03729538
 20
273.94960879
  0
VERTEX
  8
0
 10
403.14274961
 20
272.98990111
  0
VERTEX
  8
0
 10
404.23198760
 20
272.01433396
  0
VERTEX
  8
0
 10
405.30488971
 20
271.02313530
  0
VERTEX
  8
0
 10
406.36133633
 20
270.01653309
  0
VERTEX
  8
0
 10
407.40120785
 20
268.99475531
  0
VERTEX
  8
0
 10
408.42438463
 20
267.95802991
  0
VERTEX
  8
0
 10
409.43074707
 20
266.90658487
  0
VERTEX
  8
0
 10
410.42017555
 20
265.84064815
  0
VERTEX
  8
0
 10
411.39255044
 20
264.76044771
  0
VERTEX
  8
0
 10
412.34775212
 20
263.66621153
  0
VERTEX
  8
0
 10
413.28566098
 20
262.55816757
  0
VERTEX
  8
0
 10
414.20615740
 20
261.43654380
  0
VERTEX
  8
0
 10
415.10912176
 20
260.30156818
  0
VERTEX
  8
0
 10
415.99443444
 20
259.15346867
  0
VERTEX
  8
0
 10
416.86197582
 20
257.99247326
  0
VERTEX
  8
0
 10
417.71162628
 20
256.81880989
  0
VERTEX
  8
0
 10
418.54326620
 20
255.63270654
  0
VERTEX
  8
0
 10
419.35677597
 20
254.43439117
  0
VERTEX
  8
0
 10
420.15203596
 20
253.22409175
  0
VERTEX
  8
0
 10
420.92892655
 20
252.00203625
  0
VERTEX
  8
0
 10
421.68732814
 20
250.76845262
  0
VERTEX
  8
0
 10
422.42712109
 20
249.52356885
  0
VERTEX
  8
0
 10
423.14818579
 20
248.26761289
  0
VERTEX
  8
0
 10
423.85040262
 20
247.00081271
  0
VERTEX
  8
0
 10
424.53365195
 20
245.72339628
  0
VERTEX
  8
0
 10
425.19781419
 20
244.43559157
  0
VERTEX
  8
0
 10
425.84276969
 20
243.13762653
  0
VERTEX
  8
0
 10
426.46839885
 20
241.82972913
  0
VERTEX
  8
0
 10
427.07458204
 20
240.51212735
  0
VERTEX
  8
0
 10
427.66119964
 20
239.18504915
  0
VERTEX
  8
0
 10
428.22813204
 20
237.84872249
  0
VERTEX
  8
0
 10
428.77525962
 20
236.50337534
  0
VERTEX
  8
0
 10
429.30246276
 20
235.14923567
  0
VERTEX
  8
0
 10
429.80962184
 20
233.78653144
  0
VERTEX
  8
0
 10
430.29661724
 20
232.41549062
  0
VERTEX
  8
0
 10
430.76332933
 20
231.03634117
  0
VERTEX
  8
0
 10
431.20963851
 20
229.64931107
  0
VERTEX
  8
0
 10
431.63542516
 20
228.25462827
  0
VERTEX
  8
0
 10
432.04056964
 20
226.85252075
  0
VERTEX
  8
0
 10
432.42495236
 20
225.44321647
  0
VERTEX
  8
0
 10
432.78845368
 20
224.02694339
  0
VERTEX
  8
0
 10
433.13095398
 20
222.60392949
  0
VERTEX
  8
0
 10
433.45233365
 20
221.17440273
  0
VERTEX
  8
0
 10
433.75247308
 20
219.73859107
  0
VERTEX
  8
0
 10
434.03125263
 20
218.29672248
  0
VERTEX
  8
0
 10
434.28855269
 20
216.84902493
  0
VERTEX
  8
0
 10
434.52425364
 20
215.39572639
  0
VERTEX
  8
0
 10
434.73823587
 20
213.93705481
  0
VERTEX
  8
0
 10
434.93037975
 20
212.47323817
  0
VERTEX
  8
0
 10
435.10056567
 20
211.00450444
  0
VERTEX
  8
0
 10
435.24867400
 20
209.53108157
  0
VERTEX
  8
0
 10
435.37458513
 20
208.05319753
  0
VERTEX
  8
0
 10
435.47817943
 20
206.57108030
  0
VERTEX
  8
0
 10
435.55933729
 20
205.08495784
  0
VERTEX
  8
0
 10
435.61793910
 20
203.59505811
  0
VERTEX
  8
0
 10
435.65386522
 20
202.10160907
  0
VERTEX
  8
0
 10
435.66699605
 20
200.60483871
  0
VERTEX
  8
0
 10
435.66883842
 20
200.60483871
  0
VERTEX
  8
0
 10
435.66883842
 20
19.85879128
 42
-0.41421356
  0
VERTEX
  8
0
 10
425.66883842
 20
9.85879128
  0
VERTEX
  8
0
 10
418.83376299
 20
9.85879128
  0
VERTEX
  8
0
 10
418.83419689
 20
9.85102722
  0
VERTEX
  8
0
 10
409.84821837
 20
9.34884194
  0
VERTEX
  8
0
 10
408.78804946
 20
28.31924104
  0
VERTEX
  8
0
 10
416.68693962
 20
28.76067391
  0
VERTEX
  8
0
 10
412.07796945
 20
110.01113682
  0
VERTEX
  8
0
 10
404.16848757
 20
109.56911203
  0
VERTEX
  8
0
 10
403.10831866
 20
128.53951112
  0
VERTEX
  8
0
 10
411.00191512
 20
128.98064815
  0
VERTEX
  8
0
 10
406.93899971
 20
200.60483871
 42
0.37756258
  0
VERTEX
  8
0
 10
308.17318165
 20
283.79797638
 42
0.00164779
  0
VERTEX
  8
0
 10
307.52946745
 20
283.78168456
  0
SEQEND
  0
POLYLINE
  8
По умолчанию
 66
   1
 39
0.000000
 70
    1
  0
VERTEX
  8
0
 10
389.35365426
 20
394.07774643
 42
-0.41421356
  0
VERTEX
  8
0
 10
394.35365426
 20
399.07774643
  0
VERTEX
  8
0
 10
417.36776716
 20
399.07774643
 42
-0.41421356
  0
VERTEX
  8
0
 10
422.36776716
 20
394.07774643
  0
VERTEX
  8
0
 10
422.36776716
 20
391.98288477
 42
-0.41421356
  0
VERTEX
  8
0
 10
417.36776716
 20
386.98288477
  0
VERTEX
  8
0
 10
394.35365426
 20
386.98288477
 42
-0.41421356
  0
VERTEX
  8
0
 10
389.35365426
 20
391.98288477
  0
VERTEX
  8
0
 10
389.35365426
 20
394.07774643
  0
SEQEND
  0
POLYLINE
  8
По умолчанию
 66
   1
 39
0.000000
 70
    1
  0
VERTEX
  8
0
 10
451.26998490
 20
400.84158042
  0
VERTEX
  8
0
 10
451.62008489
 20
400.83272793
  0
VERTEX
  8
0
 10
451.96558891
 20
400.80645544
  0
VERTEX
  8
0
 10
452.30606950
 20
400.76319042
  0
VERTEX
  8
0
 10
452.64109918
 20
400.70336033
  0
VERTEX
  8
0
 10
452.97025049
 20
400.62739265
  0
VERTEX
  8
0
 10
453.29309596
 20
400.53571484
  0
VERTEX
  8
0
 10
453.60920813
 20
400.42875436
  0
VERTEX
  8
0
 10
453.91815952
 20
400.30693869
  0
VERTEX
  8
0
 10
454.21952267
 20
400.17069530
  0
VERTEX
  8
0
 10
454.51287011
 20
400.02045165
  0
VERTEX
  8
0
 10
454.79777438
 20
399.85663520
  0
VERTEX
  8
0
 10
455.07380800
 20
399.67967344
  0
VERTEX
  8
0
 10
455.34054351
 20
399.48999382
  0
VERTEX
  8
0
 10
455.59755343
 20
399.28802381
  0
VERTEX
  8
0
 10
455.84441031
 20
399.07419088
  0
VERTEX
  8
0
 10
456.08068667
 20
398.84892250
  0
VERTEX
  8
0
 10
456.30595505
 20
398.61264614
  0
VERTEX
  8
0
 10
456.51978798
 20
398.36578926
  0
VERTEX
  8
0
 10
456.72175798
 20
398.10877934
  0
VERTEX
  8
0
 10
456.91143760
 20
397.84204383
  0
VERTEX
  8
0
 10
457.08839937
 20
397.56601021
  0
VERTEX
  8
0
 10
457.25221581
 20
397.28110595
  0
VERTEX
  8
0
 10
457.40245947
 20
396.98775851
  0
VERTEX
  8
0
 10
457.53870286
 20
396.68639535
  0
VERTEX
  8
0
 10
457.66051853
 20
396.37744396
  0
VERTEX
  8
0
 10
457.76747900
 20
396.06133179
  0
VERTEX
  8
0
 10
457.85915682
 20
395.73848632
  0
VERTEX
  8
0
 10
457.93512450
 20
395.40933501
  0
VERTEX
  8
0
 10
457.99495459
 20
395.07430533
  0
VERTEX
  8
0
 10
458.03821961
 20
394.73382474
  0
VERTEX
  8
0
 10
458.06449210
 20
394.38832072
  0
VERTEX
  8
0
 10
458.07334459
 20
394.03822074
  0
VERTEX
  8
0
 10
458.06449210
 20
393.68812075
  0
VERTEX
  8
0
 10
458.03821961
 20
393.34261673
  0
VERTEX
  8
0
 10
457.99495459
 20
393.00213615
  0
VERTEX
  8
0
 10
457.93512450
 20
392.66710646
  0
VERTEX
  8
0
 10
457.85915682
 20
392.33795515
  0
VERTEX
  8
0
 10
457.76747900
 20
392.01510968
  0
VERTEX
  8
0
 10
457.66051853
 20
391.69899751
  0
VERTEX
  8
0
 10
457.53870286
 20
391.39004612
  0
VERTEX
  8
0
 10
457.40245947
 20
391.08868297
  0
VERTEX
  8
0
 10
457.25221581
 20
390.79533553
  0
VERTEX
  8
0
 10
457.08839937
 20
390.51043126
  0
VERTEX
  8
0
 10
456.91143760
 20
390.23439764
  0
VERTEX
  8
0
 10
456.72175798
 20
389.96766214
  0
VERTEX
  8
0
 10
456.51978798
 20
389.71065221
  0
VERTEX
  8
0
 10
456.30595505
 20
389.46379533
  0
VERTEX
  8
0
 10
456.08068667
 20
389.22751897
  0
VERTEX
  8
0
 10
455.84441031
 20
389.00225059
  0
VERTEX
  8
0
 10
455.59755343
 20
388.78841767
  0
VERTEX
  8
0
 10
455.34054351
 20
388.58644766
  0
VERTEX
  8
0
 10
455.07380800
 20
388.39676804
  0
VERTEX
  8
0
 10
454.79777438
 20
388.21980627
  0
VERTEX
  8
0
 10
454.51287011
 20
388.05598983
  0
VERTEX
  8
0
 10
454.21952267
 20
387.90574618
  0
VERTEX
  8
0
 10
453.91815952
 20
387.76950278
  0
VERTEX
  8
0
 10
453.60920813
 20
387.64768711
  0
VERTEX
  8
0
 10
453.29309596
 20
387.54072664
  0
VERTEX
  8
0
 10
452.97025049
 20
387.44904883
  0
VERTEX
  8
0
 10
452.64109918
 20
387.37308114
  0
VERTEX
  8
0
 10
452.30606950
 20
387.31325106
  0
VERTEX
  8
0
 10
451.96558891
 20
387.26998603
  0
VERTEX
  8
0
 10
451.62008489
 20
387.24371354
  0
VERTEX
  8
0
 10
451.26998490
 20
387.23486105
  0
VERTEX
  8
0
 10
450.91988492
 20
387.24371354
  0
VERTEX
  8
0
 10
450.57438090
 20
387.26998603
  0
VERTEX
  8
0
 10
450.23390031
 20
387.31325106
  0
VERTEX
  8
0
 10
449.89887063
 20
387.37308114
  0
VERTEX
  8
0
 10
449.56971932
 20
387.44904883
  0
VERTEX
  8
0
 10
449.24687385
 20
387.54072664
  0
VERTEX
  8
0
 10
448.93076168
 20
387.64768711
  0
VERTEX
  8
0
 10
448.62181029
 20
387.76950278
  0
VERTEX
  8
0
 10
448.32044714
 20
387.90574618
  0
VERTEX
  8
0
 10
448.02709970
 20
388.05598983
  0
VERTEX
  8
0
 10
447.74219543
 20
388.21980627
  0
VERTEX
  8
0
 10
447.46616181
 20
388.39676804
  0
VERTEX
  8
0
 10
447.19942630
 20
388.58644766
  0
VERTEX
  8
0
 10
446.94241638
 20
388.78841767
  0
VERTEX
  8
0
 10
446.69555950
 20
389.00225059
  0
VERTEX
  8
0
 10
446.45928314
 20
389.22751897
  0
VERTEX
  8
0
 10
446.23401476
 20
389.46379533
  0
VERTEX
  8
0
 10
446.02018183
 20
389.71065221
  0
VERTEX
  8
0
 10
445.81821183
 20
389.96766214
  0
VERTEX
  8
0
 10
445.62853220
 20
390.23439764
  0
VERTEX
  8
0
 10
445.45157044
 20
390.51043126
  0
VERTEX
  8
0
 10
445.28775400
 20
390.79533553
  0
VERTEX
  8
0
 10
445.13751034
 20
391.08868297
  0
VERTEX
  8
0
 10
445.00126695
 20
391.39004612
  0
VERTEX
  8
0
 10
444.87945128
 20
391.69899751
  0
VERTEX
  8
0
 10
444.77249081
 20
392.01510968
  0
VERTEX
  8
0
 10
444.68081299
 20
392.33795515
  0
VERTEX
  8
0
 10
444.60484531
 20
392.66710646
  0
VERTEX
  8
0
 10
444.54501522
 20
393.00213615
  0
VERTEX
  8
0
 10
444.50175020
 20
393.34261673
  0
VERTEX
  8
0
 10
444.47547771
 20
393.68812075
  0
VERTEX
  8
0
 10
444.46662522
 20
394.03822074
  0
VERTEX
  8
0
 10
444.47547771
 20
394.38832072
  0
VERTEX
  8
0
 10
444.50175020
 20
394.73382474
  0
VERTEX
  8
0
 10
444.54501522
 20
395.07430533
  0
VERTEX
  8
0
 10
444.60484531
 20
395.40933501
  0
VERTEX
  8
0
 10
444.68081299
 20
395.73848632
  0
VERTEX
  8
0
 10
444.77249081
 20
396.06133179
  0
VERTEX
  8
0
 10
444.87945128
 20
396.37744396
  0
VERTEX
  8
0
 10
445.00126695
 20
396.68639535
  0
VERTEX
  8
0
 10
445.13751034
 20
396.98775851
  0
VERTEX
  8
0
 10
445.28775400
 20
397.28110595
  0
VERTEX
  8
0
 10
445.45157044
 20
397.56601021
  0
VERTEX
  8
0
 10
445.62853220
 20
397.84204383
  0
VERTEX
  8
0
 10
445.81821183
 20
398.10877934
  0
VERTEX
  8
0
 10
446.02018183
 20
398.36578926
  0
VERTEX
  8
0
 10
446.23401476
 20
398.61264614
  0
VERTEX
  8
0
 10
446.45928314
 20
398.84892250
  0
VERTEX
  8
0
 10
446.69555950
 20
399.07419088
  0
VERTEX
  8
0
 10
446.94241638
 20
399.28802381
  0
VERTEX
  8
0
 10
447.19942630
 20
399.48999382
  0
VERTEX
  8
0
 10
447.46616181
 20
399.67967344
  0
VERTEX
  8
0
 10
447.74219543
 20
399.85663520
  0
VERTEX
  8
0
 10
448.02709970
 20
400.02045165
  0
VERTEX
  8
0
 10
448.32044714
 20
400.17069530
  0
VERTEX
  8
0
 10
448.62181029
 20
400.30693869
  0
VERTEX
  8
0
 10
448.93076168
 20
400.42875436
  0
VERTEX
  8
0
 10
449.24687385
 20
400.53571484
  0
VERTEX
  8
0
 10
449.56971932
 20
400.62739265
  0
VERTEX
  8
0
 10
449.89887063
 20
400.70336033
  0
VERTEX
  8
0
 10
450.23390031
 20
400.76319042
  0
VERTEX
  8
0
 10
450.57438090
 20
400.80645544
  0
VERTEX
  8
0
 10
450.91988492
 20
400.83272793
  0
VERTEX
  8
0
 10
451.26998490
 20
400.84158042
  0
SEQEND
  0
POLYLINE
  8
По умолчанию
 66
   1
 39
0.000000
 70
    1
  0
VERTEX
  8
0
 10
361.04821071
 20
400.08565157
  0
VERTEX
  8
0
 10
361.39831070
 20
400.07679908
  0
VERTEX
  8
0
 10
361.74381472
 20
400.05052659
  0
VERTEX
  8
0
 10
362.08429530
 20
400.00726157
  0
VERTEX
  8
0
 10
362.41932498
 20
399.94743148
  0
VERTEX
  8
0
 10
362.74847630
 20
399.87146380
  0
VERTEX
  8
0
 10
363.07132177
 20
399.77978598
  0
VERTEX
  8
0
 10
363.38743394
 20
399.67282551
  0
VERTEX
  8
0
 10
363.69638533
 20
399.55100984
  0
VERTEX
  8
0
 10
363.99774848
 20
399.41476644
  0
VERTEX
  8
0
 10
364.29109592
 20
399.26452279
  0
VERTEX
  8
0
 10
364.57600019
 20
399.10070635
  0
VERTEX
  8
0
 10
364.85203381
 20
398.92374458
  0
VERTEX
  8
0
 10
365.11876931
 20
398.73406496
  0
VERTEX
  8
0
 10
365.37577924
 20
398.53209496
  0
VERTEX
  8
0
 10
365.62263612
 20
398.31826203
  0
VERTEX
  8
0
 10
365.85891248
 20
398.09299365
  0
VERTEX
  8
0
 10
366.08418086
 20
397.85671729
  0
VERTEX
  8
0
 10
366.29801378
 20
397.60986041
  0
VERTEX
  8
0
 10
366.49998379
 20
397.35285048
  0
VERTEX
  8
0
 10
366.68966341
 20
397.08611498
  0
VERTEX
  8
0
 10
366.86662518
 20
396.81008136
  0
VERTEX
  8
0
 10
367.03044162
 20
396.52517709
  0
VERTEX
  8
0
 10
367.18068527
 20
396.23182965
  0
VERTEX
  8
0
 10
367.31692867
 20
395.93046650
  0
VERTEX
  8
0
 10
367.43874433
 20
395.62151511
  0
VERTEX
  8
0
 10
367.54570481
 20
395.30540294
  0
VERTEX
  8
0
 10
367.63738262
 20
394.98255747
  0
VERTEX
  8
0
 10
367.71335031
 20
394.65340616
  0
VERTEX
  8
0
 10
367.77318039
 20
394.31837648
  0
VERTEX
  8
0
 10
367.81644542
 20
393.97789589
  0
VERTEX
  8
0
 10
367.84271791
 20
393.63239187
  0
VERTEX
  8
0
 10
367.85157040
 20
393.28229188
  0
VERTEX
  8
0
 10
367.84271791
 20
392.93219190
  0
VERTEX
  8
0
 10
367.81644542
 20
392.58668788
  0
VERTEX
  8
0
 10
367.77318039
 20
392.24620729
  0
VERTEX
  8
0
 10
367.71335031
 20
391.91117761
  0
VERTEX
  8
0
 10
367.63738262
 20
391.58202630
  0
VERTEX
  8
0
 10
367.54570481
 20
391.25918083
  0
VERTEX
  8
0
 10
367.43874433
 20
390.94306866
  0
VERTEX
  8
0
 10
367.31692867
 20
390.63411727
  0
VERTEX
  8
0
 10
367.18068527
 20
390.33275412
  0
VERTEX
  8
0
 10
367.03044162
 20
390.03940667
  0
VERTEX
  8
0
 10
366.86662518
 20
389.75450241
  0
VERTEX
  8
0
 10
366.68966341
 20
389.47846879
  0
VERTEX
  8
0
 10
366.49998379
 20
389.21173328
  0
VERTEX
  8
0
 10
366.29801378
 20
388.95472336
  0
VERTEX
  8
0
 10
366.08418086
 20
388.70786648
  0
VERTEX
  8
0
 10
365.85891248
 20
388.47159012
  0
VERTEX
  8
0
 10
365.62263612
 20
388.24632174
  0
VERTEX
  8
0
 10
365.37577924
 20
388.03248881
  0
VERTEX
  8
0
 10
365.11876931
 20
387.83051880
  0
VERTEX
  8
0
 10
364.85203381
 20
387.64083918
  0
VERTEX
  8
0
 10
364.57600019
 20
387.46387742
  0
VERTEX
  8
0
 10
364.29109592
 20
387.30006098
  0
VERTEX
  8
0
 10
363.99774848
 20
387.14981732
  0
VERTEX
  8
0
 10
363.69638533
 20
387.01357393
  0
VERTEX
  8
0
 10
363.38743394
 20
386.89175826
  0
VERTEX
  8
0
 10
363.07132177
 20
386.78479779
  0
VERTEX
  8
0
 10
362.74847630
 20
386.69311997
  0
VERTEX
  8
0
 10
362.41932498
 20
386.61715229
  0
VERTEX
  8
0
 10
362.08429530
 20
386.55732220
  0
VERTEX
  8
0
 10
361.74381472
 20
386.51405718
  0
VERTEX
  8
0
 10
361.39831070
 20
386.48778469
  0
VERTEX
  8
0
 10
361.04821071
 20
386.47893220
  0
VERTEX
  8
0
 10
360.69811072
 20
386.48778469
  0
VERTEX
  8
0
 10
360.35260670
 20
386.51405718
  0
VERTEX
  8
0
 10
360.01212612
 20
386.55732220
  0
VERTEX
  8
0
 10
359.67709644
 20
386.61715229
  0
VERTEX
  8
0
 10
359.34794513
 20
386.69311997
  0
VERTEX
  8
0
 10
359.02509965
 20
386.78479779
  0
VERTEX
  8
0
 10
358.70898749
 20
386.89175826
  0
VERTEX
  8
0
 10
358.40003609
 20
387.01357393
  0
VERTEX
  8
0
 10
358.09867294
 20
387.14981732
  0
VERTEX
  8
0
 10
357.80532550
 20
387.30006098
  0
VERTEX
  8
0
 10
357.52042124
 20
387.46387742
  0
VERTEX
  8
0
 10
357.24438762
 20
387.64083918
  0
VERTEX
  8
0
 10
356.97765211
 20
387.83051880
  0
VERTEX
  8
0
 10
356.72064218
 20
388.03248881
  0
VERTEX
  8
0
 10
356.47378531
 20
388.24632174
  0
VERTEX
  8
0
 10
356.23750894
 20
388.47159012
  0
VERTEX
  8
0
 10
356.01224057
 20
388.70786648
  0
VERTEX
  8
0
 10
355.79840764
 20
388.95472336
  0
VERTEX
  8
0
 10
355.59643763
 20
389.21173328
  0
VERTEX
  8
0
 10
355.40675801
 20
389.47846879
  0
VERTEX
  8
0
 10
355.22979625
 20
389.75450241
  0
VERTEX
  8
0
 10
355.06597980
 20
390.03940667
  0
VERTEX
  8
0
 10
354.91573615
 20
390.33275412
  0
VERTEX
  8
0
 10
354.77949276
 20
390.63411727
  0
VERTEX
  8
0
 10
354.65767709
 20
390.94306866
  0
VERTEX
  8
0
 10
354.55071661
 20
391.25918083
  0
VERTEX
  8
0
 10
354.45903880
 20
391.58202630
  0
VERTEX
  8
0
 10
354.38307112
 20
391.91117761
  0
VERTEX
  8
0
 10
354.32324103
 20
392.24620729
  0
VERTEX
  8
0
 10
354.27997601
 20
392.58668788
  0
VERTEX
  8
0
 10
354.25370352
 20
392.93219190
  0
VERTEX
  8
0
 10
354.24485103
 20
393.28229188
  0
VERTEX
  8
0
 10
354.25370352
 20
393.63239187
  0
VERTEX
  8
0
 10
354.27997601
 20
393.97789589
  0
VERTEX
  8
0
 10
354.32324103
 20
394.31837648
  0
VERTEX
  8
0
 10
354.38307112
 20
394.65340616
  0
VERTEX
  8
0
 10
354.45903880
 20
394.98255747
  0
VERTEX
  8
0
 10
354.55071661
 20
395.30540294
  0
VERTEX
  8
0
 10
354.65767709
 20
395.62151511
  0
VERTEX
  8
0
 10
354.77949276
 20
395.93046650
  0
VERTEX
  8
0
 10
354.91573615
 20
396.23182965
  0
VERTEX
  8
0
 10
355.06597980
 20
396.52517709
  0
VERTEX
  8
0
 10
355.22979625
 20
396.81008136
  0
VERTEX
  8
0
 10
355.40675801
 20
397.08611498
  0
VERTEX
  8
0
 10
355.59643763
 20
397.35285048
  0
VERTEX
  8
0
 10
355.79840764
 20
397.60986041
  0
VERTEX
  8
0
 10
356.01224057
 20
397.85671729
  0
VERTEX
  8
0
 10
356.23750894
 20
398.09299365
  0
VERTEX
  8
0
 10
356.47378531
 20
398.31826203
  0
VERTEX
  8
0
 10
356.72064218
 20
398.53209496
  0
VERTEX
  8
0
 10
356.97765211
 20
398.73406496
  0
VERTEX
  8
0
 10
357.24438762
 20
398.92374458
  0
VERTEX
  8
0
 10
357.52042124
 20
399.10070635
  0
VERTEX
  8
0
 10
357.80532550
 20
399.26452279
  0
VERTEX
  8
0
 10
358.09867294
 20
399.41476644
  0
VERTEX
  8
0
 10
358.40003609
 20
399.55100984
  0
VERTEX
  8
0
 10
358.70898749
 20
399.67282551
  0
VERTEX
  8
0
 10
359.02509965
 20
399.77978598
  0
VERTEX
  8
0
 10
359.34794513
 20
399.87146380
  0
VERTEX
  8
0
 10
359.67709644
 20
399.94743148
  0
VERTEX
  8
0
 10
360.01212612
 20
400.00726157
  0
VERTEX
  8
0
 10
360.35260670
 20
400.05052659
  0
VERTEX
  8
0
 10
360.69811072
 20
400.07679908
  0
VERTEX
  8
0
 10
361.04821071
 20
400.08565157
  0
SEQEND
  0
POLYLINE
  8
По умолчанию
 66
   1
 39
0.000000
 70
    1
  0
VERTEX
  8
0
 10
347.10849947
 20
408.41885311
  0
VERTEX
  8
0
 10
347.10849947
 20
413.78726049
  0
VERTEX
  8
0
 10
465.97442689
 20
413.78726049
  0
VERTEX
  8
0
 10
465.97442689
 20
408.56304243
  0
VERTEX
  8
0
 10
469.91075394
 20
408.56692767
  0
VERTEX
  8
0
 10
469.92062415
 20
398.56693254
  0
VERTEX
  8
0
 10
465.97442689
 20
398.56303756
  0
VERTEX
  8
0
 10
465.97442689
 20
388.56464089
  0
VERTEX
  8
0
 10
469.93083564
 20
388.56854595
  0
VERTEX
  8
0
 10
469.94070586
 20
378.56855082
  0
VERTEX
  8
0
 10
465.97442689
 20
378.56463602
  0
VERTEX
  8
0
 10
465.97442689
 20
373.78726049
  0
VERTEX
  8
0
 10
347.10849947
 20
373.78726049
  0
VERTEX
  8
0
 10
347.10849947
 20
378.42044670
  0
VERTEX
  8
0
 10
343.18627852
 20
378.41657538
  0
VERTEX
  8
0
 10
343.17640831
 20
388.41657051
  0
VERTEX
  8
0
 10
347.10849947
 20
388.42045157
  0
VERTEX
  8
0
 10
347.10849947
 20
398.41884824
  0
VERTEX
  8
0
 10
343.16619682
 20
398.41495710
  0
VERTEX
  8
0
 10
343.15632660
 20
408.41495223
  0
VERTEX
  8
0
 10
347.10849947
 20
408.41885311
  0
SEQEND
  0
POLYLINE
  8
По умолчанию
 66
   1
 39
0.000000
 70
    1
  0
VERTEX
  8
0
 10
237.98521185
 20
212.90642892
  0
VERTEX
  8
0
 10
237.98447692
 20
212.90642892
  0
VERTEX
  8
0
 10
237.98447692
 20
204.90642892
  0
VERTEX
  8
0
 10
257.96514639
 20
204.90642892
  0
VERTEX
  8
0
 10
257.96514639
 20
212.90457473
  0
VERTEX
  8
0
 10
335.63865676
 20
212.90457473
  0
VERTEX
  8
0
 10
335.63865676
 20
204.90605089
  0
VERTEX
  8
0
 10
342.46951281
 20
204.90605089
  0
VERTEX
  8
0
 10
355.63865676
 20
204.90605089
  0
VERTEX
  8
0
 10
355.63865676
 20
212.90605089
  0
VERTEX
  8
0
 10
355.63817628
 20
212.90605089
  0
VERTEX
  8
0
 10
355.63817628
 20
214.55003064
 42
0.27520941
  0
VERTEX
  8
0
 10
353.02016364
 20
218.94618079
  0
VERTEX
  8
0
 10
285.67804457
 20
255.43448786
 42
0.12477982
  0
VERTEX
  8
0
 10
276.15009511
 20
257.84988723
  0
VERTEX
  8
0
 10
272.80867845
 20
257.84988723
 42
0.26794919
  0
VERTEX
  8
0
 10
255.48817038
 20
247.84988723
  0
VERTEX
  8
0
 10
239.99483080
 20
221.01463590
 42
0.13165250
  0
VERTEX
  8
0
 10
237.98521185
 20
213.51463590
  0
VERTEX
  8
0
 10
237.98521185
 20
212.90642892
  0
SEQEND
  0
POLYLINE
  8
По умолчанию
 66
   1
 39
0.000000
 70
    0
  0
VERTEX
  8
0
 10
337.85156292
 20
212.90457473
  0
VERTEX
  8
0
 10
337.85071066
 20
212.90605089
  0
SEQEND
  0
POLYLINE
  8
По умолчанию
 66
   1
 39
0.000000
 70
    0
  0
VERTEX
  8
0
 10
342.46975399
 20
204.90563315
  0
VERTEX
  8
0
 10
342.46951281
 20
204.90605089
  0
SEQEND
  0
POLYLINE
  8
По умолчанию
 66
   1
 39
0.000000
 70
    1
  0
VERTEX
  8
0
 10
276.35335192
 20
245.65262246
  0
VERTEX
  8
0
 10
276.33786326
 20
245.95935504
  0
VERTEX
  8
0
 10
276.29240258
 20
246.25722710
  0
VERTEX
  8
0
 10
276.21847786
 20
246.54473069
  0
VERTEX
  8
0
 10
276.11759705
 20
246.82035785
  0
VERTEX
  8
0
 10
275.99126812
 20
247.08260060
  0
VERTEX
  8
0
 10
275.84099904
 20
247.32995099
  0
VERTEX
  8
0
 10
275.66829776
 20
247.56090105
  0
VERTEX
  8
0
 10
275.47467227
 20
247.77394281
  0
VERTEX
  8
0
 10
275.26163051
 20
247.96756831
  0
VERTEX
  8
0
 10
275.03068045
 20
248.14026958
  0
VERTEX
  8
0
 10
274.78333006
 20
248.29053866
  0
VERTEX
  8
0
 10
274.52108731
 20
248.41686759
  0
VERTEX
  8
0
 10
274.24546015
 20
248.51774840
  0
VERTEX
  8
0
 10
273.95795656
 20
248.59167313
  0
VERTEX
  8
0
 10
273.66008449
 20
248.63713380
  0
VERTEX
  8
0
 10
273.35335192
 20
248.65262246
  0
VERTEX
  8
0
 10
273.04661935
 20
248.63713380
  0
VERTEX
  8
0
 10
272.74874728
 20
248.59167313
  0
VERTEX
  8
0
 10
272.46124369
 20
248.51774840
  0
VERTEX
  8
0
 10
272.18561654
 20
248.41686759
  0
VERTEX
  8
0
 10
271.92337378
 20
248.29053866
  0
VERTEX
  8
0
 10
271.67602339
 20
248.14026958
  0
VERTEX
  8
0
 10
271.44507334
 20
247.96756831
  0
VERTEX
  8
0
 10
271.23203158
 20
247.77394281
  0
VERTEX
  8
0
 10
271.03840608
 20
247.56090105
  0
VERTEX
  8
0
 10
270.86570481
 20
247.32995099
  0
VERTEX
  8
0
 10
270.71543572
 20
247.08260060
  0
VERTEX
  8
0
 10
270.58910679
 20
246.82035785
  0
VERTEX
  8
0
 10
270.48822598
 20
246.54473069
  0
VERTEX
  8
0
 10
270.41430126
 20
246.25722710
  0
VERTEX
  8
0
 10
270.36884058
 20
245.95935504
  0
VERTEX
  8
0
 10
270.35335192
 20
245.65262246
  0
VERTEX
  8
0
 10
270.36884058
 20
245.34588989
  0
VERTEX
  8
0
 10
270.41430126
 20
245.04801783
  0
VERTEX
  8
0
 10
270.48822598
 20
244.76051423
  0
VERTEX
  8
0
 10
270.58910679
 20
244.48488708
  0
VERTEX
  8
0
 10
270.71543572
 20
244.22264432
  0
VERTEX
  8
0
 10
270.86570481
 20
243.97529394
  0
VERTEX
  8
0
 10
271.03840608
 20
243.74434388
  0
VERTEX
  8
0
 10
271.23203158
 20
243.53130212
  0
VERTEX
  8
0
 10
271.44507334
 20
243.33767662
  0
VERTEX
  8
0
 10
271.67602339
 20
243.16497535
  0
VERTEX
  8
0
 10
271.92337378
 20
243.01470626
  0
VERTEX
  8
0
 10
272.18561654
 20
242.88837734
  0
VERTEX
  8
0
 10
272.46124369
 20
242.78749653
  0
VERTEX
  8
0
 10
272.74874728
 20
242.71357180
  0
VERTEX
  8
0
 10
273.04661935
 20
242.66811113
  0
VERTEX
  8
0
 10
273.35335192
 20
242.65262246
  0
VERTEX
  8
0
 10
273.66008449
 20
242.66811113
  0
VERTEX
  8
0
 10
273.95795656
 20
242.71357180
  0
VERTEX
  8
0
 10
274.24546015
 20
242.78749653
  0
VERTEX
  8
0
 10
274.52108731
 20
242.88837734
  0
VERTEX
  8
0
 10
274.78333006
 20
243.01470626
  0
VERTEX
  8
0
 10
275.03068045
 20
243.16497535
  0
VERTEX
  8
0
 10
275.26163051
 20
243.33767662
  0
VERTEX
  8
0
 10
275.47467227
 20
243.53130212
  0
VERTEX
  8
0
 10
275.66829776
 20
243.74434388
  0
VERTEX
  8
0
 10
275.84099904
 20
243.97529394
  0
VERTEX
  8
0
 10
275.99126812
 20
244.22264432
  0
VERTEX
  8
0
 10
276.11759705
 20
244.48488708
  0
VERTEX
  8
0
 10
276.21847786
 20
244.76051423
  0
VERTEX
  8
0
 10
276.29240258
 20
245.04801783
  0
VERTEX
  8
0
 10
276.33786326
 20
245.34588989
  0
VERTEX
  8
0
 10
276.35335192
 20
245.65262246
  0
SEQEND
  0
POLYLINE
  8
По умолчанию
 66
   1
 39
0.000000
 70
    1
  0
VERTEX
  8
0
 10
277.55912167
 20
229.21303116
  0
VERTEX
  8
0
 10
274.86333652
 20
232.16815256
  0
VERTEX
  8
0
 10
267.47553304
 20
225.42868969
  0
VERTEX
  8
0
 10
270.17131819
 20
222.47356830
  0
VERTEX
  8
0
 10
277.55912167
 20
229.21303116
  0
SEQEND
  0
POLYLINE
  8
По умолчанию
 66
   1
 39
0.000000
 70
    1
  0
VERTEX
  8
0
 10
292.33377159
 20
242.69061976
  0
VERTEX
  8
0
 10
289.63798645
 20
245.64574115
  0
VERTEX
  8
0
 10
282.25018297
 20
238.90627828
  0
VERTEX
  8
0
 10
284.94596811
 20
235.95115689
  0
VERTEX
  8
0
 10
292.33377159
 20
242.69061976
  0
SEQEND
  0
POLYLINE
  8
По умолчанию
 66
   1
 39
0.000000
 70
    1
  0
VERTEX
  8
0
 10
310.96842307
 20
227.88566279
  0
VERTEX
  8
0
 10
310.95931471
 20
228.24588186
  0
VERTEX
  8
0
 10
310.93228286
 20
228.60137212
  0
VERTEX
  8
0
 10
310.88776733
 20
228.95169376
  0
VERTEX
  8
0
 10
310.82620795
 20
229.29640694
  0
VERTEX
  8
0
 10
310.74804454
 20
229.63507185
  0
VERTEX
  8
0
 10
310.65371692
 20
229.96724866
  0
VERTEX
  8
0
 10
310.54366493
 20
230.29249755
  0
VERTEX
  8
0
 10
310.41832837
 20
230.61037869
  0
VERTEX
  8
0
 10
310.27814708
 20
230.92045226
  0
VERTEX
  8
0
 10
310.12356087
 20
231.22227845
  0
VERTEX
  8
0
 10
309.95500957
 20
231.51541742
  0
VERTEX
  8
0
 10
309.77293301
 20
231.79942935
  0
VERTEX
  8
0
 10
309.57777100
 20
232.07387442
  0
VERTEX
  8
0
 10
309.36996337
 20
232.33831282
  0
VERTEX
  8
0
 10
309.14994994
 20
232.59230470
  0
VERTEX
  8
0
 10
308.91817054
 20
232.83541025
  0
VERTEX
  8
0
 10
308.67506498
 20
233.06718966
  0
VERTEX
  8
0
 10
308.42107310
 20
233.28720309
  0
VERTEX
  8
0
 10
308.15663471
 20
233.49501072
  0
VERTEX
  8
0
 10
307.88218963
 20
233.69017273
  0
VERTEX
  8
0
 10
307.59817770
 20
233.87224929
  0
VERTEX
  8
0
 10
307.30503873
 20
234.04080059
  0
VERTEX
  8
0
 10
307.00321255
 20
234.19538679
  0
VERTEX
  8
0
 10
306.69313897
 20
234.33556809
  0
VERTEX
  8
0
 10
306.37525783
 20
234.46090464
  0
VERTEX
  8
0
 10
306.05000894
 20
234.57095664
  0
VERTEX
  8
0
 10
305.71783213
 20
234.66528426
  0
VERTEX
  8
0
 10
305.37916722
 20
234.74344767
  0
VERTEX
  8
0
 10
305.03445404
 20
234.80500705
  0
VERTEX
  8
0
 10
304.68413240
 20
234.84952258
  0
VERTEX
  8
0
 10
304.32864214
 20
234.87655443
  0
VERTEX
  8
0
 10
303.96842307
 20
234.88566279
  0
VERTEX
  8
0
 10
303.60820400
 20
234.87655443
  0
VERTEX
  8
0
 10
303.25271373
 20
234.84952258
  0
VERTEX
  8
0
 10
302.90239210
 20
234.80500705
  0
VERTEX
  8
0
 10
302.55767891
 20
234.74344767
  0
VERTEX
  8
0
 10
302.21901401
 20
234.66528426
  0
VERTEX
  8
0
 10
301.88683720
 20
234.57095664
  0
VERTEX
  8
0
 10
301.56158831
 20
234.46090464
  0
VERTEX
  8
0
 10
301.24370717
 20
234.33556809
  0
VERTEX
  8
0
 10
300.93363359
 20
234.19538679
  0
VERTEX
  8
0
 10
300.63180741
 20
234.04080059
  0
VERTEX
  8
0
 10
300.33866844
 20
233.87224929
  0
VERTEX
  8
0
 10
300.05465650
 20
233.69017273
  0
VERTEX
  8
0
 10
299.78021143
 20
233.49501072
  0
VERTEX
  8
0
 10
299.51577304
 20
233.28720309
  0
VERTEX
  8
0
 10
299.26178116
 20
233.06718966
  0
VERTEX
  8
0
 10
299.01867560
 20
232.83541025
  0
VERTEX
  8
0
 10
298.78689620
 20
232.59230470
  0
VERTEX
  8
0
 10
298.56688277
 20
232.33831282
  0
VERTEX
  8
0
 10
298.35907514
 20
232.07387442
  0
VERTEX
  8
0
 10
298.16391313
 20
231.79942935
  0
VERTEX
  8
0
 10
297.98183657
 20
231.51541742
  0
VERTEX
  8
0
 10
297.81328527
 20
231.22227845
  0
VERTEX
  8
0
 10
297.65869906
 20
230.92045226
  0
VERTEX
  8
0
 10
297.51851777
 20
230.61037869
  0
VERTEX
  8
0
 10
297.39318121
 20
230.29249755
  0
VERTEX
  8
0
 10
297.28312921
 20
229.96724866
  0
VERTEX
  8
0
 10
297.18880160
 20
229.63507185
  0
VERTEX
  8
0
 10
297.11063819
 20
229.29640694
  0
VERTEX
  8
0
 10
297.04907881
 20
228.95169376
  0
VERTEX
  8
0
 10
297.00456328
 20
228.60137212
  0
VERTEX
  8
0
 10
296.97753142
 20
228.24588186
  0
VERTEX
  8
0
 10
296.96842307
 20
227.88566279
  0
VERTEX
  8
0
 10
296.97753142
 20
227.52544372
  0
VERTEX
  8
0
 10
297.00456328
 20
227.16995345
  0
VERTEX
  8
0
 10
297.04907881
 20
226.81963181
  0
VERTEX
  8
0
 10
297.11063819
 20
226.47491863
  0
VERTEX
  8
0
 10
297.18880160
 20
226.13625372
  0
VERTEX
  8
0
 10
297.28312921
 20
225.80407691
  0
VERTEX
  8
0
 10
297.39318121
 20
225.47882803
  0
VERTEX
  8
0
 10
297.51851777
 20
225.16094688
  0
VERTEX
  8
0
 10
297.65869906
 20
224.85087331
  0
VERTEX
  8
0
 10
297.81328527
 20
224.54904713
  0
VERTEX
  8
0
 10
297.98183657
 20
224.25590816
  0
VERTEX
  8
0
 10
298.16391313
 20
223.97189622
  0
VERTEX
  8
0
 10
298.35907514
 20
223.69745115
  0
VERTEX
  8
0
 10
298.56688277
 20
223.43301276
  0
VERTEX
  8
0
 10
298.78689620
 20
223.17902087
  0
VERTEX
  8
0
 10
299.01867560
 20
222.93591532
  0
VERTEX
  8
0
 10
299.26178116
 20
222.70413592
  0
VERTEX
  8
0
 10
299.51577304
 20
222.48412249
  0
VERTEX
  8
0
 10
299.78021143
 20
222.27631486
  0
VERTEX
  8
0
 10
300.05465650
 20
222.08115285
  0
VERTEX
  8
0
 10
300.33866844
 20
221.89907628
  0
VERTEX
  8
0
 10
300.63180741
 20
221.73052499
  0
VERTEX
  8
0
 10
300.93363359
 20
221.57593878
  0
VERTEX
  8
0
 10
301.24370717
 20
221.43575749
  0
VERTEX
  8
0
 10
301.56158831
 20
221.31042093
  0
VERTEX
  8
0
 10
301.88683720
 20
221.20036893
  0
VERTEX
  8
0
 10
302.21901401
 20
221.10604132
  0
VERTEX
  8
0
 10
302.55767891
 20
221.02787791
  0
VERTEX
  8
0
 10
302.90239210
 20
220.96631853
  0
VERTEX
  8
0
 10
303.25271373
 20
220.92180300
  0
VERTEX
  8
0
 10
303.60820400
 20
220.89477114
  0
VERTEX
  8
0
 10
303.96842307
 20
220.88566279
  0
VERTEX
  8
0
 10
304.32864214
 20
220.89477114
  0
VERTEX
  8
0
 10
304.68413240
 20
220.92180300
  0
VERTEX
  8
0
 10
305.03445404
 20
220.96631853
  0
VERTEX
  8
0
 10
305.37916722
 20
221.02787791
  0
VERTEX
  8
0
 10
305.71783213
 20
221.10604132
  0
VERTEX
  8
0
 10
306.05000894
 20
221.20036893
  0
VERTEX
  8
0
 10
306.37525783
 20
221.31042093
  0
VERTEX
  8
0
 10
306.69313897
 20
221.43575749
  0
VERTEX
  8
0
 10
307.00321255
 20
221.57593878
  0
VERTEX
  8
0
 10
307.30503873
 20
221.73052499
  0
VERTEX
  8
0
 10
307.59817770
 20
221.89907628
  0
VERTEX
  8
0
 10
307.88218963
 20
222.08115285
  0
VERTEX
  8
0
 10
308.15663471
 20
222.27631486
  0
VERTEX
  8
0
 10
308.42107310
 20
222.48412249
  0
VERTEX
  8
0
 10
308.67506498
 20
222.70413592
  0
VERTEX
  8
0
 10
308.91817054
 20
222.93591532
  0
VERTEX
  8
0
 10
309.14994994
 20
223.17902087
  0
VERTEX
  8
0
 10
309.36996337
 20
223.43301276
  0
VERTEX
  8
0
 10
309.57777100
 20
223.69745115
  0
VERTEX
  8
0
 10
309.77293301
 20
223.97189622
  0
VERTEX
  8
0
 10
309.95500957
 20
224.25590816
  0
VERTEX
  8
0
 10
310.12356087
 20
224.54904713
  0
VERTEX
  8
0
 10
310.27814708
 20
224.85087331
  0
VERTEX
  8
0
 10
310.41832837
 20
225.16094688
  0
VERTEX
  8
0
 10
310.54366493
 20
225.47882803
  0
VERTEX
  8
0
 10
310.65371692
 20
225.80407691
  0
VERTEX
  8
0
 10
310.74804454
 20
226.13625372
  0
VERTEX
  8
0
 10
310.82620795
 20
226.47491863
  0
VERTEX
  8
0
 10
310.88776733
 20
226.81963181
  0
VERTEX
  8
0
 10
310.93228286
 20
227.16995345
  0
VERTEX
  8
0
 10
310.95931471
 20
227.52544372
  0
VERTEX
  8
0
 10
310.96842307
 20
227.88566279
  0
SEQEND
  0
POLYLINE
  8
По умолчанию
 66
   1
 39
0.000000
 70
    1
  0
VERTEX
  8
0
 10
378.25569823
 20
324.72420434
  0
VERTEX
  8
0
 10
378.46220964
 20
324.65553176
  0
VERTEX
  8
0
 10
378.67218944
 20
324.60228163
  0
VERTEX
  8
0
 10
378.88474713
 20
324.56443292
  0
VERTEX
  8
0
 10
379.09899219
 20
324.54196455
  0
VERTEX
  8
0
 10
379.31403411
 20
324.53485548
  0
VERTEX
  8
0
 10
379.52898238
 20
324.54308465
  0
VERTEX
  8
0
 10
379.74294649
 20
324.56663100
  0
VERTEX
  8
0
 10
379.95503592
 20
324.60547348
  0
VERTEX
  8
0
 10
380.16436017
 20
324.65959103
  0
VERTEX
  8
0
 10
380.37002873
 20
324.72896259
  0
VERTEX
  8
0
 10
380.57115108
 20
324.81356712
  0
VERTEX
  8
0
 10
380.76683670
 20
324.91338355
  0
VERTEX
  8
0
 10
380.95619510
 20
325.02839083
  0
VERTEX
  8
0
 10
381.13833575
 20
325.15856790
  0
VERTEX
  8
0
 10
381.31236816
 20
325.30389370
  0
VERTEX
  8
0
 10
381.47740179
 20
325.46434719
  0
VERTEX
  8
0
 10
381.67789078
 20
325.69700345
  0
VERTEX
  8
0
 10
381.85057532
 20
325.94393358
  0
VERTEX
  8
0
 10
381.99550591
 20
326.20300559
  0
VERTEX
  8
0
 10
382.11273302
 20
326.47208749
  0
VERTEX
  8
0
 10
382.20230716
 20
326.74904730
  0
VERTEX
  8
0
 10
382.26427879
 20
327.03175303
  0
VERTEX
  8
0
 10
382.29869841
 20
327.31807269
  0
VERTEX
  8
0
 10
382.30561649
 20
327.60587429
  0
VERTEX
  8
0
 10
382.28508354
 20
327.89302586
  0
VERTEX
  8
0
 10
382.23715002
 20
328.17739540
  0
VERTEX
  8
0
 10
382.16186644
 20
328.45685093
  0
VERTEX
  8
0
 10
382.05928326
 20
328.72926046
  0
VERTEX
  8
0
 10
381.92945098
 20
328.99249201
  0
VERTEX
  8
0
 10
381.77242009
 20
329.24441358
  0
VERTEX
  8
0
 10
381.58824106
 20
329.48289320
  0
VERTEX
  8
0
 10
381.37696439
 20
329.70579887
  0
VERTEX
  8
0
 10
381.19014772
 20
329.86995248
  0
VERTEX
  8
0
 10
380.99372507
 20
330.01594862
  0
VERTEX
  8
0
 10
380.78880125
 20
330.14381528
  0
VERTEX
  8
0
 10
380.57648105
 20
330.25358046
  0
VERTEX
  8
0
 10
380.35786929
 20
330.34527215
  0
VERTEX
  8
0
 10
380.13407076
 20
330.41891836
  0
VERTEX
  8
0
 10
379.90619028
 20
330.47454709
  0
VERTEX
  8
0
 10
379.67533266
 20
330.51218633
 42
0.01975666
  0
VERTEX
  8
0
 10
370.76969860
 20
332.06047077
 42
0.02761687
  0
VERTEX
  8
0
 10
358.17674057
 20
333.03719395
  0
VERTEX
  8
0
 10
357.84859998
 20
333.04672742
  0
VERTEX
  8
0
 10
357.52138540
 20
333.02056696
  0
VERTEX
  8
0
 10
357.19825178
 20
332.95879022
  0
VERTEX
  8
0
 10
356.88235407
 20
332.86147482
  0
VERTEX
  8
0
 10
356.57684721
 20
332.72869839
  0
VERTEX
  8
0
 10
356.28488613
 20
332.56053858
  0
VERTEX
  8
0
 10
356.00962580
 20
332.35707300
  0
VERTEX
  8
0
 10
355.75422115
 20
332.11837931
  0
VERTEX
  8
0
 10
355.55373217
 20
331.88572304
  0
VERTEX
  8
0
 10
355.38104762
 20
331.63879291
  0
VERTEX
  8
0
 10
355.23611703
 20
331.37972090
  0
VERTEX
  8
0
 10
355.11888992
 20
331.11063900
  0
VERTEX
  8
0
 10
355.02931579
 20
330.83367920
  0
VERTEX
  8
0
 10
354.96734415
 20
330.55097347
  0
VERTEX
  8
0
 10
354.93292454
 20
330.26465381
  0
VERTEX
  8
0
 10
354.92600645
 20
329.97685220
  0
VERTEX
  8
0
 10
354.94653940
 20
329.68970063
  0
VERTEX
  8
0
 10
354.99447292
 20
329.40533109
  0
VERTEX
  8
0
 10
355.06975651
 20
329.12587556
  0
VERTEX
  8
0
 10
355.17233968
 20
328.85346603
  0
VERTEX
  8
0
 10
355.30217196
 20
328.59023448
  0
VERTEX
  8
0
 10
355.45920285
 20
328.33831291
  0
VERTEX
  8
0
 10
355.64338188
 20
328.09983330
  0
VERTEX
  8
0
 10
355.85465855
 20
327.87692763
  0
VERTEX
  8
0
 10
356.12931290
 20
327.64439498
  0
VERTEX
  8
0
 10
356.42311745
 20
327.45017308
  0
VERTEX
  8
0
 10
356.73261062
 20
327.29418091
  0
VERTEX
  8
0
 10
357.05433083
 20
327.17633743
  0
VERTEX
  8
0
 10
357.38481650
 20
327.09656162
  0
VERTEX
  8
0
 10
357.72060604
 20
327.05477246
  0
VERTEX
  8
0
 10
358.05823786
 20
327.05088891
  0
VERTEX
  8
0
 10
358.39425039
 20
327.08482995
 42
-0.05120755
  0
VERTEX
  8
0
 10
370.42885063
 20
326.47958001
 42
-0.03403791
  0
VERTEX
  8
0
 10
378.25569823
 20
324.72420434
  0
SEQEND
  0
POLYLINE
  8
По умолчанию
 66
   1
 39
0.000000
 70
    1
  0
VERTEX
  8
0
 10
452.79808727
 20
290.99042822
  0
VERTEX
  8
0
 10
452.48932807
 20
290.98262105
  0
VERTEX
  8
0
 10
452.18462213
 20
290.95945089
  0
VERTEX
  8
0
 10
451.88434644
 20
290.92129472
  0
VERTEX
  8
0
 10
451.58887800
 20
290.86852954
  0
VERTEX
  8
0
 10
451.01387081
 20
290.72068009
  0
VERTEX
  8
0
 10
450.46261650
 20
290.51891847
  0
VERTEX
  8
0
 10
449.93813099
 20
290.26626062
  0
VERTEX
  8
0
 10
449.44343022
 20
289.96572245
  0
VERTEX
  8
0
 10
448.98153011
 20
289.62031990
  0
VERTEX
  8
0
 10
448.55544659
 20
289.23306890
  0
VERTEX
  8
0
 10
448.16819559
 20
288.80698538
  0
VERTEX
  8
0
 10
447.82279304
 20
288.34508527
  0
VERTEX
  8
0
 10
447.52225487
 20
287.85038450
  0
VERTEX
  8
0
 10
447.26959702
 20
287.32589899
  0
VERTEX
  8
0
 10
447.06783540
 20
286.77464468
  0
VERTEX
  8
0
 10
446.91998595
 20
286.19963749
  0
VERTEX
  8
0
 10
446.86722077
 20
285.90416905
  0
VERTEX
  8
0
 10
446.82906460
 20
285.60389336
  0
VERTEX
  8
0
 10
446.80589444
 20
285.29918742
  0
VERTEX
  8
0
 10
446.79808727
 20
284.99042822
  0
VERTEX
  8
0
 10
446.80589444
 20
284.68166901
  0
VERTEX
  8
0
 10
446.82906460
 20
284.37696307
  0
VERTEX
  8
0
 10
446.86722077
 20
284.07668738
  0
VERTEX
  8
0
 10
446.91998595
 20
283.78121894
  0
VERTEX
  8
0
 10
447.06783540
 20
283.20621175
  0
VERTEX
  8
0
 10
447.26959702
 20
282.65495744
  0
VERTEX
  8
0
 10
447.52225487
 20
282.13047194
  0
VERTEX
  8
0
 10
447.82279304
 20
281.63577116
  0
VERTEX
  8
0
 10
448.16819559
 20
281.17387105
  0
VERTEX
  8
0
 10
448.55544659
 20
280.74778753
  0
VERTEX
  8
0
 10
448.98153011
 20
280.36053653
  0
VERTEX
  8
0
 10
449.44343022
 20
280.01513398
  0
VERTEX
  8
0
 10
449.93813099
 20
279.71459582
  0
VERTEX
  8
0
 10
450.46261650
 20
279.46193796
  0
VERTEX
  8
0
 10
451.01387081
 20
279.26017634
  0
VERTEX
  8
0
 10
451.58887800
 20
279.11232689
  0
VERTEX
  8
0
 10
451.88434644
 20
279.05956171
  0
VERTEX
  8
0
 10
452.18462213
 20
279.02140554
  0
VERTEX
  8
0
 10
452.48932807
 20
278.99823538
  0
VERTEX
  8
0
 10
452.79808727
 20
278.99042822
  0
VERTEX
  8
0
 10
453.10684648
 20
278.99823538
  0
VERTEX
  8
0
 10
453.41155242
 20
279.02140554
  0
VERTEX
  8
0
 10
453.71182811
 20
279.05956171
  0
VERTEX
  8
0
 10
454.00729655
 20
279.11232689
  0
VERTEX
  8
0
 10
454.58230374
 20
279.26017634
  0
VERTEX
  8
0
 10
455.13355805
 20
279.46193796
  0
VERTEX
  8
0
 10
455.65804356
 20
279.71459582
  0
VERTEX
  8
0
 10
456.15274433
 20
280.01513398
  0
VERTEX
  8
0
 10
456.61464444
 20
280.36053653
  0
VERTEX
  8
0
 10
457.04072796
 20
280.74778753
  0
VERTEX
  8
0
 10
457.42797896
 20
281.17387105
  0
VERTEX
  8
0
 10
457.77338151
 20
281.63577116
  0
VERTEX
  8
0
 10
458.07391968
 20
282.13047194
  0
VERTEX
  8
0
 10
458.32657753
 20
282.65495744
  0
VERTEX
  8
0
 10
458.52833915
 20
283.20621175
  0
VERTEX
  8
0
 10
458.67618860
 20
283.78121894
  0
VERTEX
  8
0
 10
458.72895378
 20
284.07668738
  0
VERTEX
  8
0
 10
458.76710995
 20
284.37696307
  0
VERTEX
  8
0
 10
458.79028011
 20
284.68166901
  0
VERTEX
  8
0
 10
458.79808727
 20
284.99042822
  0
VERTEX
  8
0
 10
458.79028011
 20
285.29918742
  0
VERTEX
  8
0
 10
458.76710995
 20
285.60389336
  0
VERTEX
  8
0
 10
458.72895378
 20
285.90416905
  0
VERTEX
  8
0
 10
458.67618860
 20
286.19963749
  0
VERTEX
  8
0
 10
458.52833915
 20
286.77464468
  0
VERTEX
  8
0
 10
458.32657753
 20
287.32589899
  0
VERTEX
  8
0
 10
458.07391968
 20
287.85038450
  0
VERTEX
  8
0
 10
457.77338151
 20
288.34508527
  0
VERTEX
  8
0
 10
457.42797896
 20
288.80698538
  0
VERTEX
  8
0
 10
457.04072796
 20
289.23306890
  0
VERTEX
  8
0
 10
456.61464444
 20
289.62031990
  0
VERTEX
  8
0
 10
456.15274433
 20
289.96572245
  0
VERTEX
  8
0
 10
455.65804356
 20
290.26626062
  0
VERTEX
  8
0
 10
455.13355805
 20
290.51891847
  0
VERTEX
  8
0
 10
454.58230374
 20
290.72068009
  0
VERTEX
  8
0
 10
454.00729655
 20
290.86852954
  0
VERTEX
  8
0
 10
453.71182811
 20
290.92129472
  0
VERTEX
  8
0
 10
453.41155242
 20
290.95945089
  0
VERTEX
  8
0
 10
453.10684648
 20
290.98262105
  0
VERTEX
  8
0
 10
452.79808727
 20
290.99042822
  0
SEQEND
  0
POLYLINE
  8
По умолчанию
 66
   1
 39
0.000000
 70
    1
  0
VERTEX
  8
0
 10
464.89486147
 20
268.06058632
  0
VERTEX
  8
0
 10
464.58610226
 20
268.05277916
  0
VERTEX
  8
0
 10
464.28139632
 20
268.02960900
  0
VERTEX
  8
0
 10
463.98112064
 20
267.99145283
  0
VERTEX
  8
0
 10
463.68565219
 20
267.93868764
  0
VERTEX
  8
0
 10
463.11064501
 20
267.79083819
  0
VERTEX
  8
0
 10
462.55939070
 20
267.58907658
  0
VERTEX
  8
0
 10
462.03490519
 20
267.33641872
  0
VERTEX
  8
0
 10
461.54020441
 20
267.03588055
  0
VERTEX
  8
0
 10
461.07830430
 20
266.69047800
  0
VERTEX
  8
0
 10
460.65222078
 20
266.30322701
  0
VERTEX
  8
0
 10
460.26496978
 20
265.87714349
  0
VERTEX
  8
0
 10
459.91956724
 20
265.41524337
  0
VERTEX
  8
0
 10
459.61902907
 20
264.92054260
  0
VERTEX
  8
0
 10
459.36637121
 20
264.39605709
  0
VERTEX
  8
0
 10
459.16460959
 20
263.84480278
  0
VERTEX
  8
0
 10
459.01676014
 20
263.26979560
  0
VERTEX
  8
0
 10
458.96399496
 20
262.97432715
  0
VERTEX
  8
0
 10
458.92583879
 20
262.67405146
  0
VERTEX
  8
0
 10
458.90266863
 20
262.36934552
  0
VERTEX
  8
0
 10
458.89486147
 20
262.06058632
  0
VERTEX
  8
0
 10
458.90266863
 20
261.75182711
  0
VERTEX
  8
0
 10
458.92583879
 20
261.44712117
  0
VERTEX
  8
0
 10
458.96399496
 20
261.14684549
  0
VERTEX
  8
0
 10
459.01676014
 20
260.85137704
  0
VERTEX
  8
0
 10
459.16460959
 20
260.27636986
  0
VERTEX
  8
0
 10
459.36637121
 20
259.72511555
  0
VERTEX
  8
0
 10
459.61902907
 20
259.20063004
  0
VERTEX
  8
0
 10
459.91956724
 20
258.70592926
  0
VERTEX
  8
0
 10
460.26496978
 20
258.24402915
  0
VERTEX
  8
0
 10
460.65222078
 20
257.81794563
  0
VERTEX
  8
0
 10
461.07830430
 20
257.43069463
  0
VERTEX
  8
0
 10
461.54020441
 20
257.08529209
  0
VERTEX
  8
0
 10
462.03490519
 20
256.78475392
  0
VERTEX
  8
0
 10
462.55939070
 20
256.53209606
  0
VERTEX
  8
0
 10
463.11064501
 20
256.33033444
  0
VERTEX
  8
0
 10
463.68565219
 20
256.18248499
  0
VERTEX
  8
0
 10
463.98112064
 20
256.12971981
  0
VERTEX
  8
0
 10
464.28139632
 20
256.09156364
  0
VERTEX
  8
0
 10
464.58610226
 20
256.06839348
  0
VERTEX
  8
0
 10
464.89486147
 20
256.06058632
  0
VERTEX
  8
0
 10
465.20362067
 20
256.06839348
  0
VERTEX
  8
0
 10
465.50832661
 20
256.09156364
  0
VERTEX
  8
0
 10
465.80860230
 20
256.12971981
  0
VERTEX
  8
0
 10
466.10407074
 20
256.18248499
  0
VERTEX
  8
0
 10
466.67907793
 20
256.33033444
  0
VERTEX
  8
0
 10
467.23033224
 20
256.53209606
  0
VERTEX
  8
0
 10
467.75481775
 20
256.78475392
  0
VERTEX
  8
0
 10
468.24951852
 20
257.08529209
  0
VERTEX
  8
0
 10
468.71141864
 20
257.43069463
  0
VERTEX
  8
0
 10
469.13750216
 20
257.81794563
  0
VERTEX
  8
0
 10
469.52475315
 20
258.24402915
  0
VERTEX
  8
0
 10
469.87015570
 20
258.70592926
  0
VERTEX
  8
0
 10
470.17069387
 20
259.20063004
  0
VERTEX
  8
0
 10
470.42335173
 20
259.72511555
  0
VERTEX
  8
0
 10
470.62511334
 20
260.27636986
  0
VERTEX
  8
0
 10
470.77296279
 20
260.85137704
  0
VERTEX
  8
0
 10
470.82572798
 20
261.14684549
  0
VERTEX
  8
0
 10
470.86388414
 20
261.44712117
  0
VERTEX
  8
0
 10
470.88705431
 20
261.75182711
  0
VERTEX
  8
0
 10
470.89486147
 20
262.06058632
  0
VERTEX
  8
0
 10
470.88705431
 20
262.36934552
  0
VERTEX
  8
0
 10
470.86388414
 20
262.67405146
  0
VERTEX
  8
0
 10
470.82572798
 20
262.97432715
  0
VERTEX
  8
0
 10
470.77296279
 20
263.26979560
  0
VERTEX
  8
0
 10
470.62511334
 20
263.84480278
  0
VERTEX
  8
0
 10
470.42335173
 20
264.39605709
  0
VERTEX
  8
0
 10
470.17069387
 20
264.92054260
  0
VERTEX
  8
0
 10
469.87015570
 20
265.41524337
  0
VERTEX
  8
0
 10
469.52475315
 20
265.87714349
  0
VERTEX
  8
0
 10
469.13750216
 20
266.30322701
  0
VERTEX
  8
0
 10
468.71141864
 20
266.69047800
  0
VERTEX
  8
0
 10
468.24951852
 20
267.03588055
  0
VERTEX
  8
0
 10
467.75481775
 20
267.33641872
  0
VERTEX
  8
0
 10
467.23033224
 20
267.58907658
  0
VERTEX
  8
0
 10
466.67907793
 20
267.79083819
  0
VERTEX
  8
0
 10
466.10407074
 20
267.93868764
  0
VERTEX
  8
0
 10
465.80860230
 20
267.99145283
  0
VERTEX
  8
0
 10
465.50832661
 20
268.02960900
  0
VERTEX
  8
0
 10
465.20362067
 20
268.05277916
  0
VERTEX
  8
0
 10
464.89486147
 20
268.06058632
  0
SEQEND
  0
POLYLINE
  8
По умолчанию
 66
   1
 39
0.000000
 70
    1
  0
VERTEX
  8
0
 10
471.49556174
 20
242.64667229
  0
VERTEX
  8
0
 10
470.93321869
 20
242.61827641
  0
VERTEX
  8
0
 10
470.38711990
 20
242.53493184
  0
VERTEX
  8
0
 10
469.86002998
 20
242.39940317
  0
VERTEX
  8
0
 10
469.35471353
 20
242.21445502
  0
VERTEX
  8
0
 10
468.87393515
 20
241.98285199
  0
VERTEX
  8
0
 10
468.42045944
 20
241.70735867
  0
VERTEX
  8
0
 10
467.99705100
 20
241.39073967
  0
VERTEX
  8
0
 10
467.60647444
 20
241.03575958
  0
VERTEX
  8
0
 10
467.25149436
 20
240.64518302
  0
VERTEX
  8
0
 10
466.93487536
 20
240.22177459
  0
VERTEX
  8
0
 10
466.65938204
 20
239.76829888
  0
VERTEX
  8
0
 10
466.42777900
 20
239.28752050
  0
VERTEX
  8
0
 10
466.24283085
 20
238.78220404
  0
VERTEX
  8
0
 10
466.10730219
 20
238.25511412
  0
VERTEX
  8
0
 10
466.02395762
 20
237.70901534
  0
VERTEX
  8
0
 10
465.99556174
 20
237.14667229
  0
VERTEX
  8
0
 10
466.02395762
 20
236.58432924
  0
VERTEX
  8
0
 10
466.10730219
 20
236.03823045
  0
VERTEX
  8
0
 10
466.24283085
 20
235.51114053
  0
VERTEX
  8
0
 10
466.42777900
 20
235.00582408
  0
VERTEX
  8
0
 10
466.65938204
 20
234.52504570
  0
VERTEX
  8
0
 10
466.93487536
 20
234.07156999
  0
VERTEX
  8
0
 10
467.25149436
 20
233.64816155
  0
VERTEX
  8
0
 10
467.60647444
 20
233.25758499
  0
VERTEX
  8
0
 10
467.99705100
 20
232.90260491
  0
VERTEX
  8
0
 10
468.42045944
 20
232.58598591
  0
VERTEX
  8
0
 10
468.87393515
 20
232.31049259
  0
VERTEX
  8
0
 10
469.35471353
 20
232.07888955
  0
VERTEX
  8
0
 10
469.86002998
 20
231.89394140
  0
VERTEX
  8
0
 10
470.38711990
 20
231.75841274
  0
VERTEX
  8
0
 10
470.93321869
 20
231.67506817
  0
VERTEX
  8
0
 10
471.49556174
 20
231.64667229
  0
VERTEX
  8
0
 10
472.05790479
 20
231.67506817
  0
VERTEX
  8
0
 10
472.60400357
 20
231.75841274
  0
VERTEX
  8
0
 10
473.13109349
 20
231.89394140
  0
VERTEX
  8
0
 10
473.63640995
 20
232.07888955
  0
VERTEX
  8
0
 10
474.11718833
 20
232.31049259
  0
VERTEX
  8
0
 10
474.57066404
 20
232.58598591
  0
VERTEX
  8
0
 10
474.99407247
 20
232.90260491
  0
VERTEX
  8
0
 10
475.38464903
 20
233.25758499
  0
VERTEX
  8
0
 10
475.73962912
 20
233.64816155
  0
VERTEX
  8
0
 10
476.05624812
 20
234.07156999
  0
VERTEX
  8
0
 10
476.33174144
 20
234.52504570
  0
VERTEX
  8
0
 10
476.56334447
 20
235.00582408
  0
VERTEX
  8
0
 10
476.74829262
 20
235.51114053
  0
VERTEX
  8
0
 10
476.88382129
 20
236.03823045
  0
VERTEX
  8
0
 10
476.96716586
 20
236.58432924
  0
VERTEX
  8
0
 10
476.99556174
 20
237.14667229
  0
VERTEX
  8
0
 10
476.96716586
 20
237.70901534
  0
VERTEX
  8
0
 10
476.88382129
 20
238.25511412
  0
VERTEX
  8
0
 10
476.74829262
 20
238.78220404
  0
VERTEX
  8
0
 10
476.56334447
 20
239.28752050
  0
VERTEX
  8
0
 10
476.33174144
 20
239.76829888
  0
VERTEX
  8
0
 10
476.05624812
 20
240.22177459
  0
VERTEX
  8
0
 10
475.73962912
 20
240.64518302
  0
VERTEX
  8
0
 10
475.38464903
 20
241.03575958
  0
VERTEX
  8
0
 10
474.99407247
 20
241.39073967
  0
VERTEX
  8
0
 10
474.57066404
 20
241.70735867
  0
VERTEX
  8
0
 10
474.11718833
 20
241.98285199
  0
VERTEX
  8
0
 10
473.63640995
 20
242.21445502
  0
VERTEX
  8
0
 10
473.13109349
 20
242.39940317
  0
VERTEX
  8
0
 10
472.60400357
 20
242.53493184
  0
VERTEX
  8
0
 10
472.05790479
 20
242.61827641
  0
VERTEX
  8
0
 10
471.49556174
 20
242.64667229
  0
SEQEND
  0
POLYLINE
  8
По умолчанию
 66
   1
 39
0.000000
 70
    1
  0
VERTEX
  8
0
 10
435.66085744
 20
307.86106359
  0
VERTEX
  8
0
 10
435.09851439
 20
307.83266771
  0
VERTEX
  8
0
 10
434.55241560
 20
307.74932314
  0
VERTEX
  8
0
 10
434.02532568
 20
307.61379448
  0
VERTEX
  8
0
 10
433.52000923
 20
307.42884633
  0
VERTEX
  8
0
 10
433.03923085
 20
307.19724329
  0
VERTEX
  8
0
 10
432.58575514
 20
306.92174997
  0
VERTEX
  8
0
 10
432.16234670
 20
306.60513097
  0
VERTEX
  8
0
 10
431.77177014
 20
306.25015089
  0
VERTEX
  8
0
 10
431.41679006
 20
305.85957433
  0
VERTEX
  8
0
 10
431.10017106
 20
305.43616589
  0
VERTEX
  8
0
 10
430.82467774
 20
304.98269018
  0
VERTEX
  8
0
 10
430.59307470
 20
304.50191180
  0
VERTEX
  8
0
 10
430.40812655
 20
303.99659535
  0
VERTEX
  8
0
 10
430.27259789
 20
303.46950543
  0
VERTEX
  8
0
 10
430.18925332
 20
302.92340664
  0
VERTEX
  8
0
 10
430.16085744
 20
302.36106359
  0
VERTEX
  8
0
 10
430.18925332
 20
301.79872054
  0
VERTEX
  8
0
 10
430.27259789
 20
301.25262176
  0
VERTEX
  8
0
 10
430.40812655
 20
300.72553184
  0
VERTEX
  8
0
 10
430.59307470
 20
300.22021538
  0
VERTEX
  8
0
 10
430.82467774
 20
299.73943700
  0
VERTEX
  8
0
 10
431.10017106
 20
299.28596129
  0
VERTEX
  8
0
 10
431.41679006
 20
298.86255286
  0
VERTEX
  8
0
 10
431.77177014
 20
298.47197630
  0
VERTEX
  8
0
 10
432.16234670
 20
298.11699621
  0
VERTEX
  8
0
 10
432.58575514
 20
297.80037721
  0
VERTEX
  8
0
 10
433.03923085
 20
297.52488389
  0
VERTEX
  8
0
 10
433.52000923
 20
297.29328086
  0
VERTEX
  8
0
 10
434.02532568
 20
297.10833271
  0
VERTEX
  8
0
 10
434.55241560
 20
296.97280404
  0
VERTEX
  8
0
 10
435.09851439
 20
296.88945947
  0
VERTEX
  8
0
 10
435.66085744
 20
296.86106359
  0
VERTEX
  8
0
 10
436.22320049
 20
296.88945947
  0
VERTEX
  8
0
 10
436.76929927
 20
296.97280404
  0
VERTEX
  8
0
 10
437.29638919
 20
297.10833271
  0
VERTEX
  8
0
 10
437.80170564
 20
297.29328086
  0
VERTEX
  8
0
 10
438.28248403
 20
297.52488389
  0
VERTEX
  8
0
 10
438.73595974
 20
297.80037721
  0
VERTEX
  8
0
 10
439.15936817
 20
298.11699621
  0
VERTEX
  8
0
 10
439.54994473
 20
298.47197630
  0
VERTEX
  8
0
 10
439.90492481
 20
298.86255286
  0
VERTEX
  8
0
 10
440.22154382
 20
299.28596129
  0
VERTEX
  8
0
 10
440.49703714
 20
299.73943700
  0
VERTEX
  8
0
 10
440.72864017
 20
300.22021538
  0
VERTEX
  8
0
 10
440.91358832
 20
300.72553184
  0
VERTEX
  8
0
 10
441.04911698
 20
301.25262176
  0
VERTEX
  8
0
 10
441.13246156
 20
301.79872054
  0
VERTEX
  8
0
 10
441.16085744
 20
302.36106359
  0
VERTEX
  8
0
 10
441.13246156
 20
302.92340664
  0
VERTEX
  8
0
 10
441.04911698
 20
303.46950543
  0
VERTEX
  8
0
 10
440.91358832
 20
303.99659535
  0
VERTEX
  8
0
 10
440.72864017
 20
304.50191180
  0
VERTEX
  8
0
 10
440.49703714
 20
304.98269018
  0
VERTEX
  8
0
 10
440.22154382
 20
305.43616589
  0
VERTEX
  8
0
 10
439.90492481
 20
305.85957433
  0
VERTEX
  8
0
 10
439.54994473
 20
306.25015089
  0
VERTEX
  8
0
 10
439.15936817
 20
306.60513097
  0
VERTEX
  8
0
 10
438.73595974
 20
306.92174997
  0
VERTEX
  8
0
 10
438.28248403
 20
307.19724329
  0
VERTEX
  8
0
 10
437.80170564
 20
307.42884633
  0
VERTEX
  8
0
 10
437.29638919
 20
307.61379448
  0
VERTEX
  8
0
 10
436.76929927
 20
307.74932314
  0
VERTEX
  8
0
 10
436.22320049
 20
307.83266771
  0
VERTEX
  8
0
 10
435.66085744
 20
307.86106359
  0
SEQEND
  0
POLYLINE
  8
По умолчанию
 66
   1
 39
0.000000
 70
    1
  0
VERTEX
  8
0
 10
413.98762357
 20
320.47960114
  0
VERTEX
  8
0
 10
414.49884452
 20
320.45378670
  0
VERTEX
  8
0
 10
414.99529796
 20
320.37801891
  0
VERTEX
  8
0
 10
415.47447062
 20
320.25481104
  0
VERTEX
  8
0
 10
415.93384921
 20
320.08667636
  0
VERTEX
  8
0
 10
416.37092047
 20
319.87612814
  0
VERTEX
  8
0
 10
416.78317111
 20
319.62567967
  0
VERTEX
  8
0
 10
417.16808787
 20
319.33784421
  0
VERTEX
  8
0
 10
417.52315747
 20
319.01513505
  0
VERTEX
  8
0
 10
417.84586664
 20
318.66006545
  0
VERTEX
  8
0
 10
418.13370209
 20
318.27514869
  0
VERTEX
  8
0
 10
418.38415057
 20
317.86289804
  0
VERTEX
  8
0
 10
418.59469878
 20
317.42582679
  0
VERTEX
  8
0
 10
418.76283346
 20
316.96644819
  0
VERTEX
  8
0
 10
418.88604134
 20
316.48727554
  0
VERTEX
  8
0
 10
418.96180913
 20
315.99082210
  0
VERTEX
  8
0
 10
418.98762357
 20
315.47960114
  0
VERTEX
  8
0
 10
418.96180913
 20
314.96838019
  0
VERTEX
  8
0
 10
418.88604134
 20
314.47192674
  0
VERTEX
  8
0
 10
418.76283346
 20
313.99275409
  0
VERTEX
  8
0
 10
418.59469878
 20
313.53337550
  0
VERTEX
  8
0
 10
418.38415057
 20
313.09630424
  0
VERTEX
  8
0
 10
418.13370209
 20
312.68405360
  0
VERTEX
  8
0
 10
417.84586664
 20
312.29913684
  0
VERTEX
  8
0
 10
417.52315747
 20
311.94406724
  0
VERTEX
  8
0
 10
417.16808787
 20
311.62135807
  0
VERTEX
  8
0
 10
416.78317111
 20
311.33352261
  0
VERTEX
  8
0
 10
416.37092047
 20
311.08307414
  0
VERTEX
  8
0
 10
415.93384921
 20
310.87252593
  0
VERTEX
  8
0
 10
415.47447062
 20
310.70439124
  0
VERTEX
  8
0
 10
414.99529796
 20
310.58118337
  0
VERTEX
  8
0
 10
414.49884452
 20
310.50541558
  0
VERTEX
  8
0
 10
413.98762357
 20
310.47960114
  0
VERTEX
  8
0
 10
413.47640261
 20
310.50541558
  0
VERTEX
  8
0
 10
412.97994917
 20
310.58118337
  0
VERTEX
  8
0
 10
412.50077651
 20
310.70439124
  0
VERTEX
  8
0
 10
412.04139792
 20
310.87252593
  0
VERTEX
  8
0
 10
411.60432666
 20
311.08307414
  0
VERTEX
  8
0
 10
411.19207602
 20
311.33352261
  0
VERTEX
  8
0
 10
410.80715926
 20
311.62135807
  0
VERTEX
  8
0
 10
410.45208966
 20
311.94406724
  0
VERTEX
  8
0
 10
410.12938049
 20
312.29913684
  0
VERTEX
  8
0
 10
409.84154504
 20
312.68405360
  0
VERTEX
  8
0
 10
409.59109656
 20
313.09630424
  0
VERTEX
  8
0
 10
409.38054835
 20
313.53337550
  0
VERTEX
  8
0
 10
409.21241367
 20
313.99275409
  0
VERTEX
  8
0
 10
409.08920579
 20
314.47192674
  0
VERTEX
  8
0
 10
409.01343800
 20
314.96838019
  0
VERTEX
  8
0
 10
408.98762357
 20
315.47960114
  0
VERTEX
  8
0
 10
409.01343800
 20
315.99082210
  0
VERTEX
  8
0
 10
409.08920579
 20
316.48727554
  0
VERTEX
  8
0
 10
409.21241367
 20
316.96644819
  0
VERTEX
  8
0
 10
409.38054835
 20
317.42582679
  0
VERTEX
  8
0
 10
409.59109656
 20
317.86289804
  0
VERTEX
  8
0
 10
409.84154504
 20
318.27514869
  0
VERTEX
  8
0
 10
410.12938049
 20
318.66006545
  0
VERTEX
  8
0
 10
410.45208966
 20
319.01513505
  0
VERTEX
  8
0
 10
410.80715926
 20
319.33784421
  0
VERTEX
  8
0
 10
411.19207602
 20
319.62567967
  0
VERTEX
  8
0
 10
411.60432666
 20
319.87612814
  0
VERTEX
  8
0
 10
412.04139792
 20
320.08667636
  0
VERTEX
  8
0
 10
412.50077651
 20
320.25481104
  0
VERTEX
  8
0
 10
412.97994917
 20
320.37801891
  0
VERTEX
  8
0
 10
413.47640261
 20
320.45378670
  0
VERTEX
  8
0
 10
413.98762357
 20
320.47960114
  0
SEQEND
  0
POLYLINE
  8
По умолчанию
 66
   1
 39
0.000000
 70
    1
  0
VERTEX
  8
0
 10
357.92472437
 20
317.04781359
 42
-0.00164779
  0
VERTEX
  8
0
 10
358.56843857
 20
317.06410541
 42
-0.37756258
  0
VERTEX
  8
0
 10
457.33425663
 20
233.87096774
  0
VERTEX
  8
0
 10
461.39717204
 20
162.24677719
  0
VERTEX
  8
0
 10
453.50357558
 20
161.80564016
  0
VERTEX
  8
0
 10
454.56374449
 20
142.83524106
  0
VERTEX
  8
0
 10
462.47322637
 20
143.27726585
  0
VERTEX
  8
0
 10
467.08219654
 20
62.02680294
  0
VERTEX
  8
0
 10
459.18330638
 20
61.58537007
  0
VERTEX
  8
0
 10
460.24347529
 20
42.61497098
  0
VERTEX
  8
0
 10
469.22945381
 20
43.11715625
  0
VERTEX
  8
0
 10
469.22901991
 20
43.12492031
  0
VERTEX
  8
0
 10
476.06409534
 20
43.12492031
 42
0.41421356
  0
VERTEX
  8
0
 10
486.06409534
 20
53.12492031
  0
VERTEX
  8
0
 10
486.06409534
 20
233.87096774
  0
VERTEX
  8
0
 10
486.06225296
 20
233.87096774
  0
VERTEX
  8
0
 10
486.04912214
 20
235.36773811
  0
VERTEX
  8
0
 10
486.01319602
 20
236.86118714
  0
VERTEX
  8
0
 10
485.95459421
 20
238.35108687
  0
VERTEX
  8
0
 10
485.87343635
 20
239.83720933
  0
VERTEX
  8
0
 10
485.76984204
 20
241.31932657
  0
VERTEX
  8
0
 10
485.64393092
 20
242.79721060
  0
VERTEX
  8
0
 10
485.49582258
 20
244.27063347
  0
VERTEX
  8
0
 10
485.32563667
 20
245.73936721
  0
VERTEX
  8
0
 10
485.13349279
 20
247.20318384
  0
VERTEX
  8
0
 10
484.91951056
 20
248.66185542
  0
VERTEX
  8
0
 10
484.68380961
 20
250.11515397
  0
VERTEX
  8
0
 10
484.42650954
 20
251.56285152
  0
VERTEX
  8
0
 10
484.14772999
 20
253.00472010
  0
VERTEX
  8
0
 10
483.84759057
 20
254.44053176
  0
VERTEX
  8
0
 10
483.52621090
 20
255.87005852
  0
VERTEX
  8
0
 10
483.18371059
 20
257.29307243
  0
VERTEX
  8
0
 10
482.82020927
 20
258.70934550
  0
VERTEX
  8
0
 10
482.43582656
 20
260.11864978
  0
VERTEX
  8
0
 10
482.03068207
 20
261.52075731
  0
VERTEX
  8
0
 10
481.60489543
 20
262.91544010
  0
VERTEX
  8
0
 10
481.15858625
 20
264.30247020
  0
VERTEX
  8
0
 10
480.69187415
 20
265.68161965
  0
VERTEX
  8
0
 10
480.20487876
 20
267.05266047
  0
VERTEX
  8
0
 10
479.69771968
 20
268.41536470
  0
VERTEX
  8
0
 10
479.17051654
 20
269.76950437
  0
VERTEX
  8
0
 10
478.62338896
 20
271.11485152
  0
VERTEX
  8
0
 10
478.05645656
 20
272.45117818
  0
VERTEX
  8
0
 10
477.46983895
 20
273.77825638
  0
VERTEX
  8
0
 10
476.86365576
 20
275.09585817
  0
VERTEX
  8
0
 10
476.23802661
 20
276.40375556
  0
VERTEX
  8
0
 10
475.59307110
 20
277.70172060
  0
VERTEX
  8
0
 10
474.92890887
 20
278.98952532
  0
VERTEX
  8
0
 10
474.24565953
 20
280.26694175
  0
VERTEX
  8
0
 10
473.54344270
 20
281.53374192
  0
VERTEX
  8
0
 10
472.82237800
 20
282.78969788
  0
VERTEX
  8
0
 10
472.08258505
 20
284.03458166
  0
VERTEX
  8
0
 10
471.32418347
 20
285.26816528
  0
VERTEX
  8
0
 10
470.54729287
 20
286.49022078
  0
VERTEX
  8
0
 10
469.75203288
 20
287.70052020
  0
VERTEX
  8
0
 10
468.93852312
 20
288.89883557
  0
VERTEX
  8
0
 10
468.10688319
 20
290.08493892
  0
VERTEX
  8
0
 10
467.25723273
 20
291.25860229
  0
VERTEX
  8
0
 10
466.38969135
 20
292.41959771
  0
VERTEX
  8
0
 10
465.50437868
 20
293.56769721
  0
VERTEX
  8
0
 10
464.60141432
 20
294.70267283
  0
VERTEX
  8
0
 10
463.68091790
 20
295.82429661
  0
VERTEX
  8
0
 10
462.74300904
 20
296.93234057
  0
VERTEX
  8
0
 10
461.78780735
 20
298.02657675
  0
VERTEX
  8
0
 10
460.81543246
 20
299.10677718
  0
VERTEX
  8
0
 10
459.82600399
 20
300.17271390
  0
VERTEX
  8
0
 10
458.81964155
 20
301.22415894
  0
VERTEX
  8
0
 10
457.79646476
 20
302.26088434
  0
VERTEX
  8
0
 10
456.75659325
 20
303.28266212
  0
VERTEX
  8
0
 10
455.70014663
 20
304.28926433
  0
VERTEX
  8
0
 10
454.62724451
 20
305.28046299
  0
VERTEX
  8
0
 10
453.53800653
 20
306.25603015
  0
VERTEX
  8
0
 10
452.43255229
 20
307.21573782
  0
VERTEX
  8
0
 10
451.31100142
 20
308.15935806
  0
VERTEX
  8
0
 10
450.17347354
 20
309.08666288
  0
VERTEX
  8
0
 10
449.02008826
 20
309.99742433
  0
VERTEX
  8
0
 10
447.85096521
 20
310.89141444
  0
VERTEX
  8
0
 10
446.66622400
 20
311.76840524
  0
VERTEX
  8
0
 10
445.46598425
 20
312.62816877
  0
VERTEX
  8
0
 10
444.25036559
 20
313.47047706
  0
VERTEX
  8
0
 10
441.87566575
 20
315.05222896
  0
VERTEX
  8
0
 10
439.47758983
 20
316.59326364
  0
VERTEX
  8
0
 10
437.05668059
 20
318.09339539
  0
VERTEX
  8
0
 10
434.61348083
 20
319.55243844
  0
VERTEX
  8
0
 10
432.14853331
 20
320.97020707
  0
VERTEX
  8
0
 10
429.66238082
 20
322.34651553
  0
VERTEX
  8
0
 10
427.15556614
 20
323.68117809
  0
VERTEX
  8
0
 10
424.62863205
 20
324.97400899
  0
VERTEX
  8
0
 10
422.08212132
 20
326.22482251
  0
VERTEX
  8
0
 10
419.51657675
 20
327.43343290
  0
VERTEX
  8
0
 10
416.93254110
 20
328.59965442
  0
VERTEX
  8
0
 10
414.33055716
 20
329.72330134
  0
VERTEX
  8
0
 10
411.71116770
 20
330.80418790
  0
VERTEX
  8
0
 10
409.07491552
 20
331.84212838
  0
VERTEX
  8
0
 10
406.42234338
 20
332.83693702
  0
VERTEX
  8
0
 10
403.75399406
 20
333.78842810
  0
VERTEX
  8
0
 10
401.07041036
 20
334.69641587
  0
VERTEX
  8
0
 10
398.37213504
 20
335.56071459
  0
VERTEX
  8
0
 10
395.65971089
 20
336.38113852
  0
VERTEX
  8
0
 10
392.93368068
 20
337.15750192
  0
VERTEX
  8
0
 10
390.19458720
 20
337.88961905
  0
VERTEX
  8
0
 10
387.44297323
 20
338.57730417
  0
VERTEX
  8
0
 10
384.67938154
 20
339.22037154
  0
VERTEX
  8
0
 10
381.90435492
 20
339.81863542
  0
VERTEX
  8
0
 10
379.11843614
 20
340.37191007
  0
VERTEX
  8
0
 10
376.32216799
 20
340.88000975
  0
VERTEX
  8
0
 10
373.51609324
 20
341.34274871
  0
VERTEX
  8
0
 10
370.70075468
 20
341.75994123
  0
VERTEX
  8
0
 10
367.87669508
 20
342.13140155
  0
VERTEX
  8
0
 10
365.04445723
 20
342.45694394
  0
VERTEX
  8
0
 10
362.20458390
 20
342.73638266
  0
VERTEX
  8
0
 10
359.35761788
 20
342.96953197
  0
VERTEX
  8
0
 10
358.64634321
 20
343.02809780
  0
VERTEX
  8
0
 10
357.92472437
 20
343.04781359
  0
VERTEX
  8
0
 10
357.25574610
 20
343.03089807
  0
VERTEX
  8
0
 10
356.59554989
 20
342.98069606
  0
VERTEX
  8
0
 10
355.94495257
 20
342.89802436
  0
VERTEX
  8
0
 10
355.30477094
 20
342.78369980
  0
VERTEX
  8
0
 10
354.67582183
 20
342.63853918
  0
VERTEX
  8
0
 10
354.05892204
 20
342.46335932
  0
VERTEX
  8
0
 10
353.45488839
 20
342.25897704
  0
VERTEX
  8
0
 10
352.86453770
 20
342.02620915
  0
VERTEX
  8
0
 10
352.28868677
 20
341.76587246
  0
VERTEX
  8
0
 10
351.72815243
 20
341.47878379
  0
VERTEX
  8
0
 10
351.18375149
 20
341.16575995
  0
VERTEX
  8
0
 10
350.65630075
 20
340.82761776
  0
VERTEX
  8
0
 10
350.14661704
 20
340.46517403
  0
VERTEX
  8
0
 10
349.65551718
 20
340.07924558
  0
VERTEX
  8
0
 10
349.18381796
 20
339.67064921
  0
VERTEX
  8
0
 10
348.73233622
 20
339.24020175
  0
VERTEX
  8
0
 10
348.30188875
 20
338.78872000
  0
VERTEX
  8
0
 10
347.89329239
 20
338.31702079
  0
VERTEX
  8
0
 10
347.50736393
 20
337.82592092
  0
VERTEX
  8
0
 10
347.14492020
 20
337.31623721
  0
VERTEX
  8
0
 10
346.80677801
 20
336.78878648
  0
VERTEX
  8
0
 10
346.49375417
 20
336.24438553
  0
VERTEX
  8
0
 10
346.20666550
 20
335.68385119
  0
VERTEX
  8
0
 10
345.94632881
 20
335.10800027
  0
VERTEX
  8
0
 10
345.71356092
 20
334.51764957
  0
VERTEX
  8
0
 10
345.50917864
 20
333.91361593
  0
VERTEX
  8
0
 10
345.33399878
 20
333.29671614
  0
VERTEX
  8
0
 10
345.18883817
 20
332.66776702
  0
VERTEX
  8
0
 10
345.07451360
 20
332.02758540
  0
VERTEX
  8
0
 10
344.99184191
 20
331.37698807
  0
VERTEX
  8
0
 10
344.94163989
 20
330.71679187
  0
VERTEX
  8
0
 10
344.92472437
 20
330.04781359
  0
VERTEX
  8
0
 10
344.94163989
 20
329.37883532
  0
VERTEX
  8
0
 10
344.99184191
 20
328.71863911
  0
VERTEX
  8
0
 10
345.07451360
 20
328.06804179
  0
VERTEX
  8
0
 10
345.18883817
 20
327.42786016
  0
VERTEX
  8
0
 10
345.33399878
 20
326.79891105
  0
VERTEX
  8
0
 10
345.50917864
 20
326.18201126
  0
VERTEX
  8
0
 10
345.71356092
 20
325.57797761
  0
VERTEX
  8
0
 10
345.94632881
 20
324.98762692
  0
VERTEX
  8
0
 10
346.20666550
 20
324.41177599
  0
VERTEX
  8
0
 10
346.49375417
 20
323.85124165
  0
VERTEX
  8
0
 10
346.80677801
 20
323.30684071
  0
VERTEX
  8
0
 10
347.14492020
 20
322.77938997
  0
VERTEX
  8
0
 10
347.50736393
 20
322.26970626
  0
VERTEX
  8
0
 10
347.89329239
 20
321.77860640
  0
VERTEX
  8
0
 10
348.30188875
 20
321.30690718
  0
VERTEX
  8
0
 10
348.73233622
 20
320.85542544
  0
VERTEX
  8
0
 10
349.18381796
 20
320.42497797
  0
VERTEX
  8
0
 10
349.65551718
 20
320.01638161
  0
VERTEX
  8
0
 10
350.14661704
 20
319.63045315
  0
VERTEX
  8
0
 10
350.65630075
 20
319.26800942
  0
VERTEX
  8
0
 10
351.18375149
 20
318.92986723
  0
VERTEX
  8
0
 10
351.72815243
 20
318.61684339
  0
VERTEX
  8
0
 10
352.28868677
 20
318.32975472
  0
VERTEX
  8
0
 10
352.86453770
 20
318.06941803
  0
VERTEX
  8
0
 10
353.45488839
 20
317.83665014
  0
VERTEX
  8
0
 10
354.05892204
 20
317.63226786
  0
VERTEX
  8
0
 10
354.67582183
 20
317.45708800
  0
VERTEX
  8
0
 10
355.30477094
 20
317.31192739
  0
VERTEX
  8
0
 10
355.94495257
 20
317.19760282
  0
VERTEX
  8
0
 10
356.59554989
 20
317.11493113
  0
VERTEX
  8
0
 10
357.25574610
 20
317.06472911
  0
VERTEX
  8
0
 10
357.92472437
 20
317.04781359
  0
SEQEND
  0
POLYLINE
  8
По умолчанию
 66
   1
 39
0.000000
 70
    1
  0
VERTEX
  8
0
 10
96.63585080
 20
304.65639341
 42
0.41421356
  0
VERTEX
  8
0
 10
100.63577880
 20
308.65632141
 42
0.41421356
  0
VERTEX
  8
0
 10
96.63585080
 20
312.65624941
 42
0.41421356
  0
VERTEX
  8
0
 10
92.63592280
 20
308.65632141
 42
0.41421356
  0
VERTEX
  8
0
 10
96.63585080
 20
304.65639341
  0
SEQEND
  0
ENDSEC
  0
EOF
