  0
SECTION
  2
HEADER
  9
$ACADVER
  1
AC1021
  9
$ACADMAINTVER
 70
    25
  9
$DWGCODEPAGE
  3
ANSI_1251
  9
$INSBASE
 10
0.0
 20
0.0
 30
0.0
  9
$EXTMIN
 10
1.000000000000000E+20
 20
1.000000000000000E+20
 30
1.000000000000000E+20
  9
$EXTMAX
 10
-1.000000000000000E+20
 20
-1.000000000000000E+20
 30
-1.000000000000000E+20
  9
$LIMMIN
 10
0.0
 20
0.0
  9
$LIMMAX
 10
420.0
 20
297.0
  9
$ORTHOMODE
 70
     0
  9
$REGENMODE
 70
     1
  9
$FILLMODE
 70
     1
  9
$QTEXTMODE
 70
     0
  9
$MIRRTEXT
 70
     1
  9
$LTSCALE
 40
1.0
  9
$ATTMODE
 70
     1
  9
$TEXTSIZE
 40
2.5
  9
$TRACEWID
 40
1.0
  9
$TEXTSTYLE
  7
Standard
  9
$CLAYER
  8
0
  9
$CELTYPE
  6
ByLayer
  9
$CECOLOR
 62
   256
  9
$CELTSCALE
 40
1.0
  9
$DISPSILH
 70
     0
  9
$DIMSCALE
 40
1.0
  9
$DIMASZ
 40
2.5
  9
$DIMEXO
 40
0.625
  9
$DIMDLI
 40
3.75
  9
$DIMRND
 40
0.0
  9
$DIMDLE
 40
0.0
  9
$DIMEXE
 40
1.25
  9
$DIMTP
 40
0.0
  9
$DIMTM
 40
0.0
  9
$DIMTXT
 40
2.5
  9
$DIMCEN
 40
2.5
  9
$DIMTSZ
 40
0.0
  9
$DIMTOL
 70
     0
  9
$DIMLIM
 70
     0
  9
$DIMTIH
 70
     0
  9
$DIMTOH
 70
     0
  9
$DIMSE1
 70
     0
  9
$DIMSE2
 70
     0
  9
$DIMTAD
 70
     1
  9
$DIMZIN
 70
     8
  9
$DIMBLK
  1

  9
$DIMASO
 70
     1
  9
$DIMSHO
 70
     1
  9
$DIMPOST
  1

  9
$DIMAPOST
  1

  9
$DIMALT
 70
     0
  9
$DIMALTD
 70
     3
  9
$DIMALTF
 40
0.03937007874016
  9
$DIMLFAC
 40
1.0
  9
$DIMTOFL
 70
     1
  9
$DIMTVP
 40
0.0
  9
$DIMTIX
 70
     0
  9
$DIMSOXD
 70
     0
  9
$DIMSAH
 70
     0
  9
$DIMBLK1
  1

  9
$DIMBLK2
  1

  9
$DIMSTYLE
  2
ISO-25
  9
$DIMCLRD
 70
     0
  9
$DIMCLRE
 70
     0
  9
$DIMCLRT
 70
     0
  9
$DIMTFAC
 40
1.0
  9
$DIMGAP
 40
0.625
  9
$DIMJUST
 70
     0
  9
$DIMSD1
 70
     0
  9
$DIMSD2
 70
     0
  9
$DIMTOLJ
 70
     0
  9
$DIMTZIN
 70
     8
  9
$DIMALTZ
 70
     0
  9
$DIMALTTZ
 70
     0
  9
$DIMUPT
 70
     0
  9
$DIMDEC
 70
     2
  9
$DIMTDEC
 70
     2
  9
$DIMALTU
 70
     2
  9
$DIMALTTD
 70
     3
  9
$DIMTXSTY
  7
Standard
  9
$DIMAUNIT
 70
     0
  9
$DIMADEC
 70
     0
  9
$DIMALTRND
 40
0.0
  9
$DIMAZIN
 70
     0
  9
$DIMDSEP
 70
    44
  9
$DIMATFIT
 70
     3
  9
$DIMFRAC
 70
     0
  9
$DIMLDRBLK
  1

  9
$DIMLUNIT
 70
     2
  9
$DIMLWD
 70
    -2
  9
$DIMLWE
 70
    -2
  9
$DIMTMOVE
 70
     0
  9
$DIMFXL
 40
1.0
  9
$DIMFXLON
 70
     0
  9
$DIMJOGANG
 40
0.7853981633974483
  9
$DIMTFILL
 70
     0
  9
$DIMTFILLCLR
 70
     0
  9
$DIMARCSYM
 70
     0
  9
$DIMLTYPE
  6

  9
$DIMLTEX1
  6

  9
$DIMLTEX2
  6

  9
$LUNITS
 70
     2
  9
$LUPREC
 70
     4
  9
$SKETCHINC
 40
1.0
  9
$FILLETRAD
 40
10.0
  9
$AUNITS
 70
     0
  9
$AUPREC
 70
     0
  9
$MENU
  1
.
  9
$ELEVATION
 40
0.0
  9
$PELEVATION
 40
0.0
  9
$THICKNESS
 40
0.0
  9
$LIMCHECK
 70
     0
  9
$CHAMFERA
 40
10.0
  9
$CHAMFERB
 40
10.0
  9
$CHAMFERC
 40
20.0
  9
$CHAMFERD
 40
0.0
  9
$SKPOLY
 70
     0
  9
$TDCREATE
 40
2456720.944271134
  9
$TDUCREATE
 40
2456720.777604468
  9
$TDUPDATE
 40
2456720.944271146
  9
$TDUUPDATE
 40
2456720.777604479
  9
$TDINDWG
 40
0.0000000116
  9
$TDUSRTIMER
 40
0.0000000116
  9
$USRTIMER
 70
     1
  9
$ANGBASE
 50
0.0
  9
$ANGDIR
 70
     0
  9
$PDMODE
 70
     0
  9
$PDSIZE
 40
0.0
  9
$PLINEWID
 40
0.0
  9
$SPLFRAME
 70
     0
  9
$SPLINETYPE
 70
     6
  9
$SPLINESEGS
 70
     8
  9
$HANDSEED
  5
34B
  9
$SURFTAB1
 70
     6
  9
$SURFTAB2
 70
     6
  9
$SURFTYPE
 70
     6
  9
$SURFU
 70
     6
  9
$SURFV
 70
     6
  9
$UCSBASE
  2

  9
$UCSNAME
  2

  9
$UCSORG
 10
0.0
 20
0.0
 30
0.0
  9
$UCSXDIR
 10
1.0
 20
0.0
 30
0.0
  9
$UCSYDIR
 10
0.0
 20
1.0
 30
0.0
  9
$UCSORTHOREF
  2

  9
$UCSORTHOVIEW
 70
     0
  9
$UCSORGTOP
 10
0.0
 20
0.0
 30
0.0
  9
$UCSORGBOTTOM
 10
0.0
 20
0.0
 30
0.0
  9
$UCSORGLEFT
 10
0.0
 20
0.0
 30
0.0
  9
$UCSORGRIGHT
 10
0.0
 20
0.0
 30
0.0
  9
$UCSORGFRONT
 10
0.0
 20
0.0
 30
0.0
  9
$UCSORGBACK
 10
0.0
 20
0.0
 30
0.0
  9
$PUCSBASE
  2

  9
$PUCSNAME
  2

  9
$PUCSORG
 10
0.0
 20
0.0
 30
0.0
  9
$PUCSXDIR
 10
1.0
 20
0.0
 30
0.0
  9
$PUCSYDIR
 10
0.0
 20
1.0
 30
0.0
  9
$PUCSORTHOREF
  2

  9
$PUCSORTHOVIEW
 70
     0
  9
$PUCSORGTOP
 10
0.0
 20
0.0
 30
0.0
  9
$PUCSORGBOTTOM
 10
0.0
 20
0.0
 30
0.0
  9
$PUCSORGLEFT
 10
0.0
 20
0.0
 30
0.0
  9
$PUCSORGRIGHT
 10
0.0
 20
0.0
 30
0.0
  9
$PUCSORGFRONT
 10
0.0
 20
0.0
 30
0.0
  9
$PUCSORGBACK
 10
0.0
 20
0.0
 30
0.0
  9
$USERI1
 70
     0
  9
$USERI2
 70
     0
  9
$USERI3
 70
     0
  9
$USERI4
 70
     0
  9
$USERI5
 70
     0
  9
$USERR1
 40
0.0
  9
$USERR2
 40
0.0
  9
$USERR3
 40
0.0
  9
$USERR4
 40
0.0
  9
$USERR5
 40
0.0
  9
$WORLDVIEW
 70
     1
  9
$SHADEDGE
 70
     3
  9
$SHADEDIF
 70
    70
  9
$TILEMODE
 70
     1
  9
$MAXACTVP
 70
    64
  9
$PINSBASE
 10
0.0
 20
0.0
 30
0.0
  9
$PLIMCHECK
 70
     0
  9
$PEXTMIN
 10
1.000000000000000E+20
 20
1.000000000000000E+20
 30
1.000000000000000E+20
  9
$PEXTMAX
 10
-1.000000000000000E+20
 20
-1.000000000000000E+20
 30
-1.000000000000000E+20
  9
$PLIMMIN
 10
0.0
 20
0.0
  9
$PLIMMAX
 10
420.0
 20
297.0
  9
$UNITMODE
 70
     0
  9
$VISRETAIN
 70
     1
  9
$PLINEGEN
 70
     0
  9
$PSLTSCALE
 70
     1
  9
$TREEDEPTH
 70
  3020
  9
$CMLSTYLE
  2
Standard
  9
$CMLJUST
 70
     0
  9
$CMLSCALE
 40
20.0
  9
$PROXYGRAPHICS
 70
     1
  9
$MEASUREMENT
 70
     1
  9
$CELWEIGHT
370
    -1
  9
$ENDCAPS
280
     0
  9
$JOINSTYLE
280
     0
  9
$LWDISPLAY
290
     0
  9
$INSUNITS
 70
     4
  9
$HYPERLINKBASE
  1

  9
$STYLESHEET
  1

  9
$XEDIT
290
     1
  9
$CEPSNTYPE
380
     0
  9
$PSTYLEMODE
290
     1
  9
$FINGERPRINTGUID
  2
{B60EB7CD-3742-448A-92FA-7C3BC628B448}
  9
$VERSIONGUID
  2
{FAEB1C32-E019-11D5-929B-00C0DF256EC4}
  9
$EXTNAMES
290
     1
  9
$PSVPSCALE
 40
0.0
  9
$OLESTARTUP
290
     0
  9
$SORTENTS
280
   127
  9
$INDEXCTL
280
     0
  9
$HIDETEXT
280
     1
  9
$XCLIPFRAME
290
     0
  9
$HALOGAP
280
     0
  9
$OBSCOLOR
 70
   257
  9
$OBSLTYPE
280
     0
  9
$INTERSECTIONDISPLAY
280
     0
  9
$INTERSECTIONCOLOR
 70
   257
  9
$DIMASSOC
280
     2
  9
$PROJECTNAME
  1

  9
$CAMERADISPLAY
290
     0
  9
$LENSLENGTH
 40
50.0
  9
$CAMERAHEIGHT
 40
0.0
  9
$STEPSPERSEC
 40
2.0
  9
$STEPSIZE
 40
6.0
  9
$3DDWFPREC
 40
2.0
  9
$PSOLWIDTH
 40
5.0
  9
$PSOLHEIGHT
 40
80.0
  9
$LOFTANG1
 40
1.570796326794897
  9
$LOFTANG2
 40
1.570796326794897
  9
$LOFTMAG1
 40
0.0
  9
$LOFTMAG2
 40
0.0
  9
$LOFTPARAM
 70
     7
  9
$LOFTNORMALS
280
     1
  9
$LATITUDE
 40
37.795
  9
$LONGITUDE
 40
-122.394
  9
$NORTHDIRECTION
 40
0.0
  9
$TIMEZONE
 70
 -8000
  9
$LIGHTGLYPHDISPLAY
280
     1
  9
$TILEMODELIGHTSYNCH
280
     1
  9
$SOLIDHIST
280
     1
  9
$SHOWHIST
280
     1
  9
$DWFFRAME
280
     2
  9
$DGNFRAME
280
     2
  9
$REALWORLDSCALE
290
     1
  9
$INTERFERECOLOR
 62
   256
  9
$CSHADOW
280
     0
  9
$SHADOWPLANELOCATION
 40
0.0
  0
ENDSEC
  0
SECTION
  2
CLASSES
  0
CLASS
  1
ACDBDICTIONARYWDFLT
  2
AcDbDictionaryWithDefault
  3
ObjectDBX Classes
 90
        0
 91
        4
280
     0
281
     0
  0
CLASS
  1
VISUALSTYLE
  2
AcDbVisualStyle
  3
ObjectDBX Classes
 90
     4095
 91
        4
280
     0
281
     0
  0
CLASS
  1
MATERIAL
  2
AcDbMaterial
  3
ObjectDBX Classes
 90
     1153
 91
        4
280
     0
281
     0
  0
CLASS
  1
SCALE
  2
AcDbScale
  3
ObjectDBX Classes
 90
     1153
 91
        4
280
     0
281
     0
  0
CLASS
  1
DICTIONARYVAR
  2
AcDbDictionaryVar
  3
ObjectDBX Classes
 90
        0
 91
        4
280
     0
281
     0
  0
ENDSEC
  0
SECTION
  2
TABLES
  0
TABLE
  2
VPORT
  5
8
330
0
100
AcDbSymbolTable
 70
     1
  0
VPORT
  5
29
330
8
100
AcDbSymbolTableRecord
100
AcDbViewportTableRecord
  2
*Active
 70
     0
 10
0.0
 20
0.0
 11
1.0
 21
1.0
 12
417.1570715891775
 22
-5.193514773939512
 13
0.0
 23
0.0
 14
10.0
 24
10.0
 15
10.0
 25
10.0
 16
0.0
 26
0.0
 36
1.0
 17
0.0
 27
0.0
 37
0.0
 40
170.215519524395
 41
2.77865507727197
 42
50.0
 43
0.0
 44
0.0
 50
0.0
 51
0.0
 71
     0
 72
   100
 73
     1
 74
     3
 75
     0
 76
     0
 77
     0
 78
     0
281
     0
 65
     1
110
0.0
120
0.0
130
0.0
111
1.0
121
0.0
131
0.0
112
0.0
122
1.0
132
0.0
 79
     0
146
0.0
 60
     3
 61
     5
292
     1
282
     1
141
0.0
142
0.0
 63
   250
  0
ENDTAB
  0
TABLE
  2
LTYPE
  5
5
330
0
100
AcDbSymbolTable
 70
     6
  0
LTYPE
  5
14
330
5
100
AcDbSymbolTableRecord
100
AcDbLinetypeTableRecord
  2
ByBlock
 70
     0
  3

 72
    65
 73
     0
 40
0.0
  0
LTYPE
  5
15
330
5
100
AcDbSymbolTableRecord
100
AcDbLinetypeTableRecord
  2
ByLayer
 70
     0
  3

 72
    65
 73
     0
 40
0.0
  0
LTYPE
  5
16
330
5
100
AcDbSymbolTableRecord
100
AcDbLinetypeTableRecord
  2
Continuous
 70
     0
  3
Solid line
 72
    65
 73
     0
 40
0.0
  0
LTYPE
  5
42
330
5
100
AcDbSymbolTableRecord
100
AcDbLinetypeTableRecord
  2
K5LT_THIN
 70
     0
  3

 72
    65
 73
     0
 40
0.0
  0
LTYPE
  5
A6
330
5
100
AcDbSymbolTableRecord
100
AcDbLinetypeTableRecord
  2
K5LT_AXLED
 70
     0
  3

 72
    65
 73
     4
 40
19.5
 49
15.0
 74
     0
 49
-1.5
 74
     0
 49
1.5
 74
     0
 49
-1.5
 74
     0
  0
LTYPE
  5
105
330
5
100
AcDbSymbolTableRecord
100
AcDbLinetypeTableRecord
  2
K5LT_REINFORCED
 70
     0
  3

 72
    65
 73
     0
 40
0.0
  0
LTYPE
  5
203
330
5
100
AcDbSymbolTableRecord
100
AcDbLinetypeTableRecord
  2
K5LT_BASIC
 70
     0
  3

 72
    65
 73
     0
 40
0.0
  0
LTYPE
  5
233
330
5
100
AcDbSymbolTableRecord
100
AcDbLinetypeTableRecord
  2
K5LT_DASHED
 70
     0
  3

 72
    65
 73
     2
 40
6.0
 49
4.0
 74
     0
 49
-2.0
 74
     0
  0
ENDTAB
  0
TABLE
  2
LAYER
  5
2
330
0
100
AcDbSymbolTable
 70
     2
  0
LAYER
  5
10
330
2
100
AcDbSymbolTableRecord
100
AcDbLayerTableRecord
  2
0
 70
     0
 62
     7
  6
Continuous
370
    -3
390
F
347
3E
  0
LAYER
  5
40
330
2
100
AcDbSymbolTableRecord
100
AcDbLayerTableRecord
  2
Системный слой
 70
     0
 62
     7
  6
Continuous
370
    -3
390
F
347
3E
  0
ENDTAB
  0
TABLE
  2
STYLE
  5
3
330
0
100
AcDbSymbolTable
 70
     2
  0
STYLE
  5
11
330
3
100
AcDbSymbolTableRecord
100
AcDbTextStyleTableRecord
  2
Standard
 70
     0
 40
0.0
 41
1.0
 50
0.0
 71
     0
 42
2.5
  3
txt
  4

  0
STYLE
  5
C8
330
3
100
AcDbSymbolTableRecord
100
AcDbTextStyleTableRecord
  2
KTEXTSTYLE
 70
     0
 40
5.0
 41
0.96
 50
0.0
 71
     0
 42
0.2
  3
GOST_AU.SHX
  4

  0
ENDTAB
  0
TABLE
  2
VIEW
  5
6
330
0
100
AcDbSymbolTable
 70
     0
  0
ENDTAB
  0
TABLE
  2
UCS
  5
7
330
0
100
AcDbSymbolTable
 70
     0
  0
ENDTAB
  0
TABLE
  2
APPID
  5
9
330
0
100
AcDbSymbolTable
 70
     2
  0
APPID
  5
12
330
9
100
AcDbSymbolTableRecord
100
AcDbRegAppTableRecord
  2
ACAD
 70
     0
  0
APPID
  5
3F
330
9
100
AcDbSymbolTableRecord
100
AcDbRegAppTableRecord
  2
KOMPAS
 70
     0
  0
ENDTAB
  0
TABLE
  2
DIMSTYLE
  5
A
330
0
100
AcDbSymbolTable
 70
     1
100
AcDbDimStyleTable
  0
DIMSTYLE
105
27
330
A
100
AcDbSymbolTableRecord
100
AcDbDimStyleTableRecord
  2
ISO-25
 70
     0
 41
2.5
 42
0.625
 43
3.75
 44
1.25
 73
     0
 74
     0
 77
     1
 78
     8
140
2.5
141
2.5
143
0.03937007874016
147
0.625
171
     3
172
     1
271
     2
272
     2
274
     3
278
    44
283
     0
284
     8
340
11
  0
ENDTAB
  0
TABLE
  2
BLOCK_RECORD
  5
1
330
0
100
AcDbSymbolTable
 70
    43
  0
BLOCK_RECORD
  5
1F
330
1
100
AcDbSymbolTableRecord
100
AcDbBlockTableRecord
  2
*Model_Space
340
22
 70
     0
280
     1
281
     0
  0
BLOCK_RECORD
  5
1B
330
1
100
AcDbSymbolTableRecord
100
AcDbBlockTableRecord
  2
*Paper_Space
340
1E
 70
     0
280
     1
281
     0
  0
BLOCK_RECORD
  5
23
330
1
100
AcDbSymbolTableRecord
100
AcDbBlockTableRecord
  2
*Paper_Space0
340
26
 70
     0
280
     1
281
     0
  0
BLOCK_RECORD
  5
41
330
1
100
AcDbSymbolTableRecord
100
AcDbBlockTableRecord
  2
KDIMARROW_00
340
0
 70
     0
280
     1
281
     0
  0
BLOCK_RECORD
  5
46
330
1
100
AcDbSymbolTableRecord
100
AcDbBlockTableRecord
  2
KDIMARROW_01
340
0
 70
     0
280
     1
281
     0
  0
BLOCK_RECORD
  5
4F
330
1
100
AcDbSymbolTableRecord
100
AcDbBlockTableRecord
  2
KDIMARROW_02
340
0
 70
     0
280
     1
281
     0
  0
BLOCK_RECORD
  5
59
330
1
100
AcDbSymbolTableRecord
100
AcDbBlockTableRecord
  2
KDIMARROW_03
340
0
 70
     0
280
     1
281
     0
  0
BLOCK_RECORD
  5
5F
330
1
100
AcDbSymbolTableRecord
100
AcDbBlockTableRecord
  2
KDIMARROW_04
340
0
 70
     0
280
     1
281
     0
  0
BLOCK_RECORD
  5
65
330
1
100
AcDbSymbolTableRecord
100
AcDbBlockTableRecord
  2
KDIMARROW_05
340
0
 70
     0
280
     1
281
     0
  0
BLOCK_RECORD
  5
6E
330
1
100
AcDbSymbolTableRecord
100
AcDbBlockTableRecord
  2
KDIMARROW_06
340
0
 70
     0
280
     1
281
     0
  0
BLOCK_RECORD
  5
78
330
1
100
AcDbSymbolTableRecord
100
AcDbBlockTableRecord
  2
KDIMARROW_07
340
0
 70
     0
280
     1
281
     0
  0
BLOCK_RECORD
  5
7E
330
1
100
AcDbSymbolTableRecord
100
AcDbBlockTableRecord
  2
KDIMARROW_08
340
0
 70
     0
280
     1
281
     0
  0
BLOCK_RECORD
  5
85
330
1
100
AcDbSymbolTableRecord
100
AcDbBlockTableRecord
  2
KDIMARROW_09
340
0
 70
     0
280
     1
281
     0
  0
BLOCK_RECORD
  5
8B
330
1
100
AcDbSymbolTableRecord
100
AcDbBlockTableRecord
  2
KDIMARROW_10
340
0
 70
     0
280
     1
281
     0
  0
BLOCK_RECORD
  5
92
330
1
100
AcDbSymbolTableRecord
100
AcDbBlockTableRecord
  2
KDIMARROW_11
340
0
 70
     0
280
     1
281
     0
  0
BLOCK_RECORD
  5
98
330
1
100
AcDbSymbolTableRecord
100
AcDbBlockTableRecord
  2
KDIMARROW_12
340
0
 70
     0
280
     1
281
     0
  0
BLOCK_RECORD
  5
9E
330
1
100
AcDbSymbolTableRecord
100
AcDbBlockTableRecord
  2
KDIMARROW_13
340
0
 70
     0
280
     1
281
     0
  0
BLOCK_RECORD
  5
A4
330
1
100
AcDbSymbolTableRecord
100
AcDbBlockTableRecord
  2
U0
340
0
102
{BLKREFS
331
A5
102
}
 70
     0
280
     1
281
     0
  0
BLOCK_RECORD
  5
AD
330
1
100
AcDbSymbolTableRecord
100
AcDbBlockTableRecord
  2
U1
340
0
102
{BLKREFS
331
AE
102
}
 70
     0
280
     1
281
     0
  0
BLOCK_RECORD
  5
B7
330
1
100
AcDbSymbolTableRecord
100
AcDbBlockTableRecord
  2
U2
340
0
102
{BLKREFS
331
B8
102
}
 70
     0
280
     1
281
     0
  0
BLOCK_RECORD
  5
BF
330
1
100
AcDbSymbolTableRecord
100
AcDbBlockTableRecord
  2
U3
340
0
102
{BLKREFS
331
C0
102
}
 70
     0
280
     1
281
     0
  0
BLOCK_RECORD
  5
EC
330
1
100
AcDbSymbolTableRecord
100
AcDbBlockTableRecord
  2
U4
340
0
102
{BLKREFS
331
ED
102
}
 70
     0
280
     1
281
     0
  0
BLOCK_RECORD
  5
F9
330
1
100
AcDbSymbolTableRecord
100
AcDbBlockTableRecord
  2
U5
340
0
102
{BLKREFS
331
FA
102
}
 70
     0
280
     1
281
     0
  0
BLOCK_RECORD
  5
101
330
1
100
AcDbSymbolTableRecord
100
AcDbBlockTableRecord
  2
U6
340
0
102
{BLKREFS
331
102
102
}
 70
     0
280
     1
281
     0
  0
BLOCK_RECORD
  5
117
330
1
100
AcDbSymbolTableRecord
100
AcDbBlockTableRecord
  2
U7
340
0
102
{BLKREFS
331
118
102
}
 70
     0
280
     1
281
     0
  0
BLOCK_RECORD
  5
11D
330
1
100
AcDbSymbolTableRecord
100
AcDbBlockTableRecord
  2
U8
340
0
102
{BLKREFS
331
11E
102
}
 70
     0
280
     1
281
     0
  0
BLOCK_RECORD
  5
127
330
1
100
AcDbSymbolTableRecord
100
AcDbBlockTableRecord
  2
U9
340
0
102
{BLKREFS
331
128
102
}
 70
     0
280
     1
281
     0
  0
BLOCK_RECORD
  5
132
330
1
100
AcDbSymbolTableRecord
100
AcDbBlockTableRecord
  2
U10
340
0
102
{BLKREFS
331
133
102
}
 70
     0
280
     1
281
     0
  0
BLOCK_RECORD
  5
147
330
1
100
AcDbSymbolTableRecord
100
AcDbBlockTableRecord
  2
U11
340
0
102
{BLKREFS
331
148
102
}
 70
     0
280
     1
281
     0
  0
BLOCK_RECORD
  5
15F
330
1
100
AcDbSymbolTableRecord
100
AcDbBlockTableRecord
  2
U12
340
0
102
{BLKREFS
331
160
102
}
 70
     0
280
     1
281
     0
  0
BLOCK_RECORD
  5
16A
330
1
100
AcDbSymbolTableRecord
100
AcDbBlockTableRecord
  2
U13
340
0
102
{BLKREFS
331
16B
102
}
 70
     0
280
     1
281
     0
  0
BLOCK_RECORD
  5
18C
330
1
100
AcDbSymbolTableRecord
100
AcDbBlockTableRecord
  2
U14
340
0
102
{BLKREFS
331
18D
102
}
 70
     0
280
     1
281
     0
  0
BLOCK_RECORD
  5
1A9
330
1
100
AcDbSymbolTableRecord
100
AcDbBlockTableRecord
  2
U15
340
0
102
{BLKREFS
331
1AA
102
}
 70
     0
280
     1
281
     0
  0
BLOCK_RECORD
  5
1B1
330
1
100
AcDbSymbolTableRecord
100
AcDbBlockTableRecord
  2
U16
340
0
102
{BLKREFS
331
1B2
102
}
 70
     0
280
     1
281
     0
  0
BLOCK_RECORD
  5
1BA
330
1
100
AcDbSymbolTableRecord
100
AcDbBlockTableRecord
  2
U17
340
0
102
{BLKREFS
331
1BB
102
}
 70
     0
280
     1
281
     0
  0
BLOCK_RECORD
  5
1C4
330
1
100
AcDbSymbolTableRecord
100
AcDbBlockTableRecord
  2
U18
340
0
102
{BLKREFS
331
1C5
102
}
 70
     0
280
     1
281
     0
  0
BLOCK_RECORD
  5
1CC
330
1
100
AcDbSymbolTableRecord
100
AcDbBlockTableRecord
  2
U19
340
0
102
{BLKREFS
331
1CD
102
}
 70
     0
280
     1
281
     0
  0
BLOCK_RECORD
  5
1D4
330
1
100
AcDbSymbolTableRecord
100
AcDbBlockTableRecord
  2
U20
340
0
102
{BLKREFS
331
1D5
102
}
 70
     0
280
     1
281
     0
  0
BLOCK_RECORD
  5
1E9
330
1
100
AcDbSymbolTableRecord
100
AcDbBlockTableRecord
  2
U21
340
0
102
{BLKREFS
331
1EA
102
}
 70
     0
280
     1
281
     0
  0
BLOCK_RECORD
  5
216
330
1
100
AcDbSymbolTableRecord
100
AcDbBlockTableRecord
  2
U22
340
0
102
{BLKREFS
331
217
102
}
 70
     0
280
     1
281
     0
  0
BLOCK_RECORD
  5
225
330
1
100
AcDbSymbolTableRecord
100
AcDbBlockTableRecord
  2
U23
340
0
102
{BLKREFS
331
226
102
}
 70
     0
280
     1
281
     0
  0
BLOCK_RECORD
  5
28D
330
1
100
AcDbSymbolTableRecord
100
AcDbBlockTableRecord
  2
U24
340
0
102
{BLKREFS
331
28E
102
}
 70
     0
280
     1
281
     0
  0
BLOCK_RECORD
  5
2C4
330
1
100
AcDbSymbolTableRecord
100
AcDbBlockTableRecord
  2
U25
340
0
102
{BLKREFS
331
2C5
102
}
 70
     0
280
     1
281
     0
  0
BLOCK_RECORD
  5
2E5
330
1
100
AcDbSymbolTableRecord
100
AcDbBlockTableRecord
  2
U26
340
0
102
{BLKREFS
331
2E6
102
}
 70
     0
280
     1
281
     0
  0
BLOCK_RECORD
  5
306
330
1
100
AcDbSymbolTableRecord
100
AcDbBlockTableRecord
  2
U27
340
0
102
{BLKREFS
331
307
102
}
 70
     0
280
     1
281
     0
  0
ENDTAB
  0
ENDSEC
  0
SECTION
  2
BLOCKS
  0
BLOCK
  5
20
330
1F
100
AcDbEntity
  8
0
100
AcDbBlockBegin
  2
*Model_Space
 70
     0
 10
0.0
 20
0.0
 30
0.0
  3
*Model_Space
  1

  0
ENDBLK
  5
21
330
1F
100
AcDbEntity
  8
0
100
AcDbBlockEnd
  0
BLOCK
  5
1C
330
1B
100
AcDbEntity
 67
     1
  8
0
100
AcDbBlockBegin
  2
*Paper_Space
 70
     0
 10
0.0
 20
0.0
 30
0.0
  3
*Paper_Space
  1

  0
ENDBLK
  5
1D
330
1B
100
AcDbEntity
 67
     1
  8
0
100
AcDbBlockEnd
  0
BLOCK
  5
24
330
23
100
AcDbEntity
  8
0
100
AcDbBlockBegin
  2
*Paper_Space0
 70
     0
 10
0.0
 20
0.0
 30
0.0
  3
*Paper_Space0
  1

  0
ENDBLK
  5
25
330
23
100
AcDbEntity
  8
0
100
AcDbBlockEnd
  0
BLOCK
  5
44
330
41
100
AcDbEntity
  8
0
100
AcDbBlockBegin
  2
KDIMARROW_00
 70
     0
 10
0.0
 20
0.0
 30
0.0
  3
KDIMARROW_00
  1

  0
LINE
  5
43
330
41
100
AcDbEntity
  8
0
  6
K5LT_THIN
 62
     0
370
    18
100
AcDbLine
 10
0.0
 20
0.0
 30
0.0
 11
-1.0
 21
0.0
 31
0.0
  0
ENDBLK
  5
45
330
41
100
AcDbEntity
  8
0
100
AcDbBlockEnd
  0
BLOCK
  5
4D
330
46
100
AcDbEntity
  8
0
100
AcDbBlockBegin
  2
KDIMARROW_01
 70
     0
 10
0.0
 20
0.0
 30
0.0
  3
KDIMARROW_01
  1

  0
LINE
  5
47
330
46
100
AcDbEntity
  8
0
  6
K5LT_THIN
 62
     0
370
    18
100
AcDbLine
 10
0.0
 20
0.0
 30
0.0
 11
-5.000000000000002
 21
-0.6582624912261958
 31
0.0
  0
LINE
  5
48
330
46
100
AcDbEntity
  8
0
  6
K5LT_THIN
 62
     0
370
    18
100
AcDbLine
 10
-5.0
 20
-0.6582624912261956
 30
0.0
 11
-4.5
 21
0.0000000000000004
 31
0.0
  0
LINE
  5
49
330
46
100
AcDbEntity
  8
0
  6
K5LT_THIN
 62
     0
370
    18
100
AcDbLine
 10
-4.5
 20
0.0000000000000006
 30
0.0
 11
-5.0
 21
0.658262491226197
 31
0.0
  0
LINE
  5
4A
330
46
100
AcDbEntity
  8
0
  6
K5LT_THIN
 62
     0
370
    18
100
AcDbLine
 10
-5.0
 20
0.658262491226197
 30
0.0
 11
0.0000000000000018
 21
0.0
 31
0.0
  0
HATCH
  5
4B
330
46
100
AcDbEntity
  8
0
 62
     0
100
AcDbHatch
 10
0.0
 20
0.0
 30
0.0
210
0.0
220
0.0
230
1.0
  2
SOLID
 70
     1
 71
     0
 91
        1
 92
        1
 93
        4
 72
     1
 10
-5.000000000000002
 20
-0.6582624912261958
 11
0.0
 21
0.0
 72
     1
 10
0.0000000000000018
 20
0.0
 11
-5.0
 21
0.658262491226197
 72
     1
 10
-5.0
 20
0.658262491226197
 11
-4.5
 21
0.0000000000000007
 72
     1
 10
-4.5
 20
0.0000000000000004
 11
-5.0
 21
-0.6582624912261956
 97
        0
 75
     0
 76
     1
 98
        0
  0
LINE
  5
4C
330
46
100
AcDbEntity
  8
0
  6
K5LT_THIN
 62
     0
370
    18
100
AcDbLine
 10
0.0
 20
0.0
 30
0.0
 11
-1.0
 21
0.0
 31
0.0
  0
ENDBLK
  5
4E
330
46
100
AcDbEntity
  8
0
100
AcDbBlockEnd
  0
BLOCK
  5
57
330
4F
100
AcDbEntity
  8
0
100
AcDbBlockBegin
  2
KDIMARROW_02
 70
     0
 10
0.0
 20
0.0
 30
0.0
  3
KDIMARROW_02
  1

  0
LINE
  5
50
330
4F
100
AcDbEntity
  8
0
  6
K5LT_THIN
 62
     0
370
    18
100
AcDbLine
 10
0.0
 20
0.0
 30
0.0
 11
5.000000000000002
 21
-0.658262491226197
 31
0.0
  0
LINE
  5
51
330
4F
100
AcDbEntity
  8
0
  6
K5LT_THIN
 62
     0
370
    18
100
AcDbLine
 10
5.0
 20
-0.658262491226197
 30
0.0
 11
4.5
 21
-0.0000000000000006
 31
0.0
  0
LINE
  5
52
330
4F
100
AcDbEntity
  8
0
  6
K5LT_THIN
 62
     0
370
    18
100
AcDbLine
 10
4.5
 20
-0.0000000000000006
 30
0.0
 11
5.0
 21
0.6582624912261955
 31
0.0
  0
LINE
  5
53
330
4F
100
AcDbEntity
  8
0
  6
K5LT_THIN
 62
     0
370
    18
100
AcDbLine
 10
5.0
 20
0.6582624912261956
 30
0.0
 11
-0.0000000000000018
 21
-0.0000000000000002
 31
0.0
  0
LINE
  5
54
330
4F
100
AcDbEntity
  8
0
  6
K5LT_THIN
 62
     0
370
    18
100
AcDbLine
 10
0.0
 20
0.0
 30
0.0
 11
7.0
 21
-0.0000000000000009
 31
0.0
  0
HATCH
  5
55
330
4F
100
AcDbEntity
  8
0
 62
     0
100
AcDbHatch
 10
0.0
 20
0.0
 30
0.0
210
0.0
220
0.0
230
1.0
  2
SOLID
 70
     1
 71
     0
 91
        1
 92
        1
 93
        4
 72
     1
 10
4.5
 20
-0.0000000000000006
 11
5.0
 21
0.6582624912261955
 72
     1
 10
5.0
 20
0.6582624912261956
 11
-0.0000000000000018
 21
-0.0000000000000002
 72
     1
 10
0.0
 20
0.0
 11
5.000000000000002
 21
-0.658262491226197
 72
     1
 10
5.0
 20
-0.658262491226197
 11
4.5
 21
-0.0000000000000007
 97
        0
 75
     0
 76
     1
 98
        0
  0
LINE
  5
56
330
4F
100
AcDbEntity
  8
0
  6
K5LT_THIN
 62
     0
370
    18
100
AcDbLine
 10
0.0
 20
0.0
 30
0.0
 11
-1.0
 21
0.0
 31
0.0
  0
ENDBLK
  5
58
330
4F
100
AcDbEntity
  8
0
100
AcDbBlockEnd
  0
BLOCK
  5
5D
330
59
100
AcDbEntity
  8
0
100
AcDbBlockBegin
  2
KDIMARROW_03
 70
     0
 10
0.0
 20
0.0
 30
0.0
  3
KDIMARROW_03
  1

  0
LINE
  5
5A
330
59
100
AcDbEntity
  8
0
  6
K5LT_THIN
 62
     0
370
    18
100
AcDbLine
 10
-1.060500025749207
 20
-1.060500025749206
 30
0.0
 11
1.060500025749205
 21
1.060500025749205
 31
0.0
  0
LINE
  5
5B
330
59
100
AcDbEntity
  8
0
  6
K5LT_THIN
 62
     0
370
    18
100
AcDbLine
 10
0.0
 20
0.0
 30
0.0
 11
2.0
 21
-0.0000000000000002
 31
0.0
  0
LINE
  5
5C
330
59
100
AcDbEntity
  8
0
  6
K5LT_THIN
 62
     0
370
    18
100
AcDbLine
 10
0.0
 20
0.0
 30
0.0
 11
-1.0
 21
0.0
 31
0.0
  0
ENDBLK
  5
5E
330
59
100
AcDbEntity
  8
0
100
AcDbBlockEnd
  0
BLOCK
  5
63
330
5F
100
AcDbEntity
  8
0
100
AcDbBlockBegin
  2
KDIMARROW_04
 70
     0
 10
0.0
 20
0.0
 30
0.0
  3
KDIMARROW_04
  1

  0
LWPOLYLINE
  5
60
330
5F
100
AcDbEntity
  8
0
  6
K5LT_THIN
 62
     7
100
AcDbPolyline
 90
       15
 70
     0
 43
0.18
 10
-0.25
 20
0.0
 10
0.0
 20
-0.25
 10
0.25
 20
0.0
 10
0.0
 20
0.25
 10
-0.25
 20
0.0
 10
-0.5
 20
0.0000000000000001
 10
-0.0000000000000001
 20
-0.5
 10
0.5
 20
-0.0000000000000001
 10
0.0000000000000001
 20
0.5
 10
-0.5
 20
0.0000000000000001
 10
-0.75
 20
0.0000000000000001
 10
-0.0000000000000001
 20
-0.75
 10
0.75
 20
-0.0000000000000001
 10
0.0000000000000001
 20
0.75
 10
-0.7499999999999999
 20
0.0000000000000001
  0
LWPOLYLINE
  5
61
330
5F
100
AcDbEntity
  8
0
  6
K5LT_THIN
 62
     7
100
AcDbPolyline
 90
       15
 70
     0
 43
0.18
 10
-0.25
 20
0.0
 10
0.0
 20
-0.25
 10
0.25
 20
0.0
 10
0.0
 20
0.25
 10
-0.25
 20
0.0
 10
-0.5
 20
0.0000000000000001
 10
-0.0000000000000001
 20
-0.5
 10
0.5
 20
-0.0000000000000001
 10
0.0000000000000001
 20
0.5
 10
-0.5
 20
0.0000000000000001
 10
-0.75
 20
0.0000000000000001
 10
-0.0000000000000001
 20
-0.75
 10
0.75
 20
-0.0000000000000001
 10
0.0000000000000001
 20
0.75
 10
-0.7499999999999999
 20
0.0000000000000001
  0
LINE
  5
62
330
5F
100
AcDbEntity
  8
0
  6
K5LT_THIN
 62
     0
370
    18
100
AcDbLine
 10
0.0
 20
0.0
 30
0.0
 11
-1.0
 21
0.0
 31
0.0
  0
ENDBLK
  5
64
330
5F
100
AcDbEntity
  8
0
100
AcDbBlockEnd
  0
BLOCK
  5
6C
330
65
100
AcDbEntity
  8
0
100
AcDbBlockBegin
  2
KDIMARROW_05
 70
     0
 10
0.0
 20
0.0
 30
0.0
  3
KDIMARROW_05
  1

  0
LINE
  5
66
330
65
100
AcDbEntity
  8
0
  6
K5LT_THIN
 62
     0
370
    18
100
AcDbLine
 10
0.0
 20
0.0
 30
0.0
 11
-5.000000000000002
 21
-0.6582624912261958
 31
0.0
  0
LINE
  5
67
330
65
100
AcDbEntity
  8
0
  6
K5LT_THIN
 62
     0
370
    18
100
AcDbLine
 10
-5.0
 20
-0.6582624912261956
 30
0.0
 11
-5.0
 21
0.0000000000000007
 31
0.0
  0
LINE
  5
68
330
65
100
AcDbEntity
  8
0
  6
K5LT_THIN
 62
     0
370
    18
100
AcDbLine
 10
-5.0
 20
0.0000000000000006
 30
0.0
 11
-5.0
 21
0.658262491226197
 31
0.0
  0
LINE
  5
69
330
65
100
AcDbEntity
  8
0
  6
K5LT_THIN
 62
     0
370
    18
100
AcDbLine
 10
-5.0
 20
0.658262491226197
 30
0.0
 11
0.0000000000000018
 21
0.0
 31
0.0
  0
HATCH
  5
6A
330
65
100
AcDbEntity
  8
0
 62
     0
100
AcDbHatch
 10
0.0
 20
0.0
 30
0.0
210
0.0
220
0.0
230
1.0
  2
SOLID
 70
     1
 71
     0
 91
        1
 92
        1
 93
        4
 72
     1
 10
0.0000000000000018
 20
0.0
 11
-5.0
 21
0.658262491226197
 72
     1
 10
-5.0
 20
0.658262491226197
 11
-5.0
 21
0.0000000000000007
 72
     1
 10
-5.0
 20
0.0000000000000007
 11
-5.0
 21
-0.6582624912261956
 72
     1
 10
-5.000000000000002
 20
-0.6582624912261958
 11
0.0
 21
0.0
 97
        0
 75
     0
 76
     1
 98
        0
  0
LINE
  5
6B
330
65
100
AcDbEntity
  8
0
  6
K5LT_THIN
 62
     0
370
    18
100
AcDbLine
 10
0.0
 20
0.0
 30
0.0
 11
-1.0
 21
0.0
 31
0.0
  0
ENDBLK
  5
6D
330
65
100
AcDbEntity
  8
0
100
AcDbBlockEnd
  0
BLOCK
  5
76
330
6E
100
AcDbEntity
  8
0
100
AcDbBlockBegin
  2
KDIMARROW_06
 70
     0
 10
0.0
 20
0.0
 30
0.0
  3
KDIMARROW_06
  1

  0
LINE
  5
6F
330
6E
100
AcDbEntity
  8
0
  6
K5LT_THIN
 62
     0
370
    18
100
AcDbLine
 10
0.0
 20
0.0
 30
0.0
 11
5.000000000000002
 21
-0.658262491226197
 31
0.0
  0
LINE
  5
70
330
6E
100
AcDbEntity
  8
0
  6
K5LT_THIN
 62
     0
370
    18
100
AcDbLine
 10
5.0
 20
-0.658262491226197
 30
0.0
 11
5.0
 21
-0.0000000000000007
 31
0.0
  0
LINE
  5
71
330
6E
100
AcDbEntity
  8
0
  6
K5LT_THIN
 62
     0
370
    18
100
AcDbLine
 10
5.0
 20
-0.0000000000000006
 30
0.0
 11
5.0
 21
0.6582624912261956
 31
0.0
  0
LINE
  5
72
330
6E
100
AcDbEntity
  8
0
  6
K5LT_THIN
 62
     0
370
    18
100
AcDbLine
 10
5.0
 20
0.6582624912261956
 30
0.0
 11
-0.0000000000000018
 21
-0.0000000000000002
 31
0.0
  0
LINE
  5
73
330
6E
100
AcDbEntity
  8
0
  6
K5LT_THIN
 62
     0
370
    18
100
AcDbLine
 10
0.0
 20
0.0
 30
0.0
 11
7.0
 21
-0.0000000000000009
 31
0.0
  0
HATCH
  5
74
330
6E
100
AcDbEntity
  8
0
 62
     0
100
AcDbHatch
 10
0.0
 20
0.0
 30
0.0
210
0.0
220
0.0
230
1.0
  2
SOLID
 70
     1
 71
     0
 91
        1
 92
        1
 93
        4
 72
     1
 10
5.0
 20
-0.0000000000000006
 11
5.0
 21
0.6582624912261956
 72
     1
 10
5.0
 20
0.6582624912261956
 11
-0.0000000000000018
 21
-0.0000000000000002
 72
     1
 10
0.0
 20
0.0
 11
5.000000000000002
 21
-0.658262491226197
 72
     1
 10
5.0
 20
-0.658262491226197
 11
5.0
 21
-0.0000000000000007
 97
        0
 75
     0
 76
     1
 98
        0
  0
LINE
  5
75
330
6E
100
AcDbEntity
  8
0
  6
K5LT_THIN
 62
     0
370
    18
100
AcDbLine
 10
0.0
 20
0.0
 30
0.0
 11
-1.0
 21
0.0
 31
0.0
  0
ENDBLK
  5
77
330
6E
100
AcDbEntity
  8
0
100
AcDbBlockEnd
  0
BLOCK
  5
7C
330
78
100
AcDbEntity
  8
0
100
AcDbBlockBegin
  2
KDIMARROW_07
 70
     0
 10
0.0
 20
0.0
 30
0.0
  3
KDIMARROW_07
  1

  0
LINE
  5
79
330
78
100
AcDbEntity
  8
0
  6
K5LT_THIN
 62
     0
370
    18
100
AcDbLine
 10
0.0
 20
0.0
 30
0.0
 11
-5.000000000000002
 21
-0.6582624912261958
 31
0.0
  0
LINE
  5
7A
330
78
100
AcDbEntity
  8
0
  6
K5LT_THIN
 62
     0
370
    18
100
AcDbLine
 10
0.0
 20
0.0
 30
0.0
 11
-5.000000000000002
 21
0.658262491226197
 31
0.0
  0
LINE
  5
7B
330
78
100
AcDbEntity
  8
0
  6
K5LT_THIN
 62
     0
370
    18
100
AcDbLine
 10
0.0
 20
0.0
 30
0.0
 11
-1.0
 21
0.0
 31
0.0
  0
ENDBLK
  5
7D
330
78
100
AcDbEntity
  8
0
100
AcDbBlockEnd
  0
BLOCK
  5
83
330
7E
100
AcDbEntity
  8
0
100
AcDbBlockBegin
  2
KDIMARROW_08
 70
     0
 10
0.0
 20
0.0
 30
0.0
  3
KDIMARROW_08
  1

  0
LINE
  5
7F
330
7E
100
AcDbEntity
  8
0
  6
K5LT_THIN
 62
     0
370
    18
100
AcDbLine
 10
0.0
 20
0.0
 30
0.0
 11
5.000000000000002
 21
-0.658262491226197
 31
0.0
  0
LINE
  5
80
330
7E
100
AcDbEntity
  8
0
  6
K5LT_THIN
 62
     0
370
    18
100
AcDbLine
 10
0.0
 20
0.0
 30
0.0
 11
5.000000000000002
 21
0.6582624912261958
 31
0.0
  0
LINE
  5
81
330
7E
100
AcDbEntity
  8
0
  6
K5LT_THIN
 62
     0
370
    18
100
AcDbLine
 10
0.0
 20
0.0
 30
0.0
 11
7.0
 21
-0.0000000000000009
 31
0.0
  0
LINE
  5
82
330
7E
100
AcDbEntity
  8
0
  6
K5LT_THIN
 62
     0
370
    18
100
AcDbLine
 10
0.0
 20
0.0
 30
0.0
 11
-1.0
 21
0.0
 31
0.0
  0
ENDBLK
  5
84
330
7E
100
AcDbEntity
  8
0
100
AcDbBlockEnd
  0
BLOCK
  5
89
330
85
100
AcDbEntity
  8
0
100
AcDbBlockBegin
  2
KDIMARROW_09
 70
     0
 10
0.0
 20
0.0
 30
0.0
  3
KDIMARROW_09
  1

  0
LINE
  5
86
330
85
100
AcDbEntity
  8
0
  6
K5LT_THIN
 62
     0
370
    18
100
AcDbLine
 10
0.0
 20
0.0
 30
0.0
 11
-1.999999999999999
 21
-1.999999999999999
 31
0.0
  0
LINE
  5
87
330
85
100
AcDbEntity
  8
0
  6
K5LT_THIN
 62
     0
370
    18
100
AcDbLine
 10
0.0
 20
0.0
 30
0.0
 11
-1.999999999999999
 21
1.999999999999999
 31
0.0
  0
LINE
  5
88
330
85
100
AcDbEntity
  8
0
  6
K5LT_THIN
 62
     0
370
    18
100
AcDbLine
 10
0.0
 20
0.0
 30
0.0
 11
-1.0
 21
0.0
 31
0.0
  0
ENDBLK
  5
8A
330
85
100
AcDbEntity
  8
0
100
AcDbBlockEnd
  0
BLOCK
  5
90
330
8B
100
AcDbEntity
  8
0
100
AcDbBlockBegin
  2
KDIMARROW_10
 70
     0
 10
0.0
 20
0.0
 30
0.0
  3
KDIMARROW_10
  1

  0
LINE
  5
8C
330
8B
100
AcDbEntity
  8
0
  6
K5LT_THIN
 62
     0
370
    18
100
AcDbLine
 10
0.0
 20
0.0
 30
0.0
 11
1.999999999999999
 21
-1.999999999999999
 31
0.0
  0
LINE
  5
8D
330
8B
100
AcDbEntity
  8
0
  6
K5LT_THIN
 62
     0
370
    18
100
AcDbLine
 10
0.0
 20
0.0
 30
0.0
 11
1.999999999999999
 21
1.999999999999999
 31
0.0
  0
LINE
  5
8E
330
8B
100
AcDbEntity
  8
0
  6
K5LT_THIN
 62
     0
370
    18
100
AcDbLine
 10
0.0
 20
0.0
 30
0.0
 11
4.0
 21
-0.0000000000000005
 31
0.0
  0
LINE
  5
8F
330
8B
100
AcDbEntity
  8
0
  6
K5LT_THIN
 62
     0
370
    18
100
AcDbLine
 10
0.0
 20
0.0
 30
0.0
 11
-1.0
 21
0.0
 31
0.0
  0
ENDBLK
  5
91
330
8B
100
AcDbEntity
  8
0
100
AcDbBlockEnd
  0
BLOCK
  5
96
330
92
100
AcDbEntity
  8
0
100
AcDbBlockBegin
  2
KDIMARROW_11
 70
     0
 10
0.0
 20
0.0
 30
0.0
  3
KDIMARROW_11
  1

  0
CIRCLE
  5
93
330
92
100
AcDbEntity
  8
0
  6
K5LT_THIN
 62
     0
370
    18
100
AcDbCircle
 10
0.0
 20
0.0
 30
0.0
 40
2.5
  0
CIRCLE
  5
94
330
92
100
AcDbEntity
  8
0
  6
K5LT_THIN
 62
     0
370
    18
100
AcDbCircle
 10
0.0
 20
0.0
 30
0.0
 40
2.5
  0
LINE
  5
95
330
92
100
AcDbEntity
  8
0
  6
K5LT_THIN
 62
     0
370
    18
100
AcDbLine
 10
0.0
 20
0.0
 30
0.0
 11
-1.0
 21
0.0
 31
0.0
  0
ENDBLK
  5
97
330
92
100
AcDbEntity
  8
0
100
AcDbBlockEnd
  0
BLOCK
  5
9C
330
98
100
AcDbEntity
  8
0
100
AcDbBlockBegin
  2
KDIMARROW_12
 70
     0
 10
0.0
 20
0.0
 30
0.0
  3
KDIMARROW_12
  1

  0
CIRCLE
  5
99
330
98
100
AcDbEntity
  8
0
  6
K5LT_THIN
 62
     0
370
    18
100
AcDbCircle
 10
0.0
 20
0.0
 30
0.0
 40
1.5
  0
CIRCLE
  5
9A
330
98
100
AcDbEntity
  8
0
  6
K5LT_THIN
 62
     0
370
    18
100
AcDbCircle
 10
0.0
 20
0.0
 30
0.0
 40
1.5
  0
LINE
  5
9B
330
98
100
AcDbEntity
  8
0
  6
K5LT_THIN
 62
     0
370
    18
100
AcDbLine
 10
0.0
 20
0.0
 30
0.0
 11
-1.0
 21
0.0
 31
0.0
  0
ENDBLK
  5
9D
330
98
100
AcDbEntity
  8
0
100
AcDbBlockEnd
  0
BLOCK
  5
A2
330
9E
100
AcDbEntity
  8
0
100
AcDbBlockBegin
  2
KDIMARROW_13
 70
     0
 10
0.0
 20
0.0
 30
0.0
  3
KDIMARROW_13
  1

  0
LINE
  5
9F
330
9E
100
AcDbEntity
  8
0
  6
K5LT_THIN
 62
     0
370
    18
100
AcDbLine
 10
-1.060500025749206
 20
1.060500025749207
 30
0.0
 11
1.060500025749205
 21
-1.060500025749205
 31
0.0
  0
LINE
  5
A0
330
9E
100
AcDbEntity
  8
0
  6
K5LT_THIN
 62
     0
370
    18
100
AcDbLine
 10
0.0
 20
0.0
 30
0.0
 11
2.0
 21
-0.0000000000000002
 31
0.0
  0
LINE
  5
A1
330
9E
100
AcDbEntity
  8
0
  6
K5LT_THIN
 62
     0
370
    18
100
AcDbLine
 10
0.0
 20
0.0
 30
0.0
 11
-1.0
 21
0.0
 31
0.0
  0
ENDBLK
  5
A3
330
9E
100
AcDbEntity
  8
0
100
AcDbBlockEnd
  0
BLOCK
  5
AB
330
A4
100
AcDbEntity
  8
0
100
AcDbBlockBegin
  2
U0
 70
     0
 10
0.0
 20
0.0
 30
0.0
  3
U0
  1

  0
LINE
  5
A7
330
A4
100
AcDbEntity
  8
0
  6
K5LT_AXLED
 62
    30
420
 16744448
370
    18
100
AcDbLine
 10
246.4079716874261
 20
35.83360673013931
 30
0.0
 11
249.1079716978569
 21
35.83360673013931
 31
0.0
  0
LINE
  5
A8
330
A4
100
AcDbEntity
  8
0
  6
K5LT_AXLED
 62
    30
420
 16744448
370
    18
100
AcDbLine
 10
246.4079716874261
 20
35.83360673013931
 30
0.0
 11
243.7079716769952
 21
35.83360673013931
 31
0.0
  0
LINE
  5
A9
330
A4
100
AcDbEntity
  8
0
  6
K5LT_AXLED
 62
    30
420
 16744448
370
    18
100
AcDbLine
 10
246.4079716874261
 20
35.83360673013931
 30
0.0
 11
246.4079716874261
 21
38.53360674057012
 31
0.0
  0
LINE
  5
AA
330
A4
100
AcDbEntity
  8
0
  6
K5LT_AXLED
 62
    30
420
 16744448
370
    18
100
AcDbLine
 10
246.4079716874261
 20
35.83360673013931
 30
0.0
 11
246.4079716874261
 21
33.1336067197085
 31
0.0
  0
ENDBLK
  5
AC
330
A4
100
AcDbEntity
  8
0
100
AcDbBlockEnd
  0
BLOCK
  5
B3
330
AD
100
AcDbEntity
  8
0
100
AcDbBlockBegin
  2
U1
 70
     0
 10
0.0
 20
0.0
 30
0.0
  3
U1
  1

  0
LINE
  5
AF
330
AD
100
AcDbEntity
  8
0
  6
K5LT_AXLED
 62
    30
420
 16744448
370
    18
100
AcDbLine
 10
233.8235563407388
 20
26.96936121208284
 30
0.0
 11
242.8235564450469
 21
26.96936121208284
 31
0.0
  0
LINE
  5
B0
330
AD
100
AcDbEntity
  8
0
  6
K5LT_AXLED
 62
    30
420
 16744448
370
    18
100
AcDbLine
 10
233.8235563407388
 20
26.96936121208284
 30
0.0
 11
224.8235562364307
 21
26.96936121208284
 31
0.0
  0
LINE
  5
B1
330
AD
100
AcDbEntity
  8
0
  6
K5LT_AXLED
 62
    30
420
 16744448
370
    18
100
AcDbLine
 10
233.8235563407388
 20
26.96936121208284
 30
0.0
 11
233.8235563407388
 21
35.96936131639097
 31
0.0
  0
LINE
  5
B2
330
AD
100
AcDbEntity
  8
0
  6
K5LT_AXLED
 62
    30
420
 16744448
370
    18
100
AcDbLine
 10
233.8235563407388
 20
26.96936121208284
 30
0.0
 11
233.8235563407388
 21
17.96936110777472
 31
0.0
  0
ENDBLK
  5
B4
330
AD
100
AcDbEntity
  8
0
100
AcDbBlockEnd
  0
BLOCK
  5
BD
330
B7
100
AcDbEntity
  8
0
100
AcDbBlockBegin
  2
U2
 70
     0
 10
0.0
 20
0.0
 30
0.0
  3
U2
  1

  0
LINE
  5
B9
330
B7
100
AcDbEntity
  8
0
  6
K5LT_AXLED
 62
    30
420
 16744448
370
    18
100
AcDbLine
 10
239.6079715860982
 20
-27.47875185203293
 30
0.0
 11
242.307971596529
 21
-27.47875185203293
 31
0.0
  0
LINE
  5
BA
330
B7
100
AcDbEntity
  8
0
  6
K5LT_AXLED
 62
    30
420
 16744448
370
    18
100
AcDbLine
 10
239.6079715860982
 20
-27.47875185203293
 30
0.0
 11
236.9079715756673
 21
-27.47875185203293
 31
0.0
  0
LINE
  5
BB
330
B7
100
AcDbEntity
  8
0
  6
K5LT_AXLED
 62
    30
420
 16744448
370
    18
100
AcDbLine
 10
239.6079715860982
 20
-27.47875185203293
 30
0.0
 11
239.6079715860982
 21
-24.77875184160212
 31
0.0
  0
LINE
  5
BC
330
B7
100
AcDbEntity
  8
0
  6
K5LT_AXLED
 62
    30
420
 16744448
370
    18
100
AcDbLine
 10
239.6079715860982
 20
-27.47875185203293
 30
0.0
 11
239.6079715860982
 21
-30.17875186246374
 31
0.0
  0
ENDBLK
  5
BE
330
B7
100
AcDbEntity
  8
0
100
AcDbBlockEnd
  0
BLOCK
  5
C5
330
BF
100
AcDbEntity
  8
0
100
AcDbBlockBegin
  2
U3
 70
     0
 10
0.0
 20
0.0
 30
0.0
  3
U3
  1

  0
LINE
  5
C1
330
BF
100
AcDbEntity
  8
0
  6
K5LT_AXLED
 62
    30
420
 16744448
370
    18
100
AcDbLine
 10
233.8235563407388
 20
-36.34299737008939
 30
0.0
 11
242.8235564450469
 21
-36.34299737008939
 31
0.0
  0
LINE
  5
C2
330
BF
100
AcDbEntity
  8
0
  6
K5LT_AXLED
 62
    30
420
 16744448
370
    18
100
AcDbLine
 10
233.8235563407388
 20
-36.34299737008939
 30
0.0
 11
224.8235562364307
 21
-36.34299737008939
 31
0.0
  0
LINE
  5
C3
330
BF
100
AcDbEntity
  8
0
  6
K5LT_AXLED
 62
    30
420
 16744448
370
    18
100
AcDbLine
 10
233.8235563407388
 20
-36.34299737008939
 30
0.0
 11
233.8235563407388
 21
-27.34299726578126
 31
0.0
  0
LINE
  5
C4
330
BF
100
AcDbEntity
  8
0
  6
K5LT_AXLED
 62
    30
420
 16744448
370
    18
100
AcDbLine
 10
233.8235563407388
 20
-36.34299737008939
 30
0.0
 11
233.8235563407388
 21
-45.34299747439752
 31
0.0
  0
ENDBLK
  5
C6
330
BF
100
AcDbEntity
  8
0
100
AcDbBlockEnd
  0
BLOCK
  5
F4
330
EC
100
AcDbEntity
  8
0
100
AcDbBlockBegin
  2
U4
 70
     0
 10
0.0
 20
0.0
 30
0.0
  3
U4
  1

  0
LINE
  5
EE
330
EC
100
AcDbEntity
  8
0
  6
K5LT_THIN
 62
     7
370
    18
100
AcDbLine
 10
257.7443259805841
 20
-27.41982604306065
 30
0.0
 11
262.7443259805841
 21
-26.76156355183446
 31
0.0
  0
LINE
  5
EF
330
EC
100
AcDbEntity
  8
0
  6
K5LT_THIN
 62
     7
370
    18
100
AcDbLine
 10
262.7443259805841
 20
-26.76156355183446
 30
0.0
 11
262.2443259805841
 21
-27.41982604306065
 31
0.0
  0
LINE
  5
F0
330
EC
100
AcDbEntity
  8
0
  6
K5LT_THIN
 62
     7
370
    18
100
AcDbLine
 10
262.2443259805841
 20
-27.41982604306065
 30
0.0
 11
262.7443259805841
 21
-28.07808853428685
 31
0.0
  0
LINE
  5
F1
330
EC
100
AcDbEntity
  8
0
  6
K5LT_THIN
 62
     7
370
    18
100
AcDbLine
 10
262.7443259805841
 20
-28.07808853428685
 30
0.0
 11
257.7443259805841
 21
-27.41982604306065
 31
0.0
  0
HATCH
  5
F2
330
EC
100
AcDbEntity
  8
0
 62
     7
100
AcDbHatch
 10
0.0
 20
0.0
 30
0.0
210
0.0
220
0.0
230
1.0
  2
SOLID
 70
     1
 71
     0
 91
        1
 92
        1
 93
        4
 72
     1
 10
262.2443259805841
 20
-27.41982604306065
 11
262.7443259805841
 21
-26.76156355183446
 72
     1
 10
262.7443259805841
 20
-26.76156355183446
 11
257.7443259805841
 21
-27.41982604306065
 72
     1
 10
257.7443259805841
 20
-27.41982604306065
 11
262.7443259805841
 21
-28.07808853428685
 72
     1
 10
262.7443259805841
 20
-28.07808853428685
 11
262.2443259805841
 21
-27.41982604306065
 97
        0
 75
     0
 76
     1
 98
        0
  0
LINE
  5
F3
330
EC
100
AcDbEntity
  8
0
  6
K5LT_THIN
 62
     7
370
    18
100
AcDbLine
 10
272.4228859071295
 20
-27.41982604306065
 30
0.0
 11
257.7443259805841
 21
-27.41982604306065
 31
0.0
  0
ENDBLK
  5
F5
330
EC
100
AcDbEntity
  8
0
100
AcDbBlockEnd
  0
BLOCK
  5
FF
330
F9
100
AcDbEntity
  8
0
100
AcDbBlockBegin
  2
U5
 70
     0
 10
0.0
 20
0.0
 30
0.0
  3
U5
  1

  0
LINE
  5
FB
330
F9
100
AcDbEntity
  8
0
  6
K5LT_AXLED
 62
    30
420
 16744448
370
    18
100
AcDbLine
 10
282.3645848693168
 20
35.83360673013931
 30
0.0
 11
288.2645849274313
 21
35.83360673013931
 31
0.0
  0
LINE
  5
FC
330
F9
100
AcDbEntity
  8
0
  6
K5LT_AXLED
 62
    30
420
 16744448
370
    18
100
AcDbLine
 10
282.3645848693168
 20
35.83360673013931
 30
0.0
 11
276.4645848112023
 21
35.83360673013931
 31
0.0
  0
LINE
  5
FD
330
F9
100
AcDbEntity
  8
0
  6
K5LT_AXLED
 62
    30
420
 16744448
370
    18
100
AcDbLine
 10
282.3645848693168
 20
35.83360673013931
 30
0.0
 11
282.3645848693168
 21
41.73360678825384
 31
0.0
  0
LINE
  5
FE
330
F9
100
AcDbEntity
  8
0
  6
K5LT_AXLED
 62
    30
420
 16744448
370
    18
100
AcDbLine
 10
282.3645848693168
 20
35.83360673013931
 30
0.0
 11
282.3645848693168
 21
29.93360667202478
 31
0.0
  0
ENDBLK
  5
100
330
F9
100
AcDbEntity
  8
0
100
AcDbBlockEnd
  0
BLOCK
  5
114
330
101
100
AcDbEntity
  8
0
100
AcDbBlockBegin
  2
U6
 70
     0
 10
0.0
 20
0.0
 30
0.0
  3
U6
  1

  0
MTEXT
  5
103
330
101
100
AcDbEntity
  8
0
 62
     7
100
AcDbMText
 10
219.0016812453714
 20
2.682247557059783
 30
0.0
 40
0.0
 41
0.0
 46
0.0
 71
     1
 72
     1
  1
\H3.5;\W0.965;\Q15;\Q0;\H10.00;А
  7
KTEXTSTYLE
 73
     1
 44
1.0
  0
MTEXT
  5
104
330
101
100
AcDbEntity
  8
0
 62
     7
100
AcDbMText
 10
219.0016812453714
 20
69.83811223495672
 30
0.0
 40
0.0
 41
0.0
 46
0.0
 71
     1
 72
     1
  1
\H3.5;\W0.965;\Q15;\Q0;\H10.00;А
  7
KTEXTSTYLE
 73
     1
 44
1.0
  0
LINE
  5
106
330
101
100
AcDbEntity
  8
0
  6
K5LT_REINFORCED
 62
   134
420
    38550
370
   100
100
AcDbLine
 10
233.8235563407388
 20
0.8847068923869301
 30
0.0
 11
233.8235563407388
 21
12.88470689238693
 31
0.0
  0
LINE
  5
107
330
101
100
AcDbEntity
  8
0
  6
K5LT_REINFORCED
 62
   134
420
    38550
370
   100
100
AcDbLine
 10
233.8235563407388
 20
47.76894533622931
 30
0.0
 11
233.8235563407388
 21
59.76894533622931
 31
0.0
  0
LINE
  5
108
330
101
100
AcDbEntity
  8
0
  6
K5LT_THIN
 62
     7
370
    18
100
AcDbLine
 10
233.8235563407388
 20
3.88470689238693
 30
0.0
 11
226.3235563407388
 21
2.897313155547637
 31
0.0
  0
LINE
  5
109
330
101
100
AcDbEntity
  8
0
  6
K5LT_THIN
 62
     7
370
    18
100
AcDbLine
 10
226.3235563407388
 20
2.897313155547637
 30
0.0
 11
227.0735563407388
 21
3.884706892386931
 31
0.0
  0
LINE
  5
10A
330
101
100
AcDbEntity
  8
0
  6
K5LT_THIN
 62
     7
370
    18
100
AcDbLine
 10
227.0735563407388
 20
3.884706892386931
 30
0.0
 11
226.3235563407388
 21
4.872100629226225
 31
0.0
  0
LINE
  5
10B
330
101
100
AcDbEntity
  8
0
  6
K5LT_THIN
 62
     7
370
    18
100
AcDbLine
 10
226.3235563407388
 20
4.872100629226225
 30
0.0
 11
233.8235563407388
 21
3.884706892386931
 31
0.0
  0
HATCH
  5
10C
330
101
100
AcDbEntity
  8
0
 62
     7
100
AcDbHatch
 10
0.0
 20
0.0
 30
0.0
210
0.0
220
0.0
230
1.0
  2
SOLID
 70
     1
 71
     0
 91
        1
 92
        1
 93
        4
 72
     1
 10
226.3235563407388
 20
2.897313155547637
 11
233.8235563407388
 21
3.88470689238693
 72
     1
 10
233.8235563407388
 20
3.884706892386931
 11
226.3235563407388
 21
4.872100629226225
 72
     1
 10
226.3235563407388
 20
4.872100629226225
 11
227.0735563407388
 21
3.884706892386931
 72
     1
 10
227.0735563407388
 20
3.884706892386931
 11
226.3235563407388
 21
2.897313155547637
 97
        0
 75
     0
 76
     1
 98
        0
  0
LINE
  5
10D
330
101
100
AcDbEntity
  8
0
  6
K5LT_THIN
 62
     7
370
    18
100
AcDbLine
 10
218.8235563407388
 20
3.884706892386932
 30
0.0
 11
233.8235563407388
 21
3.88470689238693
 31
0.0
  0
LINE
  5
10E
330
101
100
AcDbEntity
  8
0
  6
K5LT_THIN
 62
     7
370
    18
100
AcDbLine
 10
233.8235563407388
 20
56.76894533622931
 30
0.0
 11
226.3235563407388
 21
55.78155159939001
 31
0.0
  0
LINE
  5
10F
330
101
100
AcDbEntity
  8
0
  6
K5LT_THIN
 62
     7
370
    18
100
AcDbLine
 10
226.3235563407388
 20
55.78155159939001
 30
0.0
 11
227.0735563407388
 21
56.76894533622931
 31
0.0
  0
LINE
  5
110
330
101
100
AcDbEntity
  8
0
  6
K5LT_THIN
 62
     7
370
    18
100
AcDbLine
 10
227.0735563407388
 20
56.76894533622931
 30
0.0
 11
226.3235563407388
 21
57.7563390730686
 31
0.0
  0
LINE
  5
111
330
101
100
AcDbEntity
  8
0
  6
K5LT_THIN
 62
     7
370
    18
100
AcDbLine
 10
226.3235563407388
 20
57.7563390730686
 30
0.0
 11
233.8235563407388
 21
56.76894533622931
 31
0.0
  0
HATCH
  5
112
330
101
100
AcDbEntity
  8
0
 62
     7
100
AcDbHatch
 10
0.0
 20
0.0
 30
0.0
210
0.0
220
0.0
230
1.0
  2
SOLID
 70
     1
 71
     0
 91
        1
 92
        1
 93
        4
 72
     1
 10
226.3235563407388
 20
55.78155159939001
 11
233.8235563407388
 21
56.76894533622931
 72
     1
 10
233.8235563407388
 20
56.76894533622931
 11
226.3235563407388
 21
57.7563390730686
 72
     1
 10
226.3235563407388
 20
57.7563390730686
 11
227.0735563407388
 21
56.76894533622931
 72
     1
 10
227.0735563407388
 20
56.76894533622931
 11
226.3235563407388
 21
55.78155159939001
 97
        0
 75
     0
 76
     1
 98
        0
  0
LINE
  5
113
330
101
100
AcDbEntity
  8
0
  6
K5LT_THIN
 62
     7
370
    18
100
AcDbLine
 10
218.8235563407388
 20
56.76894533622931
 30
0.0
 11
233.8235563407388
 21
56.76894533622931
 31
0.0
  0
ENDBLK
  5
115
330
101
100
AcDbEntity
  8
0
100
AcDbBlockEnd
  0
BLOCK
  5
11B
330
117
100
AcDbEntity
  8
0
100
AcDbBlockBegin
  2
U7
 70
     0
 10
0.0
 20
0.0
 30
0.0
  3
U7
  1

  0
ARC
  5
119
330
117
100
AcDbEntity
  8
0
  6
K5LT_THIN
 62
     7
370
    18
100
AcDbCircle
 10
325.2962827063858
 20
10.26936096323345
 30
0.0
 40
5.0
100
AcDbArc
 50
19.94844123649499
 51
90.0
  0
ARC
  5
11A
330
117
100
AcDbEntity
  8
0
  6
K5LT_THIN
 62
     7
370
    18
100
AcDbCircle
 10
325.2962827063858
 20
10.26936096323345
 30
0.0
 40
10.0
100
AcDbArc
 50
61.96570301050347
 51
75.93013565902521
  0
ENDBLK
  5
11C
330
117
100
AcDbEntity
  8
0
100
AcDbBlockEnd
  0
BLOCK
  5
125
330
11D
100
AcDbEntity
  8
0
100
AcDbBlockBegin
  2
U8
 70
     0
 10
0.0
 20
0.0
 30
0.0
  3
U8
  1

  0
ARC
  5
11F
330
11D
100
AcDbEntity
  8
0
  6
K5LT_THIN
 62
     7
370
    18
100
AcDbCircle
 10
325.4219297932939
 20
33.84996103376676
 30
0.0
 40
1.5
100
AcDbArc
 50
0.1917617358260861
 51
90.0
  0
ARC
  5
120
330
11D
100
AcDbEntity
  8
0
  6
K5LT_THIN
 62
     7
370
    18
100
AcDbCircle
 10
325.4219297932939
 20
33.84996103376676
 30
0.0
 40
3.0
100
AcDbArc
 50
0.0373366844113649
 51
90.0
  0
ARC
  5
121
330
11D
100
AcDbEntity
  8
0
  6
K5LT_THIN
 62
     7
370
    18
100
AcDbCircle
 10
325.4219297932939
 20
33.84996103376676
 30
0.0
 40
4.5
100
AcDbArc
 50
28.447696175632
 51
90.0
  0
ARC
  5
122
330
11D
100
AcDbEntity
  8
0
  6
K5LT_THIN
 62
     7
370
    18
100
AcDbCircle
 10
325.4219297932939
 20
33.84996103376676
 30
0.0
 40
6.0
100
AcDbArc
 50
48.74287924162922
 51
90.0
  0
ARC
  5
123
330
11D
100
AcDbEntity
  8
0
  6
K5LT_THIN
 62
     7
370
    18
100
AcDbCircle
 10
325.4219297932939
 20
33.84996103376676
 30
0.0
 40
7.5
100
AcDbArc
 50
58.15983845190409
 51
90.0
  0
ARC
  5
124
330
11D
100
AcDbEntity
  8
0
  6
K5LT_THIN
 62
     7
370
    18
100
AcDbCircle
 10
325.4219297932939
 20
33.84996103376676
 30
0.0
 40
9.0
100
AcDbArc
 50
63.91996849923848
 51
90.0
  0
ENDBLK
  5
126
330
11D
100
AcDbEntity
  8
0
100
AcDbBlockEnd
  0
BLOCK
  5
130
330
127
100
AcDbEntity
  8
0
100
AcDbBlockBegin
  2
U9
 70
     0
 10
0.0
 20
0.0
 30
0.0
  3
U9
  1

  0
ARC
  5
129
330
127
100
AcDbEntity
  8
0
  6
K5LT_THIN
 62
     7
370
    18
100
AcDbCircle
 10
325.2962827063858
 20
10.26936096323345
 30
0.0
 40
1.5
100
AcDbArc
 50
0.0
 51
90.0
  0
ARC
  5
12A
330
127
100
AcDbEntity
  8
0
  6
K5LT_THIN
 62
     7
370
    18
100
AcDbCircle
 10
325.2962827063858
 20
10.26936096323345
 30
0.0
 40
3.0
100
AcDbArc
 50
0.0
 51
90.0
  0
ARC
  5
12B
330
127
100
AcDbEntity
  8
0
  6
K5LT_THIN
 62
     7
370
    18
100
AcDbCircle
 10
325.2962827063858
 20
10.26936096323345
 30
0.0
 40
4.5
100
AcDbArc
 50
0.0
 51
90.0
  0
ARC
  5
12C
330
127
100
AcDbEntity
  8
0
  6
K5LT_THIN
 62
     7
370
    18
100
AcDbCircle
 10
325.2962827063858
 20
10.26936096323345
 30
0.0
 40
6.0
100
AcDbArc
 50
38.43320526493811
 51
90.0
  0
ARC
  5
12D
330
127
100
AcDbEntity
  8
0
  6
K5LT_THIN
 62
     7
370
    18
100
AcDbCircle
 10
325.2962827063858
 20
10.26936096323345
 30
0.0
 40
7.5
100
AcDbArc
 50
51.19537813433637
 51
90.0
  0
ARC
  5
12E
330
127
100
AcDbEntity
  8
0
  6
K5LT_THIN
 62
     7
370
    18
100
AcDbCircle
 10
325.2962827063858
 20
10.26936096323345
 30
0.0
 40
9.0
100
AcDbArc
 50
58.51856731801837
 51
90.0
  0
ARC
  5
12F
330
127
100
AcDbEntity
  8
0
  6
K5LT_THIN
 62
     7
370
    18
100
AcDbCircle
 10
325.2962827063858
 20
10.26936096323345
 30
0.0
 40
10.5
100
AcDbArc
 50
63.40897274374034
 51
67.4895225948021
  0
ENDBLK
  5
131
330
127
100
AcDbEntity
  8
0
100
AcDbBlockEnd
  0
BLOCK
  5
145
330
132
100
AcDbEntity
  8
0
100
AcDbBlockBegin
  2
U10
 70
     0
 10
0.0
 20
0.0
 30
0.0
  3
U10
  1

  0
ARC
  5
134
330
132
100
AcDbEntity
  8
0
  6
K5LT_THIN
 62
     7
370
    18
100
AcDbCircle
 10
329.9962827764213
 20
10.26936096323345
 30
0.0
 40
1.5
100
AcDbArc
 50
9.93201162930652
 51
90.0
  0
ARC
  5
135
330
132
100
AcDbEntity
  8
0
  6
K5LT_THIN
 62
     7
370
    18
100
AcDbCircle
 10
329.9962827764213
 20
10.26936096323345
 30
0.0
 40
3.0
100
AcDbArc
 50
4.642699699493609
 51
76.94572220864174
  0
ARC
  5
136
330
132
100
AcDbEntity
  8
0
  6
K5LT_THIN
 62
     7
370
    18
100
AcDbCircle
 10
329.9962827764213
 20
10.26936096323345
 30
0.0
 40
4.5
100
AcDbArc
 50
2.891747106543159
 51
40.49921904238315
  0
ARC
  5
137
330
132
100
AcDbEntity
  8
0
  6
K5LT_THIN
 62
     7
370
    18
100
AcDbCircle
 10
329.9962827764213
 20
10.26936096323345
 30
0.0
 40
6.0
100
AcDbArc
 50
2.01759693758847
 51
29.14872448922515
  0
ARC
  5
138
330
132
100
AcDbEntity
  8
0
  6
K5LT_THIN
 62
     7
370
    18
100
AcDbCircle
 10
329.9962827764213
 20
10.26936096323345
 30
0.0
 40
7.5
100
AcDbArc
 50
1.493412630511636
 51
22.93350765668193
  0
ARC
  5
139
330
132
100
AcDbEntity
  8
0
  6
K5LT_THIN
 62
     7
370
    18
100
AcDbCircle
 10
329.9962827764213
 20
10.26936096323345
 30
0.0
 40
9.0
100
AcDbArc
 50
1.144056593028689
 51
18.9485419832458
  0
ARC
  5
13A
330
132
100
AcDbEntity
  8
0
  6
K5LT_THIN
 62
     7
370
    18
100
AcDbCircle
 10
329.9962827764213
 20
10.26936096323345
 30
0.0
 40
10.5
100
AcDbArc
 50
0.894557075327167
 51
16.16058514915404
  0
ARC
  5
13B
330
132
100
AcDbEntity
  8
0
  6
K5LT_THIN
 62
     7
370
    18
100
AcDbCircle
 10
329.9962827764213
 20
10.26936096323345
 30
0.0
 40
12.0
100
AcDbArc
 50
0.7074513219115033
 51
14.09551736381616
  0
ARC
  5
13C
330
132
100
AcDbEntity
  8
0
  6
K5LT_THIN
 62
     7
370
    18
100
AcDbCircle
 10
329.9962827764213
 20
10.26936096323345
 30
0.0
 40
13.5
100
AcDbArc
 50
0.5619343825188524
 51
12.50232483124525
  0
ARC
  5
13D
330
132
100
AcDbEntity
  8
0
  6
K5LT_THIN
 62
     7
370
    18
100
AcDbCircle
 10
329.9962827764213
 20
10.26936096323345
 30
0.0
 40
15.0
100
AcDbArc
 50
0.4455262822182862
 51
11.23486907801917
  0
ARC
  5
13E
330
132
100
AcDbEntity
  8
0
  6
K5LT_THIN
 62
     7
370
    18
100
AcDbCircle
 10
329.9962827764213
 20
10.26936096323345
 30
0.0
 40
16.5
100
AcDbArc
 50
0.3502865292187056
 51
10.20201590283712
  0
ARC
  5
13F
330
132
100
AcDbEntity
  8
0
  6
K5LT_THIN
 62
     7
370
    18
100
AcDbCircle
 10
329.9962827764213
 20
10.26936096323345
 30
0.0
 40
18.0
100
AcDbArc
 50
0.2709220896818546
 51
9.343872066624913
  0
ARC
  5
140
330
132
100
AcDbEntity
  8
0
  6
K5LT_THIN
 62
     7
370
    18
100
AcDbCircle
 10
329.9962827764213
 20
10.26936096323345
 30
0.0
 40
19.5
100
AcDbArc
 50
0.2037688782978607
 51
8.619406547528394
  0
ARC
  5
141
330
132
100
AcDbEntity
  8
0
  6
K5LT_THIN
 62
     7
370
    18
100
AcDbCircle
 10
329.9962827764213
 20
10.26936096323345
 30
0.0
 40
21.0
100
AcDbArc
 50
0.1462098673612775
 51
7.999543897745702
  0
ARC
  5
142
330
132
100
AcDbEntity
  8
0
  6
K5LT_THIN
 62
     7
370
    18
100
AcDbCircle
 10
329.9962827764213
 20
10.26936096323345
 30
0.0
 40
22.5
100
AcDbArc
 50
0.0963260041329198
 51
7.463093545816229
  0
ARC
  5
143
330
132
100
AcDbEntity
  8
0
  6
K5LT_THIN
 62
     7
370
    18
100
AcDbCircle
 10
329.9962827764213
 20
10.26936096323345
 30
0.0
 40
24.0
100
AcDbArc
 50
0.0526780593467376
 51
6.99424026154202
  0
ARC
  5
144
330
132
100
AcDbEntity
  8
0
  6
K5LT_THIN
 62
     7
370
    18
100
AcDbCircle
 10
329.9962827764213
 20
10.26936096323345
 30
0.0
 40
25.5
100
AcDbArc
 50
0.0141654832468596
 51
6.580937754712767
  0
ENDBLK
  5
146
330
132
100
AcDbEntity
  8
0
100
AcDbBlockEnd
  0
BLOCK
  5
15D
330
147
100
AcDbEntity
  8
0
100
AcDbBlockBegin
  2
U11
 70
     0
 10
0.0
 20
0.0
 30
0.0
  3
U11
  1

  0
ARC
  5
149
330
147
100
AcDbEntity
  8
0
  6
K5LT_THIN
 62
     7
370
    18
100
AcDbCircle
 10
329.3785652883105
 20
39.71845748233375
 30
0.0
 40
1.5
100
AcDbArc
 50
0.0
 51
90.0
  0
ARC
  5
14A
330
147
100
AcDbEntity
  8
0
  6
K5LT_THIN
 62
     7
370
    18
100
AcDbCircle
 10
329.3785652883105
 20
39.71845748233375
 30
0.0
 40
3.0
100
AcDbArc
 50
0.0
 51
90.0
  0
ARC
  5
14B
330
147
100
AcDbEntity
  8
0
  6
K5LT_THIN
 62
     7
370
    18
100
AcDbCircle
 10
329.3785652883105
 20
39.71845748233375
 30
0.0
 40
4.5
100
AcDbArc
 50
0.0
 51
49.84948242504806
  0
ARC
  5
14C
330
147
100
AcDbEntity
  8
0
  6
K5LT_THIN
 62
     7
370
    18
100
AcDbCircle
 10
329.3785652883105
 20
39.71845748233375
 30
0.0
 40
6.0
100
AcDbArc
 50
0.0
 51
34.97821142905143
  0
ARC
  5
14D
330
147
100
AcDbEntity
  8
0
  6
K5LT_THIN
 62
     7
370
    18
100
AcDbCircle
 10
329.3785652883105
 20
39.71845748233375
 30
0.0
 40
7.5
100
AcDbArc
 50
0.0
 51
27.29757272128793
  0
ARC
  5
14E
330
147
100
AcDbEntity
  8
0
  6
K5LT_THIN
 62
     7
370
    18
100
AcDbCircle
 10
329.3785652883105
 20
39.71845748233375
 30
0.0
 40
9.0
100
AcDbArc
 50
0.0
 51
22.46857101248813
  0
ARC
  5
14F
330
147
100
AcDbEntity
  8
0
  6
K5LT_THIN
 62
     7
370
    18
100
AcDbCircle
 10
329.3785652883105
 20
39.71845748233375
 30
0.0
 40
10.5
100
AcDbArc
 50
0.0
 51
19.12195303857857
  0
ARC
  5
150
330
147
100
AcDbEntity
  8
0
  6
K5LT_THIN
 62
     7
370
    18
100
AcDbCircle
 10
329.3785652883105
 20
39.71845748233375
 30
0.0
 40
12.0
100
AcDbArc
 50
0.0
 51
16.65645228284081
  0
ARC
  5
151
330
147
100
AcDbEntity
  8
0
  6
K5LT_THIN
 62
     7
370
    18
100
AcDbCircle
 10
329.3785652883105
 20
39.71845748233375
 30
0.0
 40
13.5
100
AcDbArc
 50
0.0
 51
14.76080984570416
  0
ARC
  5
152
330
147
100
AcDbEntity
  8
0
  6
K5LT_THIN
 62
     7
370
    18
100
AcDbCircle
 10
329.3785652883105
 20
39.71845748233375
 30
0.0
 40
15.0
100
AcDbArc
 50
0.0
 51
13.25621383258649
  0
ARC
  5
153
330
147
100
AcDbEntity
  8
0
  6
K5LT_THIN
 62
     7
370
    18
100
AcDbCircle
 10
329.3785652883105
 20
39.71845748233375
 30
0.0
 40
16.5
100
AcDbArc
 50
0.0
 51
12.03211713352415
  0
ARC
  5
154
330
147
100
AcDbEntity
  8
0
  6
K5LT_THIN
 62
     7
370
    18
100
AcDbCircle
 10
329.3785652883105
 20
39.71845748233375
 30
0.0
 40
18.0
100
AcDbArc
 50
0.0
 51
11.01630267487939
  0
ARC
  5
155
330
147
100
AcDbEntity
  8
0
  6
K5LT_THIN
 62
     7
370
    18
100
AcDbCircle
 10
329.3785652883105
 20
39.71845748233375
 30
0.0
 40
19.5
100
AcDbArc
 50
0.0
 51
10.15951084960494
  0
ARC
  5
156
330
147
100
AcDbEntity
  8
0
  6
K5LT_THIN
 62
     7
370
    18
100
AcDbCircle
 10
329.3785652883105
 20
39.71845748233375
 30
0.0
 40
21.0
100
AcDbArc
 50
0.0
 51
9.426948431820053
  0
ARC
  5
157
330
147
100
AcDbEntity
  8
0
  6
K5LT_THIN
 62
     7
370
    18
100
AcDbCircle
 10
329.3785652883105
 20
39.71845748233375
 30
0.0
 40
22.5
100
AcDbArc
 50
0.0
 51
8.793320959480528
  0
ARC
  5
158
330
147
100
AcDbEntity
  8
0
  6
K5LT_THIN
 62
     7
370
    18
100
AcDbCircle
 10
329.3785652883105
 20
39.71845748233375
 30
0.0
 40
24.0
100
AcDbArc
 50
0.0
 51
8.239787439041942
  0
ARC
  5
159
330
147
100
AcDbEntity
  8
0
  6
K5LT_THIN
 62
     7
370
    18
100
AcDbCircle
 10
329.3785652883105
 20
39.71845748233375
 30
0.0
 40
25.5
100
AcDbArc
 50
0.0
 51
7.75201951914899
  0
ARC
  5
15A
330
147
100
AcDbEntity
  8
0
  6
K5LT_THIN
 62
     7
370
    18
100
AcDbCircle
 10
329.3785652883105
 20
39.71845748233375
 30
0.0
 40
27.0
100
AcDbArc
 50
0.0
 51
7.318923205034521
  0
ARC
  5
15B
330
147
100
AcDbEntity
  8
0
  6
K5LT_THIN
 62
     7
370
    18
100
AcDbCircle
 10
329.3785652883105
 20
39.71845748233375
 30
0.0
 40
28.5
100
AcDbArc
 50
1.396263574602047
 51
6.931772824689655
  0
ARC
  5
15C
330
147
100
AcDbEntity
  8
0
  6
K5LT_THIN
 62
     7
370
    18
100
AcDbCircle
 10
329.3785652883105
 20
39.71845748233375
 30
0.0
 40
30.0
100
AcDbArc
 50
5.83005760060083
 51
6.583609715026441
  0
ENDBLK
  5
15E
330
147
100
AcDbEntity
  8
0
100
AcDbBlockEnd
  0
BLOCK
  5
167
330
15F
100
AcDbEntity
  8
0
100
AcDbBlockBegin
  2
U12
 70
     0
 10
0.0
 20
0.0
 30
0.0
  3
U12
  1

  0
LINE
  5
161
330
15F
100
AcDbEntity
  8
0
  6
K5LT_THIN
 62
     7
370
    18
100
AcDbLine
 10
306.1537823459311
 20
33.84996103376676
 30
0.0
 11
308.3819240245019
 21
38.37419513111088
 31
0.0
  0
LINE
  5
162
330
15F
100
AcDbEntity
  8
0
  6
K5LT_THIN
 62
     7
370
    18
100
AcDbLine
 10
308.3819240245019
 20
38.37419513111087
 30
0.0
 11
308.6518759968815
 21
37.59289145137829
 31
0.0
  0
LINE
  5
163
330
15F
100
AcDbEntity
  8
0
  6
K5LT_THIN
 62
     7
370
    18
100
AcDbLine
 10
308.6518759968815
 20
37.59289145137828
 30
0.0
 11
309.4769598916945
 21
37.64335008667047
 31
0.0
  0
LINE
  5
164
330
15F
100
AcDbEntity
  8
0
  6
K5LT_THIN
 62
     7
370
    18
100
AcDbLine
 10
309.4769598916945
 20
37.64335008667046
 30
0.0
 11
306.1537823459311
 21
33.84996103376675
 31
0.0
  0
HATCH
  5
165
330
15F
100
AcDbEntity
  8
0
 62
     7
100
AcDbHatch
 10
0.0
 20
0.0
 30
0.0
210
0.0
220
0.0
230
1.0
  2
SOLID
 70
     1
 71
     0
 91
        1
 92
        1
 93
        4
 72
     1
 10
306.1537823459311
 20
33.84996103376675
 11
309.4769598916945
 21
37.64335008667046
 72
     1
 10
309.4769598916945
 20
37.64335008667047
 11
308.6518759968815
 21
37.59289145137828
 72
     1
 10
308.6518759968815
 20
37.59289145137829
 11
308.3819240245019
 21
38.37419513111087
 72
     1
 10
308.3819240245019
 20
38.37419513111088
 11
306.1537823459311
 21
33.84996103376676
 97
        0
 75
     0
 76
     1
 98
        0
  0
LINE
  5
166
330
15F
100
AcDbEntity
  8
0
  6
K5LT_THIN
 62
     7
370
    18
100
AcDbLine
 10
318.9631042191432
 20
53.04235618275669
 30
0.0
 11
306.1537823459311
 21
33.84996103376676
 31
0.0
  0
ENDBLK
  5
168
330
15F
100
AcDbEntity
  8
0
100
AcDbBlockEnd
  0
BLOCK
  5
18A
330
16A
100
AcDbEntity
  8
0
100
AcDbBlockBegin
  2
U13
 70
     0
 10
0.0
 20
0.0
 30
0.0
  3
U13
  1

  0
ARC
  5
16C
330
16A
100
AcDbEntity
  8
0
  6
K5LT_THIN
 62
     7
370
    18
100
AcDbCircle
 10
185.3220572345176
 20
-60.22771667610959
 30
0.0
 40
20.0
100
AcDbArc
 50
21.13825200828009
 51
68.06366024550712
  0
ARC
  5
16D
330
16A
100
AcDbEntity
  8
0
  6
K5LT_THIN
 62
     7
370
    18
100
AcDbCircle
 10
185.3220572345176
 20
-60.22771667610959
 30
0.0
 40
25.0
100
AcDbArc
 50
13.42444128496951
 51
79.83826737287914
  0
ARC
  5
16E
330
16A
100
AcDbEntity
  8
0
  6
K5LT_THIN
 62
     7
370
    18
100
AcDbCircle
 10
185.3220572345176
 20
-60.22771667610959
 30
0.0
 40
30.0
100
AcDbArc
 50
10.16008924883215
 51
27.35424422096533
  0
ARC
  5
16F
330
16A
100
AcDbEntity
  8
0
  6
K5LT_THIN
 62
     7
370
    18
100
AcDbCircle
 10
185.3220572345176
 20
-60.22771667610959
 30
0.0
 40
30.0
100
AcDbArc
 50
39.59691656119448
 51
86.26413176200778
  0
ARC
  5
170
330
16A
100
AcDbEntity
  8
0
  6
K5LT_THIN
 62
     7
370
    18
100
AcDbCircle
 10
185.3220572345176
 20
-60.22771667610959
 30
0.0
 40
35.0
100
AcDbArc
 50
48.66432401986009
 51
89.50941181941661
  0
ARC
  5
171
330
16A
100
AcDbEntity
  8
0
  6
K5LT_THIN
 62
     7
370
    18
100
AcDbCircle
 10
185.3220572345176
 20
-60.22771667610959
 30
0.0
 40
35.0
100
AcDbArc
 50
8.316840098733676
 51
23.19421585752648
  0
ARC
  5
172
330
16A
100
AcDbEntity
  8
0
  6
K5LT_THIN
 62
     7
370
    18
100
AcDbCircle
 10
185.3220572345176
 20
-60.22771667610959
 30
0.0
 40
40.0
100
AcDbArc
 50
6.870141175542262
 51
20.15847752868422
  0
ARC
  5
173
330
16A
100
AcDbEntity
  8
0
  6
K5LT_THIN
 62
     7
370
    18
100
AcDbCircle
 10
185.3220572345176
 20
-60.22771667610959
 30
0.0
 40
40.0
100
AcDbArc
 50
54.69627669248235
 51
89.60508641728106
  0
ARC
  5
174
330
16A
100
AcDbEntity
  8
0
  6
K5LT_THIN
 62
     7
370
    18
100
AcDbCircle
 10
185.3220572345176
 20
-60.22771667610959
 30
0.0
 40
45.0
100
AcDbArc
 50
59.08950857863761
 51
86.94915707549478
  0
ARC
  5
175
330
16A
100
AcDbEntity
  8
0
  6
K5LT_THIN
 62
     7
370
    18
100
AcDbCircle
 10
185.3220572345176
 20
-60.22771667610959
 30
0.0
 40
45.0
100
AcDbArc
 50
5.784186929351182
 51
17.83802278369816
  0
ARC
  5
176
330
16A
100
AcDbEntity
  8
0
  6
K5LT_THIN
 62
     7
370
    18
100
AcDbCircle
 10
185.3220572345176
 20
-60.22771667610959
 30
0.0
 40
50.0
100
AcDbArc
 50
5.322495698431366
 51
16.00339912745397
  0
ARC
  5
177
330
16A
100
AcDbEntity
  8
0
  6
K5LT_THIN
 62
     7
370
    18
100
AcDbCircle
 10
185.3220572345176
 20
-60.22771667610959
 30
0.0
 40
50.0
100
AcDbArc
 50
53.27052494564659
 51
82.36189524451784
  0
ARC
  5
178
330
16A
100
AcDbEntity
  8
0
  6
K5LT_THIN
 62
     7
370
    18
100
AcDbCircle
 10
185.3220572345176
 20
-60.22771667610959
 30
0.0
 40
55.0
100
AcDbArc
 50
46.76977097557795
 51
76.68753473028296
  0
ARC
  5
179
330
16A
100
AcDbEntity
  8
0
  6
K5LT_THIN
 62
     7
370
    18
100
AcDbCircle
 10
185.3220572345176
 20
-60.22771667610959
 30
0.0
 40
55.0
100
AcDbArc
 50
5.082695769288485
 51
14.51486987876073
  0
ARC
  5
17A
330
16A
100
AcDbEntity
  8
0
  6
K5LT_THIN
 62
     7
370
    18
100
AcDbCircle
 10
185.3220572345176
 20
-60.22771667610959
 30
0.0
 40
60.0
100
AcDbArc
 50
4.804608679206887
 51
13.2820780963086
  0
ARC
  5
17B
330
16A
100
AcDbEntity
  8
0
  6
K5LT_THIN
 62
     7
370
    18
100
AcDbCircle
 10
185.3220572345176
 20
-60.22771667610959
 30
0.0
 40
60.0
100
AcDbArc
 50
41.90442840682083
 51
56.15792932440323
  0
ARC
  5
17C
330
16A
100
AcDbEntity
  8
0
  6
K5LT_THIN
 62
     7
370
    18
100
AcDbCircle
 10
185.3220572345176
 20
-60.22771667610959
 30
0.0
 40
65.0
100
AcDbArc
 50
38.0620070591923
 51
50.46810987289615
  0
ARC
  5
17D
330
16A
100
AcDbEntity
  8
0
  6
K5LT_THIN
 62
     7
370
    18
100
AcDbCircle
 10
185.3220572345176
 20
-60.22771667610959
 30
0.0
 40
65.0
100
AcDbArc
 50
4.302989057768944
 51
12.26492597919916
  0
ARC
  5
17E
330
16A
100
AcDbEntity
  8
0
  6
K5LT_THIN
 62
     7
370
    18
100
AcDbCircle
 10
185.3220572345176
 20
-60.22771667610959
 30
0.0
 40
70.0
100
AcDbArc
 50
3.285448955874867
 51
24.53928605804687
  0
ARC
  5
17F
330
16A
100
AcDbEntity
  8
0
  6
K5LT_THIN
 62
     7
370
    18
100
AcDbCircle
 10
185.3220572345176
 20
-60.22771667610959
 30
0.0
 40
70.0
100
AcDbArc
 50
34.92315061379271
 51
47.31097280245527
  0
ARC
  5
180
330
16A
100
AcDbEntity
  8
0
  6
K5LT_THIN
 62
     7
370
    18
100
AcDbCircle
 10
185.3220572345176
 20
-60.22771667610959
 30
0.0
 40
75.0
100
AcDbArc
 50
32.29726939262058
 51
45.87065020428495
  0
ARC
  5
181
330
16A
100
AcDbEntity
  8
0
  6
K5LT_THIN
 62
     7
370
    18
100
AcDbCircle
 10
185.3220572345176
 20
-60.22771667610959
 30
0.0
 40
75.0
100
AcDbArc
 50
29.36725403337959
 51
32.12546131454827
  0
ARC
  5
182
330
16A
100
AcDbEntity
  8
0
  6
K5LT_THIN
 62
     7
370
    18
100
AcDbCircle
 10
185.3220572345176
 20
-60.22771667610959
 30
0.0
 40
75.0
100
AcDbArc
 50
1.781785757196272
 51
23.535894755777
  0
ARC
  5
183
330
16A
100
AcDbEntity
  8
0
  6
K5LT_THIN
 62
     7
370
    18
100
AcDbCircle
 10
185.3220572345176
 20
-60.22771667610959
 30
0.0
 40
80.0
100
AcDbArc
 50
0.4837573544758974
 51
45.18693007401892
  0
ARC
  5
184
330
16A
100
AcDbEntity
  8
0
  6
K5LT_THIN
 62
     7
370
    18
100
AcDbCircle
 10
185.3220572345176
 20
-60.22771667610959
 30
0.0
 40
85.0
100
AcDbArc
 50
0.0208831064171904
 51
44.34187855815431
  0
ARC
  5
185
330
16A
100
AcDbEntity
  8
0
  6
K5LT_THIN
 62
     7
370
    18
100
AcDbCircle
 10
185.3220572345176
 20
-60.22771667610959
 30
0.0
 40
90.0
100
AcDbArc
 50
1.869304152689966
 51
42.33345200070215
  0
ARC
  5
186
330
16A
100
AcDbEntity
  8
0
  6
K5LT_THIN
 62
     7
370
    18
100
AcDbCircle
 10
185.3220572345176
 20
-60.22771667610959
 30
0.0
 40
95.0
100
AcDbArc
 50
7.18453489253991
 51
38.93463991052365
  0
ARC
  5
187
330
16A
100
AcDbEntity
  8
0
  6
K5LT_THIN
 62
     7
370
    18
100
AcDbCircle
 10
185.3220572345176
 20
-60.22771667610959
 30
0.0
 40
100.0
100
AcDbArc
 50
11.564648178796
 51
34.62503362176335
  0
ARC
  5
188
330
16A
100
AcDbEntity
  8
0
  6
K5LT_THIN
 62
     7
370
    18
100
AcDbCircle
 10
185.3220572345176
 20
-60.22771667610959
 30
0.0
 40
105.0
100
AcDbArc
 50
14.06612641078784
 51
30.06741780939309
  0
ARC
  5
189
330
16A
100
AcDbEntity
  8
0
  6
K5LT_THIN
 62
     7
370
    18
100
AcDbCircle
 10
185.3220572345176
 20
-60.22771667610959
 30
0.0
 40
110.0
100
AcDbArc
 50
16.32296150548984
 51
25.53328382409552
  0
ENDBLK
  5
18B
330
16A
100
AcDbEntity
  8
0
100
AcDbBlockEnd
  0
BLOCK
  5
1A5
330
18C
100
AcDbEntity
  8
0
100
AcDbBlockBegin
  2
U14
 70
     0
 10
0.0
 20
0.0
 30
0.0
  3
U14
  1

  0
ARC
  5
18E
330
18C
100
AcDbEntity
  8
0
  6
K5LT_THIN
 62
     7
370
    18
100
AcDbCircle
 10
248.9683880376286
 20
25.88331669544446
 30
0.0
 40
25.0
100
AcDbArc
 50
343.1123236672522
 51
346.316507470293
  0
ARC
  5
18F
330
18C
100
AcDbEntity
  8
0
  6
K5LT_THIN
 62
     7
370
    18
100
AcDbCircle
 10
248.9683880376286
 20
25.88331669544446
 30
0.0
 40
26.0
100
AcDbArc
 50
336.9367800852098
 51
346.8524326784254
  0
ARC
  5
190
330
18C
100
AcDbEntity
  8
0
  6
K5LT_THIN
 62
     7
370
    18
100
AcDbCircle
 10
248.9683880376286
 20
25.88331669544446
 30
0.0
 40
26.0
100
AcDbArc
 50
17.84297675006249
 51
23.06321991479009
  0
ARC
  5
191
330
18C
100
AcDbEntity
  8
0
  6
K5LT_THIN
 62
     7
370
    18
100
AcDbCircle
 10
248.9683880376286
 20
25.88331669544446
 30
0.0
 40
27.0
100
AcDbArc
 50
17.16118932215719
 51
27.62561356129526
  0
ARC
  5
192
330
18C
100
AcDbEntity
  8
0
  6
K5LT_THIN
 62
     7
370
    18
100
AcDbCircle
 10
248.9683880376286
 20
25.88331669544446
 30
0.0
 40
27.0
100
AcDbArc
 50
332.3743864387047
 51
347.347616738617
  0
ARC
  5
193
330
18C
100
AcDbEntity
  8
0
  6
K5LT_THIN
 62
     7
370
    18
100
AcDbCircle
 10
248.9683880376286
 20
25.88331669544446
 30
0.0
 40
28.0
100
AcDbArc
 50
328.6884020786018
 51
347.806570999559
  0
ARC
  5
194
330
18C
100
AcDbEntity
  8
0
  6
K5LT_THIN
 62
     7
370
    18
100
AcDbCircle
 10
248.9683880376286
 20
25.88331669544446
 30
0.0
 40
28.0
100
AcDbArc
 50
16.53033884247552
 51
31.31159792139816
  0
ARC
  5
195
330
18C
100
AcDbEntity
  8
0
  6
K5LT_THIN
 62
     7
370
    18
100
AcDbCircle
 10
248.9683880376286
 20
25.88331669544446
 30
0.0
 40
29.0
100
AcDbArc
 50
16.82919209458935
 51
34.42233709724935
  0
ARC
  5
196
330
18C
100
AcDbEntity
  8
0
  6
K5LT_THIN
 62
     7
370
    18
100
AcDbCircle
 10
248.9683880376286
 20
25.88331669544446
 30
0.0
 40
29.0
100
AcDbArc
 50
325.5776629027507
 51
343.1708079054108
  0
ARC
  5
197
330
18C
100
AcDbEntity
  8
0
  6
K5LT_THIN
 62
     7
370
    18
100
AcDbCircle
 10
248.9683880376286
 20
25.88331669544446
 30
0.0
 40
30.0
100
AcDbArc
 50
322.8822235449924
 51
337.708556399419
  0
ARC
  5
198
330
18C
100
AcDbEntity
  8
0
  6
K5LT_THIN
 62
     7
370
    18
100
AcDbCircle
 10
248.9683880376286
 20
25.88331669544446
 30
0.0
 40
30.0
100
AcDbArc
 50
22.29144360058088
 51
37.11777645500751
  0
ARC
  5
199
330
18C
100
AcDbEntity
  8
0
  6
K5LT_THIN
 62
     7
370
    18
100
AcDbCircle
 10
248.9683880376286
 20
25.88331669544446
 30
0.0
 40
31.0
100
AcDbArc
 50
26.43769081482489
 51
39.49552463282933
  0
ARC
  5
19A
330
18C
100
AcDbEntity
  8
0
  6
K5LT_THIN
 62
     7
370
    18
100
AcDbCircle
 10
248.9683880376286
 20
25.88331669544446
 30
0.0
 40
31.0
100
AcDbArc
 50
320.5044753671706
 51
333.562309185175
  0
ARC
  5
19B
330
18C
100
AcDbEntity
  8
0
  6
K5LT_THIN
 62
     7
370
    18
100
AcDbCircle
 10
248.9683880376286
 20
25.88331669544446
 30
0.0
 40
32.0
100
AcDbArc
 50
318.3794093741768
 51
330.1621807577628
  0
ARC
  5
19C
330
18C
100
AcDbEntity
  8
0
  6
K5LT_THIN
 62
     7
370
    18
100
AcDbCircle
 10
248.9683880376286
 20
25.88331669544446
 30
0.0
 40
32.0
100
AcDbArc
 50
29.83781924223706
 51
41.62059062582316
  0
ARC
  5
19D
330
18C
100
AcDbEntity
  8
0
  6
K5LT_THIN
 62
     7
370
    18
100
AcDbCircle
 10
248.9683880376286
 20
25.88331669544446
 30
0.0
 40
33.0
100
AcDbArc
 50
32.73811081017131
 51
43.53896067011291
  0
ARC
  5
19E
330
18C
100
AcDbEntity
  8
0
  6
K5LT_THIN
 62
     7
370
    18
100
AcDbCircle
 10
248.9683880376286
 20
25.88331669544446
 30
0.0
 40
33.0
100
AcDbArc
 50
316.4610393298871
 51
327.2618891898287
  0
ARC
  5
19F
330
18C
100
AcDbEntity
  8
0
  6
K5LT_THIN
 62
     7
370
    18
100
AcDbCircle
 10
248.9683880376286
 20
25.88331669544446
 30
0.0
 40
34.0
100
AcDbArc
 50
315.2846296139928
 51
324.7271685668588
  0
ARC
  5
1A0
330
18C
100
AcDbEntity
  8
0
  6
K5LT_THIN
 62
     7
370
    18
100
AcDbCircle
 10
248.9683880376286
 20
25.88331669544446
 30
0.0
 40
34.0
100
AcDbArc
 50
35.27283143314119
 51
44.71537038600701
  0
ARC
  5
1A1
330
18C
100
AcDbEntity
  8
0
  6
K5LT_THIN
 62
     7
370
    18
100
AcDbCircle
 10
248.9683880376286
 20
25.88331669544446
 30
0.0
 40
35.0
100
AcDbArc
 50
37.52520488965673
 51
43.116413932526
  0
ARC
  5
1A2
330
18C
100
AcDbEntity
  8
0
  6
K5LT_THIN
 62
     7
370
    18
100
AcDbCircle
 10
248.9683880376286
 20
25.88331669544446
 30
0.0
 40
35.0
100
AcDbArc
 50
316.8835860674739
 51
322.4747951103431
  0
ARC
  5
1A3
330
18C
100
AcDbEntity
  8
0
  6
K5LT_THIN
 62
     7
370
    18
100
AcDbCircle
 10
248.9683880376286
 20
25.88331669544446
 30
0.0
 40
36.0
100
AcDbArc
 50
318.3562300720902
 51
320.4487498016509
  0
ARC
  5
1A4
330
18C
100
AcDbEntity
  8
0
  6
K5LT_THIN
 62
     7
370
    18
100
AcDbCircle
 10
248.9683880376286
 20
25.88331669544446
 30
0.0
 40
36.0
100
AcDbArc
 50
39.55125019834911
 51
41.64376992790963
  0
ENDBLK
  5
1A6
330
18C
100
AcDbEntity
  8
0
100
AcDbBlockEnd
  0
BLOCK
  5
1AF
330
1A9
100
AcDbEntity
  8
0
100
AcDbBlockBegin
  2
U15
 70
     0
 10
0.0
 20
0.0
 30
0.0
  3
U15
  1

  0
LINE
  5
1AB
330
1A9
100
AcDbEntity
  8
0
  6
K5LT_AXLED
 62
    30
420
 16744448
370
    18
100
AcDbLine
 10
500.6137216112634
 20
-27.05864537174534
 30
0.0
 11
506.5137216693779
 21
-27.05864537174534
 31
0.0
  0
LINE
  5
1AC
330
1A9
100
AcDbEntity
  8
0
  6
K5LT_AXLED
 62
    30
420
 16744448
370
    18
100
AcDbLine
 10
500.6137216112634
 20
-27.05864537174534
 30
0.0
 11
494.7137215531488
 21
-27.05864537174534
 31
0.0
  0
LINE
  5
1AD
330
1A9
100
AcDbEntity
  8
0
  6
K5LT_AXLED
 62
    30
420
 16744448
370
    18
100
AcDbLine
 10
500.6137216112634
 20
-27.05864537174534
 30
0.0
 11
500.6137216112634
 21
-21.15864531363081
 31
0.0
  0
LINE
  5
1AE
330
1A9
100
AcDbEntity
  8
0
  6
K5LT_AXLED
 62
    30
420
 16744448
370
    18
100
AcDbLine
 10
500.6137216112634
 20
-27.05864537174534
 30
0.0
 11
500.6137216112634
 21
-32.95864542985987
 31
0.0
  0
ENDBLK
  5
1B0
330
1A9
100
AcDbEntity
  8
0
100
AcDbBlockEnd
  0
BLOCK
  5
1B7
330
1B1
100
AcDbEntity
  8
0
100
AcDbBlockBegin
  2
U16
 70
     0
 10
0.0
 20
0.0
 30
0.0
  3
U16
  1

  0
LINE
  5
1B3
330
1B1
100
AcDbEntity
  8
0
  6
K5LT_AXLED
 62
    30
420
 16744448
370
    18
100
AcDbLine
 10
528.9036645796978
 20
-27.05864537174534
 30
0.0
 11
534.8036646378123
 21
-27.05864537174534
 31
0.0
  0
LINE
  5
1B4
330
1B1
100
AcDbEntity
  8
0
  6
K5LT_AXLED
 62
    30
420
 16744448
370
    18
100
AcDbLine
 10
528.9036645796978
 20
-27.05864537174534
 30
0.0
 11
523.0036645215832
 21
-27.05864537174534
 31
0.0
  0
LINE
  5
1B5
330
1B1
100
AcDbEntity
  8
0
  6
K5LT_AXLED
 62
    30
420
 16744448
370
    18
100
AcDbLine
 10
528.9036645796978
 20
-27.05864537174534
 30
0.0
 11
528.9036645796978
 21
-21.15864531363081
 31
0.0
  0
LINE
  5
1B6
330
1B1
100
AcDbEntity
  8
0
  6
K5LT_AXLED
 62
    30
420
 16744448
370
    18
100
AcDbLine
 10
528.9036645796978
 20
-27.05864537174534
 30
0.0
 11
528.9036645796978
 21
-32.95864542985987
 31
0.0
  0
ENDBLK
  5
1B8
330
1B1
100
AcDbEntity
  8
0
100
AcDbBlockEnd
  0
BLOCK
  5
1C0
330
1BA
100
AcDbEntity
  8
0
100
AcDbBlockBegin
  2
U17
 70
     0
 10
0.0
 20
0.0
 30
0.0
  3
U17
  1

  0
LINE
  5
1BC
330
1BA
100
AcDbEntity
  8
0
  6
K5LT_AXLED
 62
    30
420
 16744448
370
    18
100
AcDbLine
 10
423.0362532233402
 20
-35.91067019752359
 30
0.0
 11
414.036253119032
 21
-35.91067019752359
 31
0.0
  0
LINE
  5
1BD
330
1BA
100
AcDbEntity
  8
0
  6
K5LT_AXLED
 62
    30
420
 16744448
370
    18
100
AcDbLine
 10
423.0362532233402
 20
-35.91067019752359
 30
0.0
 11
432.0362533276483
 21
-35.91067019752359
 31
0.0
  0
LINE
  5
1BE
330
1BA
100
AcDbEntity
  8
0
  6
K5LT_AXLED
 62
    30
420
 16744448
370
    18
100
AcDbLine
 10
423.0362532233402
 20
-35.91067019752359
 30
0.0
 11
423.0362532233402
 21
-26.91067009321546
 31
0.0
  0
LINE
  5
1BF
330
1BA
100
AcDbEntity
  8
0
  6
K5LT_AXLED
 62
    30
420
 16744448
370
    18
100
AcDbLine
 10
423.0362532233402
 20
-35.91067019752359
 30
0.0
 11
423.0362532233402
 21
-44.91067030183171
 31
0.0
  0
ENDBLK
  5
1C1
330
1BA
100
AcDbEntity
  8
0
100
AcDbBlockEnd
  0
BLOCK
  5
1CA
330
1C4
100
AcDbEntity
  8
0
100
AcDbBlockBegin
  2
U18
 70
     0
 10
0.0
 20
0.0
 30
0.0
  3
U18
  1

  0
LINE
  5
1C6
330
1C4
100
AcDbEntity
  8
0
  6
K5LT_AXLED
 62
    30
420
 16744448
370
    18
100
AcDbLine
 10
433.7378912201328
 20
31.55357619374092
 30
0.0
 11
431.037891209702
 21
31.55357619374092
 31
0.0
  0
LINE
  5
1C7
330
1C4
100
AcDbEntity
  8
0
  6
K5LT_AXLED
 62
    30
420
 16744448
370
    18
100
AcDbLine
 10
433.7378912201328
 20
31.55357619374092
 30
0.0
 11
436.4378912305637
 21
31.55357619374092
 31
0.0
  0
LINE
  5
1C8
330
1C4
100
AcDbEntity
  8
0
  6
K5LT_AXLED
 62
    30
420
 16744448
370
    18
100
AcDbLine
 10
433.7378912201328
 20
31.55357619374092
 30
0.0
 11
433.7378912201328
 21
34.25357620417174
 31
0.0
  0
LINE
  5
1C9
330
1C4
100
AcDbEntity
  8
0
  6
K5LT_AXLED
 62
    30
420
 16744448
370
    18
100
AcDbLine
 10
433.7378912201328
 20
31.55357619374092
 30
0.0
 11
433.7378912201328
 21
28.85357618331011
 31
0.0
  0
ENDBLK
  5
1CB
330
1C4
100
AcDbEntity
  8
0
100
AcDbBlockEnd
  0
BLOCK
  5
1D2
330
1CC
100
AcDbEntity
  8
0
100
AcDbBlockBegin
  2
U19
 70
     0
 10
0.0
 20
0.0
 30
0.0
  3
U19
  1

  0
LINE
  5
1CE
330
1CC
100
AcDbEntity
  8
0
  6
K5LT_AXLED
 62
    30
420
 16744448
370
    18
100
AcDbLine
 10
467.9398217965964
 20
-27.04642467946712
 30
0.0
 11
473.839821854711
 21
-27.04642467946712
 31
0.0
  0
LINE
  5
1CF
330
1CC
100
AcDbEntity
  8
0
  6
K5LT_AXLED
 62
    30
420
 16744448
370
    18
100
AcDbLine
 10
467.9398217965964
 20
-27.04642467946712
 30
0.0
 11
462.0398217384819
 21
-27.04642467946712
 31
0.0
  0
LINE
  5
1D0
330
1CC
100
AcDbEntity
  8
0
  6
K5LT_AXLED
 62
    30
420
 16744448
370
    18
100
AcDbLine
 10
467.9398217965964
 20
-27.04642467946712
 30
0.0
 11
467.9398217965964
 21
-21.14642462135259
 31
0.0
  0
LINE
  5
1D1
330
1CC
100
AcDbEntity
  8
0
  6
K5LT_AXLED
 62
    30
420
 16744448
370
    18
100
AcDbLine
 10
467.9398217965964
 20
-27.04642467946712
 30
0.0
 11
467.9398217965964
 21
-32.94642473758165
 31
0.0
  0
ENDBLK
  5
1D3
330
1CC
100
AcDbEntity
  8
0
100
AcDbBlockEnd
  0
BLOCK
  5
1E6
330
1D4
100
AcDbEntity
  8
0
100
AcDbBlockBegin
  2
U20
 70
     0
 10
0.0
 20
0.0
 30
0.0
  3
U20
  1

  0
MTEXT
  5
1D6
330
1D4
100
AcDbEntity
  8
0
 62
     7
100
AcDbMText
 10
402.4963255467266
 20
6.215851266259735
 30
0.0
 40
0.0
 41
0.0
 46
0.0
 71
     1
 72
     1
  1
\H3.5;\W0.965;\Q15;\Q0;\H10.00;Б
  7
KTEXTSTYLE
 73
     1
 44
1.0
  0
MTEXT
  5
1D7
330
1D4
100
AcDbEntity
  8
0
 62
     7
100
AcDbMText
 10
402.4963255467266
 20
-59.52653689618114
 30
0.0
 40
0.0
 41
0.0
 46
0.0
 71
     1
 72
     1
  1
\H3.5;\W0.965;\Q15;\Q0;\H10.00;Б
  7
KTEXTSTYLE
 73
     1
 44
1.0
  0
LINE
  5
1D8
330
1D4
100
AcDbEntity
  8
0
  6
K5LT_REINFORCED
 62
   134
420
    38550
370
   100
100
AcDbLine
 10
416.9213254990428
 20
-3.853315632467684
 30
0.0
 11
416.9213254990428
 21
-15.85331563246768
 31
0.0
  0
LINE
  5
1D9
330
1D4
100
AcDbEntity
  8
0
  6
K5LT_REINFORCED
 62
   134
420
    38550
370
   100
100
AcDbLine
 10
416.9213254990428
 20
-49.32407756085399
 30
0.0
 11
416.9213254990428
 21
-61.32407756085399
 31
0.0
  0
LINE
  5
1DA
330
1D4
100
AcDbEntity
  8
0
  6
K5LT_THIN
 62
     7
370
    18
100
AcDbLine
 10
416.9213254990428
 20
-6.853315632467684
 30
0.0
 11
409.4213254990428
 21
-7.840709369306977
 31
0.0
  0
LINE
  5
1DB
330
1D4
100
AcDbEntity
  8
0
  6
K5LT_THIN
 62
     7
370
    18
100
AcDbLine
 10
409.4213254990428
 20
-7.840709369306977
 30
0.0
 11
410.1713254990428
 21
-6.853315632467683
 31
0.0
  0
LINE
  5
1DC
330
1D4
100
AcDbEntity
  8
0
  6
K5LT_THIN
 62
     7
370
    18
100
AcDbLine
 10
410.1713254990428
 20
-6.853315632467683
 30
0.0
 11
409.4213254990428
 21
-5.865921895628389
 31
0.0
  0
LINE
  5
1DD
330
1D4
100
AcDbEntity
  8
0
  6
K5LT_THIN
 62
     7
370
    18
100
AcDbLine
 10
409.4213254990428
 20
-5.865921895628389
 30
0.0
 11
416.9213254990428
 21
-6.853315632467684
 31
0.0
  0
HATCH
  5
1DE
330
1D4
100
AcDbEntity
  8
0
 62
     7
100
AcDbHatch
 10
0.0
 20
0.0
 30
0.0
210
0.0
220
0.0
230
1.0
  2
SOLID
 70
     1
 71
     0
 91
        1
 92
        1
 93
        4
 72
     1
 10
409.4213254990428
 20
-7.840709369306977
 11
416.9213254990428
 21
-6.853315632467684
 72
     1
 10
416.9213254990428
 20
-6.853315632467684
 11
409.4213254990428
 21
-5.865921895628389
 72
     1
 10
409.4213254990428
 20
-5.865921895628389
 11
410.1713254990428
 21
-6.853315632467683
 72
     1
 10
410.1713254990428
 20
-6.853315632467683
 11
409.4213254990428
 21
-7.840709369306977
 97
        0
 75
     0
 76
     1
 98
        0
  0
LINE
  5
1DF
330
1D4
100
AcDbEntity
  8
0
  6
K5LT_THIN
 62
     7
370
    18
100
AcDbLine
 10
401.9213254990428
 20
-6.853315632467682
 30
0.0
 11
416.9213254990428
 21
-6.853315632467684
 31
0.0
  0
LINE
  5
1E0
330
1D4
100
AcDbEntity
  8
0
  6
K5LT_THIN
 62
     7
370
    18
100
AcDbLine
 10
416.9213254990428
 20
-58.32407756085399
 30
0.0
 11
409.4213254990428
 21
-59.31147129769329
 31
0.0
  0
LINE
  5
1E1
330
1D4
100
AcDbEntity
  8
0
  6
K5LT_THIN
 62
     7
370
    18
100
AcDbLine
 10
409.4213254990428
 20
-59.31147129769329
 30
0.0
 11
410.1713254990428
 21
-58.32407756085399
 31
0.0
  0
LINE
  5
1E2
330
1D4
100
AcDbEntity
  8
0
  6
K5LT_THIN
 62
     7
370
    18
100
AcDbLine
 10
410.1713254990428
 20
-58.32407756085399
 30
0.0
 11
409.4213254990428
 21
-57.3366838240147
 31
0.0
  0
LINE
  5
1E3
330
1D4
100
AcDbEntity
  8
0
  6
K5LT_THIN
 62
     7
370
    18
100
AcDbLine
 10
409.4213254990428
 20
-57.3366838240147
 30
0.0
 11
416.9213254990428
 21
-58.32407756085399
 31
0.0
  0
HATCH
  5
1E4
330
1D4
100
AcDbEntity
  8
0
 62
     7
100
AcDbHatch
 10
0.0
 20
0.0
 30
0.0
210
0.0
220
0.0
230
1.0
  2
SOLID
 70
     1
 71
     0
 91
        1
 92
        1
 93
        4
 72
     1
 10
409.4213254990428
 20
-59.31147129769329
 11
416.9213254990428
 21
-58.32407756085399
 72
     1
 10
416.9213254990428
 20
-58.32407756085399
 11
409.4213254990428
 21
-57.3366838240147
 72
     1
 10
409.4213254990428
 20
-57.3366838240147
 11
410.1713254990428
 21
-58.32407756085399
 72
     1
 10
410.1713254990428
 20
-58.32407756085399
 11
409.4213254990428
 21
-59.31147129769329
 97
        0
 75
     0
 76
     1
 98
        0
  0
LINE
  5
1E5
330
1D4
100
AcDbEntity
  8
0
  6
K5LT_THIN
 62
     7
370
    18
100
AcDbLine
 10
401.9213254990428
 20
-58.32407756085399
 30
0.0
 11
416.9213254990428
 21
-58.32407756085399
 31
0.0
  0
ENDBLK
  5
1E7
330
1D4
100
AcDbEntity
  8
0
100
AcDbBlockEnd
  0
BLOCK
  5
1FB
330
1E9
100
AcDbEntity
  8
0
100
AcDbBlockBegin
  2
U21
 70
     0
 10
0.0
 20
0.0
 30
0.0
  3
U21
  1

  0
MTEXT
  5
1EB
330
1E9
100
AcDbEntity
  8
0
 62
     7
100
AcDbMText
 10
431.1112532710239
 20
7.604178789403986
 30
0.0
 40
0.0
 41
0.0
 46
0.0
 71
     1
 72
     1
  1
\H3.5;\W0.965;\Q15;\Q0;\H10.00;В
  7
KTEXTSTYLE
 73
     1
 44
1.0
  0
MTEXT
  5
1EC
330
1E9
100
AcDbEntity
  8
0
 62
     7
100
AcDbMText
 10
431.1112532710239
 20
-61.34875315767607
 30
0.0
 40
0.0
 41
0.0
 46
0.0
 71
     1
 72
     1
  1
\H3.5;\W0.965;\Q15;\Q0;\H10.00;В
  7
KTEXTSTYLE
 73
     1
 44
1.0
  0
LINE
  5
1ED
330
1E9
100
AcDbEntity
  8
0
  6
K5LT_REINFORCED
 62
   134
420
    38550
370
   100
100
AcDbLine
 10
423.0362532233402
 20
-2.464988109323428
 30
0.0
 11
423.0362532233402
 21
-14.46498810932343
 31
0.0
  0
LINE
  5
1EE
330
1E9
100
AcDbEntity
  8
0
  6
K5LT_REINFORCED
 62
   134
420
    38550
370
   100
100
AcDbLine
 10
423.0362532233402
 20
-51.14629382234892
 30
0.0
 11
423.0362532233402
 21
-63.14629382234892
 31
0.0
  0
LINE
  5
1EF
330
1E9
100
AcDbEntity
  8
0
  6
K5LT_THIN
 62
     7
370
    18
100
AcDbLine
 10
423.0362532233402
 20
-5.464988109323428
 30
0.0
 11
430.5362532233402
 21
-4.477594372484136
 31
0.0
  0
LINE
  5
1F0
330
1E9
100
AcDbEntity
  8
0
  6
K5LT_THIN
 62
     7
370
    18
100
AcDbLine
 10
430.5362532233402
 20
-4.477594372484136
 30
0.0
 11
429.7862532233402
 21
-5.46498810932343
 31
0.0
  0
LINE
  5
1F1
330
1E9
100
AcDbEntity
  8
0
  6
K5LT_THIN
 62
     7
370
    18
100
AcDbLine
 10
429.7862532233402
 20
-5.46498810932343
 30
0.0
 11
430.5362532233402
 21
-6.452381846162725
 31
0.0
  0
LINE
  5
1F2
330
1E9
100
AcDbEntity
  8
0
  6
K5LT_THIN
 62
     7
370
    18
100
AcDbLine
 10
430.5362532233402
 20
-6.452381846162725
 30
0.0
 11
423.0362532233402
 21
-5.464988109323428
 31
0.0
  0
HATCH
  5
1F3
330
1E9
100
AcDbEntity
  8
0
 62
     7
100
AcDbHatch
 10
0.0
 20
0.0
 30
0.0
210
0.0
220
0.0
230
1.0
  2
SOLID
 70
     1
 71
     0
 91
        1
 92
        1
 93
        4
 72
     1
 10
430.5362532233402
 20
-6.452381846162725
 11
429.7862532233402
 21
-5.46498810932343
 72
     1
 10
429.7862532233402
 20
-5.46498810932343
 11
430.5362532233402
 21
-4.477594372484136
 72
     1
 10
430.5362532233402
 20
-4.477594372484136
 11
423.0362532233402
 21
-5.464988109323428
 72
     1
 10
423.0362532233402
 20
-5.464988109323428
 11
430.5362532233402
 21
-6.452381846162725
 97
        0
 75
     0
 76
     1
 98
        0
  0
LINE
  5
1F4
330
1E9
100
AcDbEntity
  8
0
  6
K5LT_THIN
 62
     7
370
    18
100
AcDbLine
 10
438.0362532233402
 20
-5.464988109323432
 30
0.0
 11
423.0362532233402
 21
-5.464988109323428
 31
0.0
  0
LINE
  5
1F5
330
1E9
100
AcDbEntity
  8
0
  6
K5LT_THIN
 62
     7
370
    18
100
AcDbLine
 10
423.0362532233402
 20
-60.14629382234892
 30
0.0
 11
430.5362532233402
 21
-59.15890008550964
 31
0.0
  0
LINE
  5
1F6
330
1E9
100
AcDbEntity
  8
0
  6
K5LT_THIN
 62
     7
370
    18
100
AcDbLine
 10
430.5362532233402
 20
-59.15890008550963
 30
0.0
 11
429.7862532233402
 21
-60.14629382234892
 31
0.0
  0
LINE
  5
1F7
330
1E9
100
AcDbEntity
  8
0
  6
K5LT_THIN
 62
     7
370
    18
100
AcDbLine
 10
429.7862532233402
 20
-60.14629382234892
 30
0.0
 11
430.5362532233402
 21
-61.13368755918822
 31
0.0
  0
LINE
  5
1F8
330
1E9
100
AcDbEntity
  8
0
  6
K5LT_THIN
 62
     7
370
    18
100
AcDbLine
 10
430.5362532233402
 20
-61.13368755918822
 30
0.0
 11
423.0362532233402
 21
-60.14629382234892
 31
0.0
  0
HATCH
  5
1F9
330
1E9
100
AcDbEntity
  8
0
 62
     7
100
AcDbHatch
 10
0.0
 20
0.0
 30
0.0
210
0.0
220
0.0
230
1.0
  2
SOLID
 70
     1
 71
     0
 91
        1
 92
        1
 93
        4
 72
     1
 10
430.5362532233402
 20
-61.13368755918822
 11
429.7862532233402
 21
-60.14629382234892
 72
     1
 10
429.7862532233402
 20
-60.14629382234892
 11
430.5362532233402
 21
-59.15890008550963
 72
     1
 10
430.5362532233402
 20
-59.15890008550964
 11
423.0362532233402
 21
-60.14629382234892
 72
     1
 10
423.0362532233402
 20
-60.14629382234892
 11
430.5362532233402
 21
-61.13368755918822
 97
        0
 75
     0
 76
     1
 98
        0
  0
LINE
  5
1FA
330
1E9
100
AcDbEntity
  8
0
  6
K5LT_THIN
 62
     7
370
    18
100
AcDbLine
 10
438.0362532233402
 20
-60.14629382234893
 30
0.0
 11
423.0362532233402
 21
-60.14629382234892
 31
0.0
  0
ENDBLK
  5
1FC
330
1E9
100
AcDbEntity
  8
0
100
AcDbBlockEnd
  0
BLOCK
  5
21C
330
216
100
AcDbEntity
  8
0
100
AcDbBlockBegin
  2
U22
 70
     0
 10
0.0
 20
0.0
 30
0.0
  3
U22
  1

  0
LINE
  5
218
330
216
100
AcDbEntity
  8
0
  6
K5LT_AXLED
 62
    30
420
 16744448
370
    18
100
AcDbLine
 10
247.1079716978569
 20
36.53360674057012
 30
0.0
 11
238.138484038214
 21
36.53360674057012
 31
0.0
  0
LINE
  5
219
330
216
100
AcDbEntity
  8
0
  6
K5LT_AXLED
 62
    30
420
 16744448
370
    18
100
AcDbLine
 10
238.138484038214
 20
36.53360674057012
 30
0.0
 11
238.138484038214
 21
35.1336067197085
 31
0.0
  0
LINE
  5
21A
330
216
100
AcDbEntity
  8
0
  6
K5LT_AXLED
 62
    30
420
 16744448
370
    18
100
AcDbLine
 10
238.138484038214
 20
35.1336067197085
 30
0.0
 11
247.1079716978569
 21
35.1336067197085
 31
0.0
  0
LINE
  5
21B
330
216
100
AcDbEntity
  8
0
  6
K5LT_AXLED
 62
    30
420
 16744448
370
    18
100
AcDbLine
 10
247.1079716978569
 20
35.1336067197085
 30
0.0
 11
247.1079716978569
 21
36.53360674057012
 31
0.0
  0
ENDBLK
  5
21D
330
216
100
AcDbEntity
  8
0
100
AcDbBlockEnd
  0
BLOCK
  5
22B
330
225
100
AcDbEntity
  8
0
100
AcDbBlockBegin
  2
U23
 70
     0
 10
0.0
 20
0.0
 30
0.0
  3
U23
  1

  0
LINE
  5
227
330
225
100
AcDbEntity
  8
0
  6
K5LT_BASIC
 62
     5
420
      255
370
    60
100
AcDbLine
 10
247.1079716978569
 20
-26.77875184160212
 30
0.0
 11
238.138484038214
 21
-26.77875184160212
 31
0.0
  0
LINE
  5
228
330
225
100
AcDbEntity
  8
0
  6
K5LT_BASIC
 62
     5
420
      255
370
    60
100
AcDbLine
 10
238.138484038214
 20
-26.77875184160212
 30
0.0
 11
238.138484038214
 21
-28.17875186246374
 31
0.0
  0
LINE
  5
229
330
225
100
AcDbEntity
  8
0
  6
K5LT_BASIC
 62
     5
420
      255
370
    60
100
AcDbLine
 10
238.138484038214
 20
-28.17875186246374
 30
0.0
 11
247.1079716978569
 21
-28.17875186246374
 31
0.0
  0
LINE
  5
22A
330
225
100
AcDbEntity
  8
0
  6
K5LT_BASIC
 62
     5
420
      255
370
    60
100
AcDbLine
 10
247.1079716978569
 20
-28.17875186246374
 30
0.0
 11
247.1079716978569
 21
-26.77875184160212
 31
0.0
  0
ENDBLK
  5
22C
330
225
100
AcDbEntity
  8
0
100
AcDbBlockEnd
  0
BLOCK
  5
293
330
28D
100
AcDbEntity
  8
0
100
AcDbBlockBegin
  2
U24
 70
     0
 10
0.0
 20
0.0
 30
0.0
  3
U24
  1

  0
LINE
  5
28F
330
28D
100
AcDbEntity
  8
0
  6
K5LT_BASIC
 62
     5
420
      255
370
    60
100
AcDbLine
 10
413.1213254424184
 20
-26.23061738025126
 30
0.0
 11
420.3213255497068
 21
-26.23061738025126
 31
0.0
  0
LINE
  5
290
330
28D
100
AcDbEntity
  8
0
  6
K5LT_BASIC
 62
     5
420
      255
370
    60
100
AcDbLine
 10
420.3213255497068
 20
-26.23061738025126
 30
0.0
 11
420.3213255497068
 21
-27.72592067077386
 31
0.0
  0
LINE
  5
291
330
28D
100
AcDbEntity
  8
0
  6
K5LT_BASIC
 62
     5
420
      255
370
    60
100
AcDbLine
 10
420.3213255497068
 20
-27.72592067077386
 30
0.0
 11
413.1213254424184
 21
-27.72592067077386
 31
0.0
  0
LINE
  5
292
330
28D
100
AcDbEntity
  8
0
  6
K5LT_BASIC
 62
     5
420
      255
370
    60
100
AcDbLine
 10
413.1213254424184
 20
-27.72592067077386
 30
0.0
 11
413.1213254424184
 21
-26.23061738025126
 31
0.0
  0
ENDBLK
  5
294
330
28D
100
AcDbEntity
  8
0
100
AcDbBlockEnd
  0
BLOCK
  5
2E3
330
2C4
100
AcDbEntity
  8
0
100
AcDbBlockBegin
  2
U25
 70
     0
 10
0.0
 20
0.0
 30
0.0
  3
U25
  1

  0
ARC
  5
2C6
330
2C4
100
AcDbEntity
  8
0
  6
K5LT_BASIC
 62
     5
420
      255
370
    60
100
AcDbCircle
 10
214.8766238462948
 20
39.03360677782302
 30
0.0
 40
0.550000011920929
100
AcDbArc
 50
4.911778651156317
 51
184.9117786698468
  0
LINE
  5
2C7
330
2C4
100
AcDbEntity
  8
0
  6
K5LT_BASIC
 62
     5
420
      255
370
    60
100
AcDbLine
 10
215.4246040952229
 20
39.08069873873001
 30
0.0
 11
215.9746040475392
 21
32.68069864336258
 31
0.0
  0
ARC
  5
2C8
330
2C4
100
AcDbEntity
  8
0
  6
K5LT_BASIC
 62
     5
420
      255
370
    60
100
AcDbCircle
 10
215.4266238582158
 20
32.63360668245559
 30
0.0
 40
0.550000011920929
100
AcDbArc
 50
184.9117786511563
 51
4.91177918280439
  0
LINE
  5
2C9
330
2C4
100
AcDbEntity
  8
0
  6
K5LT_BASIC
 62
     5
420
      255
370
    60
100
AcDbLine
 10
214.8786436092877
 20
32.58651472154861
 30
0.0
 11
214.3286435994623
 21
38.98651481691604
 31
0.0
  0
LINE
  5
2CA
330
2C4
100
AcDbEntity
  8
0
  6
K5LT_BASIC
 62
     5
420
      255
370
    60
100
AcDbLine
 10
215.9746040475392
 20
32.58651472154861
 30
0.0
 11
216.1310861011509
 21
34.4073961956076
 31
0.0
  0
ARC
  5
2CB
330
2C4
100
AcDbEntity
  8
0
  6
K5LT_BASIC
 62
     5
420
      255
370
    60
100
AcDbCircle
 10
215.9766239297414
 20
39.03360677782302
 30
0.0
 40
0.550000011920929
100
AcDbArc
 50
8.736393951707841
 51
188.7363939517078
  0
LINE
  5
2CC
330
2C4
100
AcDbEntity
  8
0
  6
K5LT_BASIC
 62
     5
420
      255
370
    60
100
AcDbLine
 10
216.520242608788
 20
39.11714554849868
 30
0.0
 11
217.5037426126027
 21
32.71714545313125
 31
0.0
  0
ARC
  5
2CD
330
2C4
100
AcDbEntity
  8
0
  6
K5LT_BASIC
 62
     5
420
      255
370
    60
100
AcDbCircle
 10
216.960123933556
 20
32.63360668245559
 30
0.0
 40
0.550000011920929
100
AcDbArc
 50
188.7363939517078
 51
8.736393951707841
  0
LINE
  5
2CE
330
2C4
100
AcDbEntity
  8
0
  6
K5LT_BASIC
 62
     5
420
      255
370
    60
100
AcDbLine
 10
216.4165052545094
 20
32.55006791177993
 30
0.0
 11
215.4330052506947
 21
38.95006800714737
 31
0.0
  0
LINE
  5
2CF
330
2C4
100
AcDbEntity
  8
0
  6
K5LT_BASIC
 62
     5
420
      255
370
    60
100
AcDbLine
 10
216.960123933556
 20
36.2546742627371
 30
0.0
 11
217.4000052583241
 21
39.11714554849868
 31
0.0
  0
LINE
  5
2D0
330
2C4
100
AcDbEntity
  8
0
  6
K5LT_BASIC
 62
     5
420
      255
370
    60
100
AcDbLine
 10
217.5037426126027
 20
32.55006791177993
 30
0.0
 11
218.4872426164174
 21
38.95006800714737
 31
0.0
  0
CIRCLE
  5
2D1
330
2C4
100
AcDbEntity
  8
0
  6
K5LT_BASIC
 62
     5
420
      255
370
    60
100
AcDbCircle
 10
217.9436239373707
 20
39.03360677782302
 30
0.0
 40
0.550000011920929
  0
ARC
  5
2D2
330
2C4
100
AcDbEntity
  8
0
  6
K5LT_BASIC
 62
     5
420
      255
370
    60
100
AcDbCircle
 10
225.7766236436391
 20
32.63360668245559
 30
0.0
 40
0.550000011920929
100
AcDbArc
 50
184.9117781195089
 51
4.911778119508983
  0
LINE
  5
2D3
330
2C4
100
AcDbEntity
  8
0
  6
K5LT_BASIC
 62
     5
420
      255
370
    60
100
AcDbLine
 10
225.2286433351063
 20
32.58651472154861
 30
0.0
 11
224.6786431443715
 21
38.98651481691604
 31
0.0
  0
ARC
  5
2D4
330
2C4
100
AcDbEntity
  8
0
  6
K5LT_BASIC
 62
     5
420
      255
370
    60
100
AcDbCircle
 10
225.2266234529042
 20
39.03360677782302
 30
0.0
 40
0.550000011920929
100
AcDbArc
 50
4.911778119508983
 51
184.9117781195089
  0
LINE
  5
2D5
330
2C4
100
AcDbEntity
  8
0
  6
K5LT_BASIC
 62
     5
420
      255
370
    60
100
AcDbLine
 10
225.7746037614369
 20
39.08069873873001
 30
0.0
 11
226.3246039521718
 21
32.68069864336258
 31
0.0
  0
LINE
  5
2D6
330
2C4
100
AcDbEntity
  8
0
  6
K5LT_BASIC
 62
     5
420
      255
370
    60
100
AcDbLine
 10
224.6786431443715
 20
39.08069873873001
 30
0.0
 11
224.5221613144087
 21
37.25981670980646
 31
0.0
  0
ARC
  5
2D7
330
2C4
100
AcDbEntity
  8
0
  6
K5LT_BASIC
 62
     5
420
      255
370
    60
100
AcDbCircle
 10
224.6766242158436
 20
32.63360668245559
 30
0.0
 40
0.550000011920929
100
AcDbArc
 50
188.73642604555
 51
8.736426045549983
  0
LINE
  5
2D8
330
2C4
100
AcDbEntity
  8
0
  6
K5LT_BASIC
 62
     5
420
      255
370
    60
100
AcDbLine
 10
224.1330060136342
 20
32.55006767336135
 30
0.0
 11
223.1495055329823
 21
38.95006776872879
 31
0.0
  0
ARC
  5
2D9
330
2C4
100
AcDbEntity
  8
0
  6
K5LT_BASIC
 62
     5
420
      255
370
    60
100
AcDbCircle
 10
223.6931237351918
 20
39.03360677782302
 30
0.0
 40
0.550000011920929
100
AcDbArc
 50
8.736426045549983
 51
188.73642604555
  0
LINE
  5
2DA
330
2C4
100
AcDbEntity
  8
0
  6
K5LT_BASIC
 62
     5
420
      255
370
    60
100
AcDbLine
 10
224.2367419374013
 20
39.11714578691726
 30
0.0
 11
225.2202424180531
 21
32.71714569154983
 31
0.0
  0
LINE
  5
2DB
330
2C4
100
AcDbEntity
  8
0
  6
K5LT_BASIC
 62
     5
420
      255
370
    60
100
AcDbLine
 10
223.693123998758
 20
35.41254206207957
 30
0.0
 11
223.2532424104237
 21
32.55006767336135
 31
0.0
  0
LINE
  5
2DC
330
2C4
100
AcDbEntity
  8
0
  6
K5LT_BASIC
 62
     5
420
      255
370
    60
100
AcDbLine
 10
223.1495055329823
 20
39.11714578691726
 30
0.0
 11
222.1660055291676
 21
32.71714569154983
 31
0.0
  0
CIRCLE
  5
2DD
330
2C4
100
AcDbEntity
  8
0
  6
K5LT_BASIC
 62
     5
420
      255
370
    60
100
AcDbCircle
 10
222.7096242082143
 20
32.63360668245559
 30
0.0
 40
0.550000011920929
  0
LINE
  5
2DE
330
2C4
100
AcDbEntity
  8
0
  6
K5LT_AXLED
 62
    30
420
 16744448
370
    18
100
AcDbLine
 10
213.2266238105321
 20
35.83360673013931
 30
0.0
 11
227.4266238582158
 21
35.83360673013931
 31
0.0
  0
LINE
  5
2DF
330
2C4
100
AcDbEntity
  8
0
  6
K5LT_AXLED
 62
    30
420
 16744448
370
    18
100
AcDbLine
 10
213.2266238105321
 20
39.03360671821838
 30
0.0
 11
227.4266238582158
 21
39.03360671821838
 31
0.0
  0
LINE
  5
2E0
330
2C4
100
AcDbEntity
  8
0
  6
K5LT_AXLED
 62
    30
420
 16744448
370
    18
100
AcDbLine
 10
213.2266238105321
 20
32.63360674206024
 30
0.0
 11
227.4266238582158
 21
32.63360674206024
 31
0.0
  0
HATCH
  5
2E1
330
2C4
100
AcDbEntity
  8
0
 62
     7
100
AcDbHatch
 10
0.0
 20
0.0
 30
0.0
210
0.0
220
0.0
230
1.0
  2
Металл
 70
     0
 71
     0
 91
        1
 92
        1
 93
        8
 72
     1
 10
218.4936239492917
 20
39.03360677782302
 11
218.3325326754527
 21
39.422515515905
 72
     1
 10
218.3325326754527
 20
39.422515515905
 11
217.9436239373707
 21
39.58360678974395
 72
     1
 10
217.9436239373707
 20
39.58360678974395
 11
217.5547151992888
 21
39.422515515905
 72
     1
 10
217.5547151992888
 20
39.422515515905
 11
217.3936239254498
 21
39.03360677782302
 72
     1
 10
217.3936239254498
 20
39.03360677782302
 11
217.5547151992888
 21
38.64469803974105
 72
     1
 10
217.5547151992888
 20
38.64469803974105
 11
217.9436239373707
 21
38.4836067659021
 72
     1
 10
217.9436239373707
 20
38.4836067659021
 11
218.3325326754527
 21
38.64469803974105
 72
     1
 10
218.3325326754527
 20
38.64469803974105
 11
218.4936239492917
 21
39.03360677782302
 97
        0
 75
     0
 76
     0
 52
45.0
 41
1.0
 77
     0
 78
     1
 53
45.0
 43
0.0
 44
0.0
 45
-0.1767766952966369
 46
0.1767766952966369
 79
     0
 98
        0
  0
HATCH
  5
2E2
330
2C4
100
AcDbEntity
  8
0
 62
     7
100
AcDbHatch
 10
0.0
 20
0.0
 30
0.0
210
0.0
220
0.0
230
1.0
  2
Металл
 70
     0
 71
     0
 91
        1
 92
        1
 93
        8
 72
     1
 10
223.2596242201352
 20
32.63360668245559
 11
223.0985329462962
 21
33.02251542053757
 72
     1
 10
223.0985329462962
 20
33.02251542053757
 11
222.7096242082143
 21
33.18360669437652
 72
     1
 10
222.7096242082143
 20
33.18360669437652
 11
222.3207154701323
 21
33.02251542053757
 72
     1
 10
222.3207154701323
 20
33.02251542053757
 11
222.1596241962933
 21
32.63360668245559
 72
     1
 10
222.1596241962933
 20
32.63360668245559
 11
222.3207154701323
 21
32.24469794437362
 72
     1
 10
222.3207154701323
 20
32.24469794437362
 11
222.7096242082143
 21
32.08360667053466
 72
     1
 10
222.7096242082143
 20
32.08360667053466
 11
223.0985329462962
 21
32.24469794437362
 72
     1
 10
223.0985329462962
 20
32.24469794437362
 11
223.2596242201352
 21
32.63360668245559
 97
        0
 75
     0
 76
     0
 52
45.0
 41
1.0
 77
     0
 78
     1
 53
45.0
 43
0.0
 44
0.0
 45
-0.1767766952966369
 46
0.1767766952966369
 79
     0
 98
        0
  0
ENDBLK
  5
2E4
330
2C4
100
AcDbEntity
  8
0
100
AcDbBlockEnd
  0
BLOCK
  5
304
330
2E5
100
AcDbEntity
  8
0
100
AcDbBlockBegin
  2
U26
 70
     0
 10
0.0
 20
0.0
 30
0.0
  3
U26
  1

  0
ARC
  5
2E7
330
2E5
100
AcDbEntity
  8
0
  6
K5LT_DASHED
 62
     7
370
    18
100
AcDbCircle
 10
214.9884836075704
 20
-24.33854596501112
 30
0.0
 40
0.550000011920929
100
AcDbArc
 50
4.911778651156686
 51
184.9117786698472
  0
LINE
  5
2E8
330
2E5
100
AcDbEntity
  8
0
  6
K5LT_DASHED
 62
     7
370
    18
100
AcDbLine
 10
215.5364638564985
 20
-24.29145400410414
 30
0.0
 11
216.0864638088148
 21
-30.69145409947157
 31
0.0
  0
ARC
  5
2E9
330
2E5
100
AcDbEntity
  8
0
  6
K5LT_DASHED
 62
     7
370
    18
100
AcDbCircle
 10
215.5384836194914
 20
-30.73854606037855
 30
0.0
 40
0.550000011920929
100
AcDbArc
 50
184.9117786511566
 51
4.91177918280439
  0
LINE
  5
2EA
330
2E5
100
AcDbEntity
  8
0
  6
K5LT_DASHED
 62
     7
370
    18
100
AcDbLine
 10
214.9905033705633
 20
-30.78563802128554
 30
0.0
 11
214.4405033607378
 21
-24.3856379259181
 31
0.0
  0
LINE
  5
2EB
330
2E5
100
AcDbEntity
  8
0
  6
K5LT_DASHED
 62
     7
370
    18
100
AcDbLine
 10
216.0864638088148
 20
-30.78563802128554
 30
0.0
 11
216.2429458624265
 21
-28.96475654722654
 31
0.0
  0
ARC
  5
2EC
330
2E5
100
AcDbEntity
  8
0
  6
K5LT_DASHED
 62
     7
370
    18
100
AcDbCircle
 10
216.0884836910169
 20
-24.33854596501112
 30
0.0
 40
0.550000011920929
100
AcDbArc
 50
8.736393951708207
 51
188.7363939517082
  0
LINE
  5
2ED
330
2E5
100
AcDbEntity
  8
0
  6
K5LT_DASHED
 62
     7
370
    18
100
AcDbLine
 10
216.6321023700636
 20
-24.25500719433546
 30
0.0
 11
217.6156023738783
 21
-30.65500728970289
 31
0.0
  0
ARC
  5
2EE
330
2E5
100
AcDbEntity
  8
0
  6
K5LT_DASHED
 62
     7
370
    18
100
AcDbCircle
 10
217.0719836948316
 20
-30.73854606037855
 30
0.0
 40
0.550000011920929
100
AcDbArc
 50
188.7363939517082
 51
8.736393951708207
  0
LINE
  5
2EF
330
2E5
100
AcDbEntity
  8
0
  6
K5LT_DASHED
 62
     7
370
    18
100
AcDbLine
 10
216.528365015785
 20
-30.82208483105421
 30
0.0
 11
215.5448650119703
 21
-24.42208473568678
 31
0.0
  0
LINE
  5
2F0
330
2E5
100
AcDbEntity
  8
0
  6
K5LT_DASHED
 62
     7
370
    18
100
AcDbLine
 10
217.0719836948316
 20
-27.11747848009704
 30
0.0
 11
217.5118650195997
 21
-24.25500719433546
 31
0.0
  0
LINE
  5
2F1
330
2E5
100
AcDbEntity
  8
0
  6
K5LT_DASHED
 62
     7
370
    18
100
AcDbLine
 10
217.6156023738783
 20
-30.82208483105421
 30
0.0
 11
218.599102377693
 21
-24.42208473568678
 31
0.0
  0
CIRCLE
  5
2F2
330
2E5
100
AcDbEntity
  8
0
  6
K5LT_DASHED
 62
     7
370
    18
100
AcDbCircle
 10
218.0554836986463
 20
-24.33854596501112
 30
0.0
 40
0.550000011920929
  0
ARC
  5
2F3
330
2E5
100
AcDbEntity
  8
0
  6
K5LT_DASHED
 62
     7
370
    18
100
AcDbCircle
 10
220.8884834049146
 20
-30.73854606037855
 30
0.0
 40
0.550000011920929
100
AcDbArc
 50
184.9117781195089
 51
4.911778119508983
  0
LINE
  5
2F4
330
2E5
100
AcDbEntity
  8
0
  6
K5LT_DASHED
 62
     7
370
    18
100
AcDbLine
 10
220.3405030963819
 20
-30.78563802128554
 30
0.0
 11
219.7905033824842
 21
-24.3856379259181
 31
0.0
  0
ARC
  5
2F5
330
2E5
100
AcDbEntity
  8
0
  6
K5LT_DASHED
 62
     7
370
    18
100
AcDbCircle
 10
220.3384836910169
 20
-24.33854596501112
 30
0.0
 40
0.550000011920929
100
AcDbArc
 50
4.911778119508983
 51
184.9117781195089
  0
LINE
  5
2F6
330
2E5
100
AcDbEntity
  8
0
  6
K5LT_DASHED
 62
     7
370
    18
100
AcDbLine
 10
220.8864639995496
 20
-24.29145400410414
 30
0.0
 11
221.4364637134474
 21
-30.69145409947157
 31
0.0
  0
LINE
  5
2F7
330
2E5
100
AcDbEntity
  8
0
  6
K5LT_DASHED
 62
     7
370
    18
100
AcDbLine
 10
219.7905033824842
 20
-24.29145400410414
 30
0.0
 11
219.6340213288725
 21
-26.11233547816313
 31
0.0
  0
ARC
  5
2F8
330
2E5
100
AcDbEntity
  8
0
  6
K5LT_DASHED
 62
     7
370
    18
100
AcDbCircle
 10
219.7884835002821
 20
-30.73854606037855
 30
0.0
 40
0.550000011920929
100
AcDbArc
 50
188.7364185005891
 51
8.736418500589126
  0
LINE
  5
2F9
330
2E5
100
AcDbEntity
  8
0
  6
K5LT_DASHED
 62
     7
370
    18
100
AcDbLine
 10
219.2448648212354
 20
-30.82208506947279
 30
0.0
 11
218.2613648174207
 21
-24.42208497410536
 31
0.0
  0
ARC
  5
2FA
330
2E5
100
AcDbEntity
  8
0
  6
K5LT_DASHED
 62
     7
370
    18
100
AcDbCircle
 10
218.8049834964674
 20
-24.33854596501112
 30
0.0
 40
0.550000011920929
100
AcDbArc
 50
8.736418500589126
 51
188.7364185005891
  0
LINE
  5
2FB
330
2E5
100
AcDbEntity
  8
0
  6
K5LT_DASHED
 62
     7
370
    18
100
AcDbLine
 10
219.348602175514
 20
-24.25500695591688
 30
0.0
 11
220.3321021793287
 21
-30.65500705128431
 31
0.0
  0
LINE
  5
2FC
330
2E5
100
AcDbEntity
  8
0
  6
K5LT_DASHED
 62
     7
370
    18
100
AcDbLine
 10
218.8049834964674
 20
-27.95961378371121
 30
0.0
 11
218.3651021716993
 21
-30.82208506947279
 31
0.0
  0
LINE
  5
2FD
330
2E5
100
AcDbEntity
  8
0
  6
K5LT_DASHED
 62
     7
370
    18
100
AcDbLine
 10
218.2613648174207
 20
-24.25500695591688
 30
0.0
 11
217.277864813606
 21
-30.65500705128431
 31
0.0
  0
CIRCLE
  5
2FE
330
2E5
100
AcDbEntity
  8
0
  6
K5LT_DASHED
 62
     7
370
    18
100
AcDbCircle
 10
217.8214834926527
 20
-30.73854606037855
 30
0.0
 40
0.550000011920929
  0
LINE
  5
2FF
330
2E5
100
AcDbEntity
  8
0
  6
K5LT_DASHED
 62
     7
370
    18
100
AcDbLine
 10
213.3384835718076
 20
-27.53854601269484
 30
0.0
 11
222.5384836194914
 21
-27.53854601269484
 31
0.0
  0
LINE
  5
300
330
2E5
100
AcDbEntity
  8
0
  6
K5LT_DASHED
 62
     7
370
    18
100
AcDbLine
 10
213.3384835718076
 20
-24.33854602461577
 30
0.0
 11
222.5384836194914
 21
-24.33854602461577
 31
0.0
  0
LINE
  5
301
330
2E5
100
AcDbEntity
  8
0
  6
K5LT_DASHED
 62
     7
370
    18
100
AcDbLine
 10
213.3384835718076
 20
-30.73854600077391
 30
0.0
 11
222.5384836194914
 21
-30.73854600077391
 31
0.0
  0
HATCH
  5
302
330
2E5
100
AcDbEntity
  8
0
 62
     7
100
AcDbHatch
 10
0.0
 20
0.0
 30
0.0
210
0.0
220
0.0
230
1.0
  2
Металл
 70
     0
 71
     0
 91
        1
 92
        1
 93
        8
 72
     1
 10
218.6054837105673
 20
-24.33854596501112
 11
218.4443924367283
 21
-23.94963722692915
 72
     1
 10
218.4443924367283
 20
-23.94963722692915
 11
218.0554836986463
 21
-23.78854595309019
 72
     1
 10
218.0554836986463
 20
-23.78854595309019
 11
217.6665749605644
 21
-23.94963722692915
 72
     1
 10
217.6665749605644
 20
-23.94963722692915
 11
217.5054836867254
 21
-24.33854596501112
 72
     1
 10
217.5054836867254
 20
-24.33854596501112
 11
217.6665749605644
 21
-24.72745470309309
 72
     1
 10
217.6665749605644
 20
-24.72745470309309
 11
218.0554836986463
 21
-24.88854597693205
 72
     1
 10
218.0554836986463
 20
-24.88854597693205
 11
218.4443924367283
 21
-24.72745470309309
 72
     1
 10
218.4443924367283
 20
-24.72745470309309
 11
218.6054837105673
 21
-24.33854596501112
 97
        0
 75
     0
 76
     0
 52
45.0
 41
1.0
 77
     0
 78
     1
 53
45.0
 43
0.0
 44
0.0
 45
-0.1767766952966369
 46
0.1767766952966369
 79
     0
 98
        0
  0
HATCH
  5
303
330
2E5
100
AcDbEntity
  8
0
 62
     7
100
AcDbHatch
 10
0.0
 20
0.0
 30
0.0
210
0.0
220
0.0
230
1.0
  2
Металл
 70
     0
 71
     0
 91
        1
 92
        1
 93
        8
 72
     1
 10
218.3714835045736
 20
-30.73854606037855
 11
218.2103922307346
 21
-30.34963732229658
 72
     1
 10
218.2103922307346
 20
-30.34963732229658
 11
217.8214834926527
 21
-30.18854604845762
 72
     1
 10
217.8214834926527
 20
-30.18854604845762
 11
217.4325747545707
 21
-30.34963732229658
 72
     1
 10
217.4325747545707
 20
-30.34963732229658
 11
217.2714834807317
 21
-30.73854606037855
 72
     1
 10
217.2714834807317
 20
-30.73854606037855
 11
217.4325747545707
 21
-31.12745479846052
 72
     1
 10
217.4325747545707
 20
-31.12745479846052
 11
217.8214834926527
 21
-31.28854607229948
 72
     1
 10
217.8214834926527
 20
-31.28854607229948
 11
218.2103922307346
 21
-31.12745479846052
 72
     1
 10
218.2103922307346
 20
-31.12745479846052
 11
218.3714835045736
 21
-30.73854606037855
 97
        0
 75
     0
 76
     0
 52
45.0
 41
1.0
 77
     0
 78
     1
 53
45.0
 43
0.0
 44
0.0
 45
-0.1767766952966369
 46
0.1767766952966369
 79
     0
 98
        0
  0
ENDBLK
  5
305
330
2E5
100
AcDbEntity
  8
0
100
AcDbBlockEnd
  0
BLOCK
  5
325
330
306
100
AcDbEntity
  8
0
100
AcDbBlockBegin
  2
U27
 70
     0
 10
0.0
 20
0.0
 30
0.0
  3
U27
  1

  0
ARC
  5
308
330
306
100
AcDbEntity
  8
0
  6
K5LT_BASIC
 62
     5
420
      255
370
    60
100
AcDbCircle
 10
475.3692392117658
 20
16.65357597171362
 30
0.0
 40
0.550000011920929
100
AcDbArc
 50
355.0882213301525
 51
175.0882213488435
  0
LINE
  5
309
330
306
100
AcDbEntity
  8
0
  6
K5LT_BASIC
 62
     5
420
      255
370
    60
100
AcDbLine
 10
474.8212589628378
 20
16.7006679326206
 30
0.0
 11
474.2712590105215
 21
10.30066783725317
 31
0.0
  0
ARC
  5
30A
330
306
100
AcDbEntity
  8
0
  6
K5LT_BASIC
 62
     5
420
      255
370
    60
100
AcDbCircle
 10
474.8192391998449
 20
10.25357587634619
 30
0.0
 40
0.550000011920929
100
AcDbArc
 50
175.0882208171953
 51
355.0882213488435
  0
LINE
  5
30B
330
306
100
AcDbEntity
  8
0
  6
K5LT_BASIC
 62
     5
420
      255
370
    60
100
AcDbLine
 10
475.367219448773
 20
10.20648391543921
 30
0.0
 11
475.9172194585984
 21
16.60648401080664
 31
0.0
  0
LINE
  5
30C
330
306
100
AcDbEntity
  8
0
  6
K5LT_BASIC
 62
     5
420
      255
370
    60
100
AcDbLine
 10
474.2712590105215
 20
10.20648391543921
 30
0.0
 11
474.1147769569098
 21
12.0273653894982
 31
0.0
  0
ARC
  5
30D
330
306
100
AcDbEntity
  8
0
  6
K5LT_BASIC
 62
     5
420
      255
370
    60
100
AcDbCircle
 10
474.2692391283193
 20
16.65357597171362
 30
0.0
 40
0.550000011920929
100
AcDbArc
 50
351.2636060482914
 51
171.2636060482914
  0
LINE
  5
30E
330
306
100
AcDbEntity
  8
0
  6
K5LT_BASIC
 62
     5
420
      255
370
    60
100
AcDbLine
 10
473.7256204492727
 20
16.73711474238928
 30
0.0
 11
472.742120445458
 21
10.33711464702185
 31
0.0
  0
ARC
  5
30F
330
306
100
AcDbEntity
  8
0
  6
K5LT_BASIC
 62
     5
420
      255
370
    60
100
AcDbCircle
 10
473.2857391245046
 20
10.25357587634619
 30
0.0
 40
0.550000011920929
100
AcDbArc
 50
171.2636060482913
 51
351.2636060482914
  0
LINE
  5
310
330
306
100
AcDbEntity
  8
0
  6
K5LT_BASIC
 62
     5
420
      255
370
    60
100
AcDbLine
 10
473.8293578035513
 20
10.17003710567053
 30
0.0
 11
474.812857807366
 21
16.57003720103796
 31
0.0
  0
LINE
  5
311
330
306
100
AcDbEntity
  8
0
  6
K5LT_BASIC
 62
     5
420
      255
370
    60
100
AcDbLine
 10
473.2857391245046
 20
13.8746434566277
 30
0.0
 11
472.8458577997366
 21
16.73711474238928
 31
0.0
  0
LINE
  5
312
330
306
100
AcDbEntity
  8
0
  6
K5LT_BASIC
 62
     5
420
      255
370
    60
100
AcDbLine
 10
472.742120445458
 20
10.17003710567053
 30
0.0
 11
471.7586204416433
 21
16.57003720103796
 31
0.0
  0
CIRCLE
  5
313
330
306
100
AcDbEntity
  8
0
  6
K5LT_BASIC
 62
     5
420
      255
370
    60
100
AcDbCircle
 10
472.3022391206899
 20
16.65357597171362
 30
0.0
 40
0.550000011920929
  0
ARC
  5
314
330
306
100
AcDbEntity
  8
0
  6
K5LT_BASIC
 62
     5
420
      255
370
    60
100
AcDbCircle
 10
464.4692394144216
 20
10.25357587634619
 30
0.0
 40
0.550000011920929
100
AcDbArc
 50
175.0882218804915
 51
355.0882218804915
  0
LINE
  5
315
330
306
100
AcDbEntity
  8
0
  6
K5LT_BASIC
 62
     5
420
      255
370
    60
100
AcDbLine
 10
465.0172197229543
 20
10.20648391543921
 30
0.0
 11
465.5672199136892
 21
16.60648401080664
 31
0.0
  0
ARC
  5
316
330
306
100
AcDbEntity
  8
0
  6
K5LT_BASIC
 62
     5
420
      255
370
    60
100
AcDbCircle
 10
465.0192396051565
 20
16.65357597171362
 30
0.0
 40
0.550000011920929
100
AcDbArc
 50
355.0882218804913
 51
175.0882218804912
  0
LINE
  5
317
330
306
100
AcDbEntity
  8
0
  6
K5LT_BASIC
 62
     5
420
      255
370
    60
100
AcDbLine
 10
464.4712592966238
 20
16.7006679326206
 30
0.0
 11
463.9212591058889
 21
10.30066783725317
 31
0.0
  0
LINE
  5
318
330
306
100
AcDbEntity
  8
0
  6
K5LT_BASIC
 62
     5
420
      255
370
    60
100
AcDbLine
 10
465.5672199136892
 20
16.7006679326206
 30
0.0
 11
465.723701743652
 21
14.87978590369706
 31
0.0
  0
ARC
  5
319
330
306
100
AcDbEntity
  8
0
  6
K5LT_BASIC
 62
     5
420
      255
370
    60
100
AcDbCircle
 10
465.569238842217
 20
10.25357587634619
 30
0.0
 40
0.550000011920929
100
AcDbArc
 50
171.2635739544502
 51
351.2635739544502
  0
LINE
  5
31A
330
306
100
AcDbEntity
  8
0
  6
K5LT_BASIC
 62
     5
420
      255
370
    60
100
AcDbLine
 10
466.1128570444265
 20
10.17003686725195
 30
0.0
 11
467.0963575250784
 21
16.57003696261938
 31
0.0
  0
ARC
  5
31B
330
306
100
AcDbEntity
  8
0
  6
K5LT_BASIC
 62
     5
420
      255
370
    60
100
AcDbCircle
 10
466.5527393228689
 20
16.65357597171362
 30
0.0
 40
0.550000011920929
100
AcDbArc
 50
351.26357395445
 51
171.26357395445
  0
LINE
  5
31C
330
306
100
AcDbEntity
  8
0
  6
K5LT_BASIC
 62
     5
420
      255
370
    60
100
AcDbLine
 10
466.0091211206594
 20
16.73711498080786
 30
0.0
 11
465.0256206400076
 21
10.33711488544043
 31
0.0
  0
LINE
  5
31D
330
306
100
AcDbEntity
  8
0
  6
K5LT_BASIC
 62
     5
420
      255
370
    60
100
AcDbLine
 10
466.5527390593027
 20
13.03251125597016
 30
0.0
 11
466.992620647637
 21
10.17003686725195
 31
0.0
  0
LINE
  5
31E
330
306
100
AcDbEntity
  8
0
  6
K5LT_BASIC
 62
     5
420
      255
370
    60
100
AcDbLine
 10
467.0963575250784
 20
16.73711498080786
 30
0.0
 11
468.0798575288931
 21
10.33711488544043
 31
0.0
  0
CIRCLE
  5
31F
330
306
100
AcDbEntity
  8
0
  6
K5LT_BASIC
 62
     5
420
      255
370
    60
100
AcDbCircle
 10
467.5362388498464
 20
10.25357587634619
 30
0.0
 40
0.550000011920929
  0
LINE
  5
320
330
306
100
AcDbEntity
  8
0
  6
K5LT_AXLED
 62
    30
420
 16744448
370
    18
100
AcDbLine
 10
477.0192392475286
 20
13.45357592402991
 30
0.0
 11
462.8192391998449
 21
13.45357592402991
 31
0.0
  0
LINE
  5
321
330
306
100
AcDbEntity
  8
0
  6
K5LT_AXLED
 62
    30
420
 16744448
370
    18
100
AcDbLine
 10
477.0192392475286
 20
16.65357591210898
 30
0.0
 11
462.8192391998449
 21
16.65357591210898
 31
0.0
  0
LINE
  5
322
330
306
100
AcDbEntity
  8
0
  6
K5LT_AXLED
 62
    30
420
 16744448
370
    18
100
AcDbLine
 10
477.0192392475286
 20
10.25357593595083
 30
0.0
 11
462.8192391998449
 21
10.25357593595083
 31
0.0
  0
HATCH
  5
323
330
306
100
AcDbEntity
  8
0
 62
     7
100
AcDbHatch
 10
0.0
 20
0.0
 30
0.0
210
0.0
220
0.0
230
1.0
  2
Металл
 70
     0
 71
     0
 91
        1
 92
        1
 93
        8
 72
     1
 10
472.8522391326109
 20
16.65357597171362
 11
472.6911478587719
 21
17.04248470979559
 72
     1
 10
472.6911478587719
 20
17.04248470979559
 11
472.3022391206899
 21
17.20357598363455
 72
     1
 10
472.3022391206899
 20
17.20357598363455
 11
471.913330382608
 21
17.04248470979559
 72
     1
 10
471.913330382608
 20
17.04248470979559
 11
471.752239108769
 21
16.65357597171362
 72
     1
 10
471.752239108769
 20
16.65357597171362
 11
471.913330382608
 21
16.26466723363165
 72
     1
 10
471.913330382608
 20
16.26466723363165
 11
472.3022391206899
 21
16.10357595979269
 72
     1
 10
472.3022391206899
 20
16.10357595979269
 11
472.6911478587719
 21
16.26466723363165
 72
     1
 10
472.6911478587719
 20
16.26466723363165
 11
472.8522391326109
 21
16.65357597171362
 97
        0
 75
     0
 76
     0
 52
45.0
 41
1.0
 77
     0
 78
     1
 53
45.0
 43
0.0
 44
0.0
 45
-0.1767766952966369
 46
0.1767766952966369
 79
     0
 98
        0
  0
HATCH
  5
324
330
306
100
AcDbEntity
  8
0
 62
     7
100
AcDbHatch
 10
0.0
 20
0.0
 30
0.0
210
0.0
220
0.0
230
1.0
  2
Металл
 70
     0
 71
     0
 91
        1
 92
        1
 93
        8
 72
     1
 10
468.0862388617674
 20
10.25357587634619
 11
467.9251475879284
 21
10.64248461442816
 72
     1
 10
467.9251475879284
 20
10.64248461442816
 11
467.5362388498464
 21
10.80357588826712
 72
     1
 10
467.5362388498464
 20
10.80357588826712
 11
467.1473301117645
 21
10.64248461442816
 72
     1
 10
467.1473301117645
 20
10.64248461442816
 11
466.9862388379255
 21
10.25357587634619
 72
     1
 10
466.9862388379255
 20
10.25357587634619
 11
467.1473301117645
 21
9.864667138264219
 72
     1
 10
467.1473301117645
 20
9.864667138264219
 11
467.5362388498464
 21
9.703575864425261
 72
     1
 10
467.5362388498464
 20
9.703575864425261
 11
467.9251475879284
 21
9.864667138264219
 72
     1
 10
467.9251475879284
 20
9.864667138264219
 11
468.0862388617674
 21
10.25357587634619
 97
        0
 75
     0
 76
     0
 52
45.0
 41
1.0
 77
     0
 78
     1
 53
45.0
 43
0.0
 44
0.0
 45
-0.1767766952966369
 46
0.1767766952966369
 79
     0
 98
        0
  0
ENDBLK
  5
326
330
306
100
AcDbEntity
  8
0
100
AcDbBlockEnd
  0
ENDSEC
  0
SECTION
  2
ENTITIES
  0
INSERT
  5
A5
330
1F
100
AcDbEntity
  8
0
100
AcDbBlockReference
  2
U0
 10
0.0
 20
0.0
 30
0.0
  0
INSERT
  5
AE
330
1F
100
AcDbEntity
  8
0
100
AcDbBlockReference
  2
U1
 10
0.0
 20
0.0
 30
0.0
  0
HATCH
  5
B5
330
1F
100
AcDbEntity
  8
0
 62
     7
100
AcDbHatch
 10
0.0
 20
0.0
 30
0.0
210
0.0
220
0.0
230
1.0
  2
Металл
 70
     0
 71
     0
 91
        1
 92
        1
 93
       13
 72
     1
 10
233.5913008454054
 20
31.94875597794482
 11
230.9472524356546
 21
31.04062522894587
 72
     1
 10
230.9472524356546
 20
31.04062522894587
 11
229.2079056013837
 21
28.85193474363401
 72
     1
 10
229.2079056013837
 20
28.85193474363401
 11
228.9203478108151
 21
26.07110681521663
 72
     1
 10
228.9203478108151
 20
26.07110681521663
 11
230.1750263861907
 21
23.57281237242644
 72
     1
 10
230.1750263861907
 20
23.57281237242644
 11
232.5772995506605
 21
22.14285534732003
 72
     1
 10
232.5772995506605
 20
22.14285534732003
 11
235.3715655360013
 21
22.23100892665819
 72
     1
 10
235.3715655360013
 20
22.23100892665819
 11
237.6789266587037
 21
23.80954562240655
 72
     1
 10
237.6789266587037
 20
23.80954562240655
 11
238.7736344193759
 21
26.38195856925372
 72
     1
 10
238.7736344193759
 20
26.38195856925372
 11
238.8083647472281
 21
26.96936121208284
 72
     1
 10
238.8083647472281
 20
26.96936121208284
 11
238.0244135084795
 21
29.65285034111756
 72
     1
 10
238.0244135084795
 20
29.65285034111756
 11
235.9191408018211
 21
31.49228511326411
 72
     1
 10
235.9191408018211
 20
31.49228511326411
 11
234.0558118360723
 21
31.94875597794482
 72
     1
 10
234.0558118360723
 20
31.94875597794481
 11
233.5913008454054
 21
31.94875597794481
 97
        0
 75
     0
 76
     0
 52
45.0
 41
1.0
 77
     0
 78
     1
 53
45.0
 43
0.0
 44
0.0
 45
-1.060660171779821
 46
1.060660171779821
 79
     0
 98
        0
  0
HATCH
  5
B6
330
1F
100
AcDbEntity
  8
0
 62
     7
100
AcDbHatch
 10
0.0
 20
0.0
 30
0.0
210
0.0
220
0.0
230
1.0
  2
Неметалл
 70
     0
 71
     0
 91
        1
 92
        1
 93
       26
 72
     1
 10
248.8384841976564
 20
16.86936106158112
 11
248.8384841976564
 21
31.96936128658865
 72
     1
 10
248.8384841976564
 20
31.96936128658865
 11
238.6783341197051
 21
32.01229033880759
 72
     1
 10
238.6783341197051
 20
32.01229033880759
 11
239.8719627355715
 21
30.49310659778536
 72
     1
 10
239.8719627355715
 20
30.49310659778536
 11
240.8235564450469
 21
26.96936121208284
 72
     1
 10
240.8235564450469
 20
26.96936121208284
 11
240.3115028277832
 21
24.3413292789507
 72
     1
 10
240.3115028277832
 20
24.3413292789507
 11
237.2260133080877
 21
20.85190356648747
 72
     1
 10
237.2260133080877
 20
20.85190356648747
 11
233.8235563407388
 21
19.96936110777472
 72
     1
 10
233.8235563407388
 20
19.96936110777472
 11
231.0426820194427
 21
20.54544188900053
 72
     1
 10
231.0426820194427
 20
20.54544188900053
 11
228.7983261576268
 21
22.0962653719568
 72
     1
 10
228.7983261576268
 20
22.0962653719568
 11
227.3799176682665
 21
24.23448971255425
 72
     1
 10
227.3799176682665
 20
24.23448971255425
 11
226.8483730343568
 21
26.38044754890001
 72
     1
 10
226.8483730343568
 20
26.38044754890001
 11
226.9410441940771
 21
28.24647828242814
 72
     1
 10
226.9410441940771
 20
28.24647828242814
 11
227.4815132384792
 21
29.93221300543917
 72
     1
 10
227.4815132384792
 20
29.93221300543917
 11
228.2413872975511
 21
31.19303144466392
 72
     1
 10
228.2413872975511
 20
31.19303144466392
 11
228.9036346720514
 21
31.94875597794481
 72
     1
 10
228.9036346720514
 20
31.94875597794481
 11
219.837588559064
 21
31.94875597794481
 72
     1
 10
219.837588559064
 20
31.94875597794481
 11
214.4384835956495
 21
31.94875597794481
 72
     1
 10
214.4384835956495
 20
31.94875597794481
 11
214.4384835956495
 21
39.71845748233375
 72
     1
 10
214.4384835956495
 20
39.71845748233375
 11
219.4003158027672
 21
39.71845748233375
 72
     1
 10
219.4003158027672
 20
39.71845748233375
 11
226.4384835956495
 21
39.75171916576113
 72
     1
 10
226.4384835956495
 20
39.75171916576113
 11
233.4327960730203
 21
39.71845748233375
 72
     1
 10
233.4327960730203
 20
39.71845748233375
 11
248.8454218530274
 21
39.71845748233375
 72
     1
 10
248.8454218530274
 20
39.71845748233375
 11
248.8454218530274
 21
43.15804679749016
 72
     1
 10
248.8454218530274
 20
43.15804679749016
 11
208.4384835956495
 21
43.15804679749016
 72
     1
 10
208.4384835956495
 20
43.15804679749016
 11
208.4384835956495
 21
16.86936106158112
 72
     1
 10
208.4384835956495
 20
16.86936106158112
 11
248.8384841976564
 21
16.86936106158112
 97
        0
 75
     0
 76
     0
 52
45.0
 41
1.0
 77
     0
 78
     2
 53
45.0
 43
0.0
 44
0.0
 45
-2.121320343559642
 46
2.121320343559643
 79
     0
 53
135.0
 43
0.0
 44
0.0
 45
-2.121320343559643
 46
-2.121320343559642
 79
     0
 98
        0
  0
INSERT
  5
B8
330
1F
100
AcDbEntity
  8
0
100
AcDbBlockReference
  2
U2
 10
0.0
 20
0.0
 30
0.0
  0
INSERT
  5
C0
330
1F
100
AcDbEntity
  8
0
100
AcDbBlockReference
  2
U3
 10
0.0
 20
0.0
 30
0.0
  0
HATCH
  5
C7
330
1F
100
AcDbEntity
  8
0
 62
     7
100
AcDbHatch
 10
0.0
 20
0.0
 30
0.0
210
0.0
220
0.0
230
1.0
  2
Металл
 70
     0
 71
     0
 91
        1
 92
        1
 93
       13
 72
     1
 10
233.5913008454054
 20
-31.36360260422741
 11
230.9472524356546
 21
-32.27173335322637
 72
     1
 10
230.9472524356546
 20
-32.27173335322637
 11
229.2079056013837
 21
-34.46042383853822
 72
     1
 10
229.2079056013837
 20
-34.46042383853822
 11
228.9203478108151
 21
-37.24125176695561
 72
     1
 10
228.9203478108151
 20
-37.24125176695561
 11
230.1750263861907
 21
-39.7395462097458
 72
     1
 10
230.1750263861907
 20
-39.7395462097458
 11
232.5772995506605
 21
-41.16950323485221
 72
     1
 10
232.5772995506605
 20
-41.16950323485221
 11
235.3715655360013
 21
-41.08134965551405
 72
     1
 10
235.3715655360013
 20
-41.08134965551405
 11
237.6789266587037
 21
-39.50281295976568
 72
     1
 10
237.6789266587037
 20
-39.50281295976568
 11
238.7736344193759
 21
-36.93040001291852
 72
     1
 10
238.7736344193759
 20
-36.93040001291852
 11
238.8083647472281
 21
-36.34299737008939
 72
     1
 10
238.8083647472281
 20
-36.34299737008939
 11
238.0244135084795
 21
-33.65950824105468
 72
     1
 10
238.0244135084795
 20
-33.65950824105468
 11
235.9191408018211
 21
-31.82007346890813
 72
     1
 10
235.9191408018211
 20
-31.82007346890813
 11
234.0558118360723
 21
-31.36360260422741
 72
     1
 10
234.0558118360723
 20
-31.36360260422737
 11
233.5913008454054
 21
-31.36360260422737
 97
        0
 75
     0
 76
     0
 52
45.0
 41
1.0
 77
     0
 78
     1
 53
45.0
 43
0.0
 44
0.0
 45
-1.060660171779821
 46
1.060660171779821
 79
     0
 98
        0
  0
MTEXT
  5
EB
330
1F
100
AcDbEntity
  8
0
 62
     7
100
AcDbMText
 10
203.8202424195432
 20
78.24546538507764
 30
0.0
 40
0.0
 41
0.0
 46
0.0
 71
     1
 72
     1
  1
\H3.5;\W0.965;\Q15;\L\Q15;Замок кнопочной  фиксации  закрытый.
  7
KTEXTSTYLE
 73
     1
 44
1.0
  0
INSERT
  5
ED
330
1F
100
AcDbEntity
  8
0
100
AcDbBlockReference
  2
U4
 10
0.0
 20
0.0
 30
0.0
  0
MTEXT
  5
F6
330
1F
100
AcDbEntity
  8
0
 62
     7
100
AcDbMText
 10
200.7526652732492
 20
-62.39184484446071
 30
0.0
 40
0.0
 41
0.0
 46
0.0
 71
     1
 72
     1
  1
\H3.5;\W0.965;\Q15;\L\Q15;Замок фиксации крыла открытый.
  7
KTEXTSTYLE
 73
     1
 44
1.0
  0
HATCH
  5
F7
330
1F
100
AcDbEntity
  8
0
 62
     7
100
AcDbHatch
 10
0.0
 20
0.0
 30
0.0
210
0.0
220
0.0
230
1.0
  2
Металл
 70
     0
 71
     0
 91
        1
 92
        1
 93
       12
 72
     1
 10
279.0067358249796
 20
33.84996103376679
 11
278.4880245408291
 21
36.26054990304297
 72
     1
 10
278.4880245408291
 20
36.26054990304297
 11
279.518917888844
 21
38.50047378523227
 72
     1
 10
279.518917888844
 20
38.50047378523227
 11
281.687329645159
 21
39.67435220655977
 72
     1
 10
281.687329645159
 20
39.67435220655977
 11
284.1264653793264
 21
39.31294251757659
 72
     1
 10
284.1264653793264
 20
39.31294251757659
 11
285.8613122676401
 21
37.56071354649679
 72
     1
 10
285.8613122676401
 20
37.56071354649679
 11
286.2645849274313
 21
35.83360673013931
 72
     1
 10
286.2645849274313
 20
35.83360673013931
 11
285.722433913654
 21
33.84996103376679
 72
     1
 10
285.722433913654
 20
33.84996103376676
 11
288.4973698865925
 21
33.84996103376676
 72
     1
 10
288.4973698865925
 20
33.84996103376676
 11
288.4973698865925
 21
43.15804679749016
 72
     1
 10
288.4973698865925
 20
43.15804679749016
 11
276.7263792889182
 21
43.15804679749016
 72
     1
 10
276.7263792889181
 20
43.15804679749016
 11
276.7263792889181
 21
33.84996103376676
 72
     1
 10
276.7263792889181
 20
33.84996103376676
 11
279.0067358249796
 21
33.84996103376676
 97
        0
 75
     0
 76
     0
 52
-45.0
 41
1.0
 77
     0
 78
     1
 53
-45.0
 43
0.0
 44
0.0
 45
1.060660171779821
 46
1.060660171779821
 79
     0
 98
        0
  0
HATCH
  5
F8
330
1F
100
AcDbEntity
  8
0
 62
     7
100
AcDbHatch
 10
0.0
 20
0.0
 30
0.0
210
0.0
220
0.0
230
1.0
  2
Металл
 70
     0
 71
     0
 91
        1
 92
        1
 93
        4
 72
     1
 10
276.7263792889181
 20
16.86936106158112
 11
288.4973698865925
 21
16.86936106158112
 72
     1
 10
288.4973698865925
 20
16.86936106158112
 11
288.4973698865925
 21
19.96936110777472
 72
     1
 10
288.4973698865925
 20
19.96936110777472
 11
276.7263792889182
 21
19.96936110777472
 72
     1
 10
276.7263792889181
 20
19.96936110777472
 11
276.7263792889181
 21
16.86936106158112
 97
        0
 75
     0
 76
     0
 52
-45.0
 41
1.0
 77
     0
 78
     1
 53
-45.0
 43
0.0
 44
0.0
 45
1.060660171779821
 46
1.060660171779821
 79
     0
 98
        0
  0
INSERT
  5
FA
330
1F
100
AcDbEntity
  8
0
100
AcDbBlockReference
  2
U5
 10
0.0
 20
0.0
 30
0.0
  0
INSERT
  5
102
330
1F
100
AcDbEntity
  8
0
100
AcDbBlockReference
  2
U6
 10
0.0
 20
0.0
 30
0.0
  0
MTEXT
  5
116
330
1F
100
AcDbEntity
  8
0
 62
     7
100
AcDbMText
 10
275.7902902969297
 20
57.23045448239304
 30
0.0
 40
0.0
 41
0.0
 46
0.0
 71
     1
 72
     1
  1
\H3.5;\W0.965;\Q15;\L\Q15;\H5.00;А-А
  7
KTEXTSTYLE
 73
     1
 44
1.0
  0
INSERT
  5
118
330
1F
100
AcDbEntity
  8
0
100
AcDbBlockReference
  2
U7
 10
0.0
 20
0.0
 30
0.0
  0
INSERT
  5
11E
330
1F
100
AcDbEntity
  8
0
100
AcDbBlockReference
  2
U8
 10
0.0
 20
0.0
 30
0.0
  0
INSERT
  5
128
330
1F
100
AcDbEntity
  8
0
100
AcDbBlockReference
  2
U9
 10
0.0
 20
0.0
 30
0.0
  0
INSERT
  5
133
330
1F
100
AcDbEntity
  8
0
100
AcDbBlockReference
  2
U10
 10
0.0
 20
0.0
 30
0.0
  0
INSERT
  5
148
330
1F
100
AcDbEntity
  8
0
100
AcDbBlockReference
  2
U11
 10
0.0
 20
0.0
 30
0.0
  0
INSERT
  5
160
330
1F
100
AcDbEntity
  8
0
100
AcDbBlockReference
  2
U12
 10
0.0
 20
0.0
 30
0.0
  0
MTEXT
  5
169
330
1F
100
AcDbEntity
  8
0
 62
     7
100
AcDbMText
 10
315.8337761343803
 20
58.25880842510111
 30
0.0
 40
0.0
 41
0.0
 46
0.0
 71
     1
 72
     1
  1
\H3.5;\W0.965;\Q15;\Q15;\H2.50;Штырь вклеенный в корневую нервюру крыла или капот.
  7
KTEXTSTYLE
 73
     1
 44
1.0
  0
INSERT
  5
16B
330
1F
100
AcDbEntity
  8
0
100
AcDbBlockReference
  2
U13
 10
0.0
 20
0.0
 30
0.0
  0
INSERT
  5
18D
330
1F
100
AcDbEntity
  8
0
100
AcDbBlockReference
  2
U14
 10
0.0
 20
0.0
 30
0.0
  0
HATCH
  5
1A7
330
1F
100
AcDbEntity
  8
0
 62
     7
100
AcDbHatch
 10
0.0
 20
0.0
 30
0.0
210
0.0
220
0.0
230
1.0
  2
Неметалл
 70
     0
 71
     0
 91
        1
 92
        1
 93
       12
 72
     1
 10
497.2558725669262
 20
-29.04229106811786
 11
496.7371612827757
 21
-26.63170219884168
 72
     1
 10
496.7371612827757
 20
-26.63170219884168
 11
497.7680546307906
 21
-24.39177831665239
 72
     1
 10
497.7680546307906
 20
-24.39177831665239
 11
499.9364663871056
 21
-23.21789989532488
 72
     1
 10
499.9364663871056
 20
-23.21789989532488
 11
502.3756021212729
 21
-23.57930958430806
 72
     1
 10
502.3756021212729
 20
-23.57930958430806
 11
504.1104490095867
 21
-25.33153855538785
 72
     1
 10
504.1104490095867
 20
-25.33153855538785
 11
504.5137216693779
 21
-27.05864537174534
 72
     1
 10
504.5137216693779
 20
-27.05864537174534
 11
503.9715706556005
 21
-29.04229106811786
 72
     1
 10
503.9715706556005
 20
-29.04229106811783
 11
506.7465066285391
 21
-29.04229106811783
 72
     1
 10
506.7465066285391
 20
-29.04229106811783
 11
506.7465066285391
 21
-19.73420530439444
 72
     1
 10
506.7465066285391
 20
-19.73420530439444
 11
494.9755160308647
 21
-19.73420530439444
 72
     1
 10
494.9755160308647
 20
-19.73420530439444
 11
494.9755160308647
 21
-29.04229106811783
 72
     1
 10
494.9755160308647
 20
-29.04229106811783
 11
497.2558725669262
 21
-29.04229106811783
 97
        0
 75
     0
 76
     0
 52
45.0
 41
1.0
 77
     0
 78
     2
 53
45.0
 43
0.0
 44
0.0
 45
-2.121320343559642
 46
2.121320343559643
 79
     0
 53
135.0
 43
0.0
 44
0.0
 45
-2.121320343559643
 46
-2.121320343559642
 79
     0
 98
        0
  0
HATCH
  5
1A8
330
1F
100
AcDbEntity
  8
0
 62
     7
100
AcDbHatch
 10
0.0
 20
0.0
 30
0.0
210
0.0
220
0.0
230
1.0
  2
Неметалл
 70
     0
 71
     0
 91
        1
 92
        1
 93
        4
 72
     1
 10
494.9755160308647
 20
-46.02289104030348
 11
506.7465066285391
 21
-46.02289104030348
 72
     1
 10
506.7465066285391
 20
-46.02289104030348
 11
506.7465066285391
 21
-42.92289099410988
 72
     1
 10
506.7465066285391
 20
-42.92289099410988
 11
494.9755160308647
 21
-42.92289099410988
 72
     1
 10
494.9755160308647
 20
-42.92289099410988
 11
494.9755160308647
 21
-46.02289104030348
 97
        0
 75
     0
 76
     0
 52
45.0
 41
1.0
 77
     0
 78
     2
 53
45.0
 43
0.0
 44
0.0
 45
-2.121320343559642
 46
2.121320343559643
 79
     0
 53
135.0
 43
0.0
 44
0.0
 45
-2.121320343559643
 46
-2.121320343559642
 79
     0
 98
        0
  0
INSERT
  5
1AA
330
1F
100
AcDbEntity
  8
0
100
AcDbBlockReference
  2
U15
 10
0.0
 20
0.0
 30
0.0
  0
INSERT
  5
1B2
330
1F
100
AcDbEntity
  8
0
100
AcDbBlockReference
  2
U16
 10
0.0
 20
0.0
 30
0.0
  0
HATCH
  5
1B9
330
1F
100
AcDbEntity
  8
0
 62
     7
100
AcDbHatch
 10
0.0
 20
0.0
 30
0.0
210
0.0
220
0.0
230
1.0
  2
Неметалл
 70
     0
 71
     0
 91
        4
 92
        1
 93
       10
 72
     1
 10
535.0364495969735
 20
-19.73420530439444
 11
523.2654589992991
 21
-19.73420530439444
 72
     1
 10
523.2654589992991
 20
-19.73420530439444
 11
523.2654589992991
 21
-26.23061738025126
 72
     1
 10
523.2654589992991
 20
-26.23061738025126
 11
525.0925794194585
 21
-26.23061738025126
 72
     1
 10
525.0925794194585
 20
-26.23061738025127
 11
526.3509668975535
 21
-24.11013133975085
 72
     1
 10
526.3509668975535
 20
-24.11013133975085
 11
528.6297621128115
 21
-23.16827548034338
 72
     1
 10
528.6297621128115
 20
-23.16827548034338
 11
531.0180462810285
 21
-23.78154444648064
 72
     1
 10
531.0180462810285
 20
-23.78154444648064
 11
532.5611338313909
 21
-25.70479193572904
 72
     1
 10
532.5611338313909
 20
-25.70479193572904
 11
532.714749739937
 21
-26.23061738025127
 72
     1
 10
532.714749739937
 20
-26.23061738025126
 11
535.0364495969735
 21
-26.23061738025126
 72
     1
 10
535.0364495969735
 20
-26.23061738025126
 11
535.0364495969735
 21
-19.73420530439444
 97
        0
 92
        1
 93
        4
 72
     1
 10
535.0364495969735
 20
-42.92289099410988
 11
523.2654589992991
 21
-42.92289099410988
 72
     1
 10
523.2654589992991
 20
-42.92289099410988
 11
523.2654589992991
 21
-46.02289104030353
 72
     1
 10
523.2654589992991
 20
-46.02289104030348
 11
535.0364495969735
 21
-46.02289104030348
 72
     1
 10
535.0364495969735
 20
-46.02289104030353
 11
535.0364495969735
 21
-42.92289099410988
 97
        0
 92
        1
 93
        4
 72
     1
 10
535.0364495969735
 20
-27.72592067077386
 11
532.746156496228
 21
-27.72592067077386
 72
     1
 10
532.746156496228
 20
-27.72592067077385
 11
532.2615136240349
 21
-29.04229106811784
 72
     1
 10
532.2615136240349
 20
-29.04229106811783
 11
535.0364495969735
 21
-29.04229106811783
 72
     1
 10
535.0364495969735
 20
-29.04229106811783
 11
535.0364495969735
 21
-27.72592067077386
 97
        0
 92
        1
 93
        4
 72
     1
 10
523.2654589992991
 20
-29.04229106811783
 11
525.5458155353606
 21
-29.04229106811783
 72
     1
 10
525.5458155353606
 20
-29.04229106811784
 11
525.0611726631676
 21
-27.72592067077385
 72
     1
 10
525.0611726631676
 20
-27.72592067077386
 11
523.2654589992991
 21
-27.72592067077386
 72
     1
 10
523.2654589992991
 20
-27.72592067077386
 11
523.2654589992991
 21
-29.04229106811783
 97
        0
 75
     0
 76
     0
 52
45.0
 41
1.0
 77
     0
 78
     2
 53
45.0
 43
0.0
 44
0.0
 45
-2.121320343559642
 46
2.121320343559643
 79
     0
 53
135.0
 43
0.0
 44
0.0
 45
-2.121320343559643
 46
-2.121320343559642
 79
     0
 98
        0
  0
INSERT
  5
1BB
330
1F
100
AcDbEntity
  8
0
100
AcDbBlockReference
  2
U17
 10
0.0
 20
0.0
 30
0.0
  0
HATCH
  5
1C2
330
1F
100
AcDbEntity
  8
0
 62
     7
100
AcDbHatch
 10
0.0
 20
0.0
 30
0.0
210
0.0
220
0.0
230
1.0
  2
Неметалл
 70
     0
 71
     0
 91
        1
 92
        1
 93
       26
 72
     1
 10
448.4213259684294
 20
-46.01067034802531
 11
448.4213259684294
 21
-19.72198461211627
 72
     1
 10
448.4213259684294
 20
-19.72198461211627
 11
408.0143877110517
 21
-19.72198461211627
 72
     1
 10
408.0143877110517
 20
-19.72198461211627
 11
408.0143877110517
 21
-23.16157392727268
 72
     1
 10
408.0143877110517
 20
-23.16157392727268
 11
423.4270134910586
 21
-23.16157392727268
 72
     1
 10
423.4270134910586
 20
-23.16157392727268
 11
430.4213259684294
 21
-23.1283122438453
 72
     1
 10
430.4213259684294
 20
-23.1283122438453
 11
437.4594937613118
 21
-23.16157392727268
 72
     1
 10
437.4594937613118
 20
-23.16157392727268
 11
442.4213259684294
 21
-23.16157392727268
 72
     1
 10
442.4213259684294
 20
-23.16157392727268
 11
442.4213259684294
 21
-30.93127543166162
 72
     1
 10
442.4213259684294
 20
-30.93127543166162
 11
437.022221005015
 21
-30.93127543166162
 72
     1
 10
437.022221005015
 20
-30.93127543166162
 11
427.9561748920277
 21
-30.93127543166162
 72
     1
 10
427.9561748920277
 20
-30.93127543166162
 11
428.6184222665278
 21
-31.68699996494252
 72
     1
 10
428.6184222665278
 20
-31.68699996494252
 11
429.3782963255998
 21
-32.94781840416726
 72
     1
 10
429.3782963255998
 20
-32.94781840416726
 11
429.9187653700018
 21
-34.63355312717829
 72
     1
 10
429.9187653700018
 20
-34.63355312717829
 11
430.0114365297221
 21
-36.49958386070642
 72
     1
 10
430.0114365297221
 20
-36.49958386070642
 11
429.4798918958123
 21
-38.64554169705218
 72
     1
 10
429.4798918958123
 20
-38.64554169705218
 11
428.0614834064521
 21
-40.78376603764963
 72
     1
 10
428.0614834064521
 20
-40.78376603764963
 11
425.8171275446363
 21
-42.3345895206059
 72
     1
 10
425.8171275446363
 20
-42.3345895206059
 11
423.0362532233402
 21
-42.91067030183171
 72
     1
 10
423.0362532233402
 20
-42.91067030183171
 11
419.6337962559913
 21
-42.02812784311897
 72
     1
 10
419.6337962559913
 20
-42.02812784311897
 11
416.5483067362958
 21
-38.53870213065574
 72
     1
 10
416.5483067362958
 20
-38.53870213065574
 11
416.036253119032
 21
-35.91067019752359
 72
     1
 10
416.036253119032
 20
-35.91067019752359
 11
416.9878468285075
 21
-32.38692481182107
 72
     1
 10
416.9878468285075
 20
-32.38692481182107
 11
418.1814754443739
 21
-30.86774107079884
 72
     1
 10
418.1814754443739
 20
-30.86774107079884
 11
408.0213253664225
 21
-30.91067012301778
 72
     1
 10
408.0213253664225
 20
-30.91067012301778
 11
408.0213253664225
 21
-46.01067034802531
 72
     1
 10
408.0213253664225
 20
-46.01067034802531
 11
448.4213259684294
 21
-46.01067034802531
 97
        0
 75
     0
 76
     0
 52
45.0
 41
1.0
 77
     0
 78
     2
 53
45.0
 43
0.0
 44
0.0
 45
-2.121320343559642
 46
2.121320343559643
 79
     0
 53
135.0
 43
0.0
 44
0.0
 45
-2.121320343559643
 46
-2.121320343559642
 79
     0
 98
        0
  0
HATCH
  5
1C3
330
1F
100
AcDbEntity
  8
0
 62
     7
100
AcDbHatch
 10
0.0
 20
0.0
 30
0.0
210
0.0
220
0.0
230
1.0
  2
Неметалл
 70
     0
 71
     0
 91
        3
 92
        1
 93
        9
 72
     1
 10
442.4213259684294
 20
-79.71703940361101
 11
420.3213255497068
 21
-79.71703940361101
 72
     1
 10
420.3213255497068
 20
-79.71703940361101
 11
420.3213255497068
 21
-76.93249493295662
 72
     1
 10
420.3213255497068
 20
-76.93249493295662
 11
448.4213259684294
 21
-76.93249493295662
 72
     1
 10
448.4213259684294
 20
-76.93249493295662
 11
448.4213259684294
 21
-88.6324949329566
 72
     1
 10
448.4213259684294
 20
-88.6324949329566
 11
420.3213255497068
 21
-88.6324949329566
 72
     1
 10
420.3213255497068
 20
-88.6324949329566
 11
420.3213255497068
 21
-85.84795046230226
 72
     1
 10
420.3213255497068
 20
-85.84795046230226
 11
442.4213259684294
 21
-85.84795046230226
 72
     1
 10
442.4213259684294
 20
-85.84795046230226
 11
442.4213259684294
 21
-82.78249493295664
 72
     1
 10
442.4213259684294
 20
-82.78249493295664
 11
442.4213259684294
 21
-79.71703940361101
 97
        0
 92
        1
 93
        4
 72
     1
 10
413.1213254424184
 20
-79.71703940361101
 11
408.0213253664225
 21
-79.71703940361101
 72
     1
 10
408.0213253664225
 20
-79.71703940361101
 11
408.0213253664225
 21
-76.93249493295662
 72
     1
 10
408.0213253664225
 20
-76.93249493295662
 11
413.1213254424184
 21
-76.93249493295662
 72
     1
 10
413.1213254424184
 20
-76.93249493295662
 11
413.1213254424184
 21
-79.71703940361101
 97
        0
 92
        1
 93
        4
 72
     1
 10
413.1213254424184
 20
-88.6324949329566
 11
408.0213253664225
 21
-88.6324949329566
 72
     1
 10
408.0213253664225
 20
-88.6324949329566
 11
408.0213253664225
 21
-85.84795046230226
 72
     1
 10
408.0213253664227
 20
-85.84795046230226
 11
413.1213254424185
 21
-85.84795046230226
 72
     1
 10
413.1213254424184
 20
-85.84795046230226
 11
413.1213254424184
 21
-88.6324949329566
 97
        0
 75
     0
 76
     0
 52
45.0
 41
1.0
 77
     0
 78
     2
 53
45.0
 43
0.0
 44
0.0
 45
-2.121320343559642
 46
2.121320343559643
 79
     0
 53
135.0
 43
0.0
 44
0.0
 45
-2.121320343559643
 46
-2.121320343559642
 79
     0
 98
        0
  0
INSERT
  5
1C5
330
1F
100
AcDbEntity
  8
0
100
AcDbBlockReference
  2
U18
 10
0.0
 20
0.0
 30
0.0
  0
INSERT
  5
1CD
330
1F
100
AcDbEntity
  8
0
100
AcDbBlockReference
  2
U19
 10
0.0
 20
0.0
 30
0.0
  0
INSERT
  5
1D5
330
1F
100
AcDbEntity
  8
0
100
AcDbBlockReference
  2
U20
 10
0.0
 20
0.0
 30
0.0
  0
MTEXT
  5
1E8
330
1F
100
AcDbEntity
  8
0
 62
     7
100
AcDbMText
 10
523.2654589992991
 20
-4.712640752485981
 30
0.0
 40
0.0
 41
0.0
 46
0.0
 71
     1
 72
     1
  1
\H3.5;\W0.965;\Q15;\L\Q0;\H5.00;Б-Б
  7
KTEXTSTYLE
 73
     1
 44
1.0
  0
INSERT
  5
1EA
330
1F
100
AcDbEntity
  8
0
100
AcDbBlockReference
  2
U21
 10
0.0
 20
0.0
 30
0.0
  0
MTEXT
  5
1FD
330
1F
100
AcDbEntity
  8
0
 62
     7
100
AcDbMText
 10
498.3755160815286
 20
-7.028832309546317
 30
0.0
 40
0.0
 41
0.0
 46
0.0
 71
     1
 72
     1
  1
\H3.5;\W0.965;\Q15;\L\Q0;\H5.00;В-В
  7
KTEXTSTYLE
 73
     1
 44
1.0
  0
MTEXT
  5
1FE
330
1F
100
AcDbEntity
  8
0
 62
     7
100
AcDbMText
 10
494.9755160308647
 20
59.11478959594371
 30
0.0
 40
0.0
 41
0.0
 46
0.0
 71
     1
 72
     1
  1
\H3.5;\W0.965;\Q15;\Q15;\H5.00;Штырь для вклейки в крыло или фонарь.
  7
KTEXTSTYLE
 73
     1
 44
1.0
  0
MTEXT
  5
1FF
330
1F
100
AcDbEntity
  8
0
 62
     7
100
AcDbMText
 10
462.8178573553206
 20
36.25357618927058
 30
0.0
 40
0.0
 41
0.0
 46
0.0
 71
     1
 72
     1
  1
\H3.5;\W0.965;\Q15;\Q15;\H5.00;Кнопка-штырь фиксации
  7
KTEXTSTYLE
 73
     1
 44
1.0
  0
MTEXT
  5
200
330
1F
100
AcDbEntity
  8
0
 62
     7
100
AcDbMText
 10
494.9755160308647
 20
18.19183053998387
 30
0.0
 40
0.0
 41
0.0
 46
0.0
 71
     1
 72
     1
  1
\H3.5;\W0.965;\Q15;\Q15;\H5.00;Пружина
  7
KTEXTSTYLE
 73
     1
 44
1.0
  0
MTEXT
  5
201
330
1F
100
AcDbEntity
  8
0
 62
     7
100
AcDbMText
 10
404.8213253187388
 20
14.86936095727299
 30
0.0
 40
0.0
 41
0.0
 46
0.0
 71
     1
 72
     1
  1
\H3.5;\W0.965;\Q15;\Q15;\H5.00;Корпус фиксатора
  7
KTEXTSTYLE
 73
     1
 44
1.0
  0
LINE
  5
202
330
1F
100
AcDbEntity
  8
0
  6
K5LT_AXLED
 62
    30
420
 16744448
370
    18
100
AcDbLine
 10
208.4384835956495
 20
35.83360673013931
 30
0.0
 11
262.4384835956495
 21
35.83360673013931
 31
0.0
  0
LINE
  5
204
330
1F
100
AcDbEntity
  8
0
  6
K5LT_BASIC
 62
     5
420
      255
370
    60
100
AcDbLine
 10
208.4384835956495
 20
43.15804679749016
 30
0.0
 11
248.8454218530274
 21
43.15804679749016
 31
0.0
  0
LINE
  5
205
330
1F
100
AcDbEntity
  8
0
  6
K5LT_BASIC
 62
     5
420
      255
370
    60
100
AcDbLine
 10
208.4384835956495
 20
43.15804679749016
 30
0.0
 11
208.4384835956495
 21
16.86936106158106
 31
0.0
  0
LINE
  5
206
330
1F
100
AcDbEntity
  8
0
  6
K5LT_BASIC
 62
     5
420
      255
370
    60
100
AcDbLine
 10
214.4384835956495
 20
39.71845748233375
 30
0.0
 11
257.7443259805841
 21
39.71845748233375
 31
0.0
  0
LINE
  5
207
330
1F
100
AcDbEntity
  8
0
  6
K5LT_BASIC
 62
     5
420
      255
370
    60
100
AcDbLine
 10
214.4384835956495
 20
39.71845748233375
 30
0.0
 11
214.4384835956495
 21
31.94875597794481
 31
0.0
  0
LINE
  5
208
330
1F
100
AcDbEntity
  8
0
  6
K5LT_BASIC
 62
     5
420
      255
370
    60
100
AcDbLine
 10
226.4384835956495
 20
32.15171905251231
 30
0.0
 11
226.4384835956495
 21
39.75171916576113
 31
0.0
  0
LINE
  5
209
330
1F
100
AcDbEntity
  8
0
  6
K5LT_BASIC
 62
     5
420
      255
370
    60
100
AcDbLine
 10
257.744325980584
 20
39.71845748233375
 30
0.0
 11
257.744325980584
 21
31.95171904953207
 31
0.0
  0
LINE
  5
20A
330
1F
100
AcDbEntity
  8
0
  6
K5LT_BASIC
 62
     5
420
      255
370
    60
100
AcDbLine
 10
214.4384835956495
 20
31.94875597794481
 30
0.0
 11
234.0558118360723
 21
31.94875597794481
 31
0.0
  0
LINE
  5
20B
330
1F
100
AcDbEntity
  8
0
  6
K5LT_BASIC
 62
     5
420
      255
370
    60
100
AcDbLine
 10
248.8454218530274
 20
43.15804679749016
 30
0.0
 11
248.8454218530274
 21
39.71845748233375
 31
0.0
  0
LINE
  5
20C
330
1F
100
AcDbEntity
  8
0
  6
K5LT_BASIC
 62
     5
420
      255
370
    60
100
AcDbLine
 10
208.4384835956495
 20
16.86936106158112
 30
0.0
 11
248.8384841976564
 21
16.86936106158112
 31
0.0
  0
LINE
  5
20D
330
1F
100
AcDbEntity
  8
0
  6
K5LT_BASIC
 62
     5
420
      255
370
    60
100
AcDbLine
 10
248.8384841976564
 20
16.86936106158112
 30
0.0
 11
248.8384841976564
 21
31.96936128658865
 31
0.0
  0
CIRCLE
  5
20E
330
1F
100
AcDbEntity
  8
0
  6
K5LT_BASIC
 62
     5
420
      255
370
    60
100
AcDbCircle
 10
246.4079716874261
 20
35.83360673013931
 30
0.0
 40
0.7000000104308128
  0
ARC
  5
20F
330
1F
100
AcDbEntity
  8
0
  6
K5LT_BASIC
 62
     5
420
      255
370
    60
100
AcDbCircle
 10
252.0053577909521
 20
35.83508826593294
 30
0.0
 40
6.929380372911904
100
AcDbArc
 50
325.9150928998269
 51
34.08490710017318
  0
CIRCLE
  5
210
330
1F
100
AcDbEntity
  8
0
  6
K5LT_BASIC
 62
     5
420
      255
370
    60
100
AcDbCircle
 10
233.8235563407388
 20
26.96936121208284
 30
0.0
 40
7.000000104308128
  0
LINE
  5
211
330
1F
100
AcDbEntity
  8
0
  6
K5LT_BASIC
 62
     5
420
      255
370
    60
100
AcDbLine
 10
234.0558118360723
 20
31.94875597794481
 30
0.0
 11
234.0558118360723
 21
39.70803962073688
 31
0.0
  0
LINE
  5
212
330
1F
100
AcDbEntity
  8
0
  6
K5LT_BASIC
 62
     5
420
      255
370
    60
100
AcDbLine
 10
243.8956551734472
 20
39.71845748233375
 30
0.0
 11
243.8956551734472
 21
31.94875597794481
 31
0.0
  0
LWPOLYLINE
  5
213
330
1F
100
AcDbEntity
  8
0
  6
K5LT_BASIC
 62
     5
420
      255
100
AcDbPolyline
 90
        9
 70
     0
 43
0.6
 10
234.0558118360723
 20
31.94875597794481
 10
235.75808966545
 20
33.18601380010643
 10
237.5262600518373
 20
33.81764772017019
 10
238.9769911554465
 20
33.96936120051739
 10
240.2353609129908
 20
33.85509575673441
 10
241.4156522078787
 20
33.53036709215861
 10
242.3961738819582
 20
33.07678202942974
 10
243.5817399366215
 20
32.24048122678334
 10
243.8956551734472
 20
31.94875597794481
  0
LWPOLYLINE
  5
214
330
1F
100
AcDbEntity
  8
0
  6
K5LT_BASIC
 62
     5
420
      255
100
AcDbPolyline
 90
        9
 70
     0
 43
0.6
 10
234.0558118360723
 20
39.71845748233375
 10
235.75808966545
 20
38.48119966017214
 10
237.5262600518373
 20
37.84956574010843
 10
238.9769911554465
 20
37.69785225976117
 10
240.2353609129908
 20
37.81211770354415
 10
241.4156522078787
 20
38.13684636811995
 10
242.3961738819582
 20
38.59043143084882
 10
243.5817399366215
 20
39.42673223349522
 10
243.8956551734472
 20
39.71845748233375
  0
LINE
  5
215
330
1F
100
AcDbEntity
  8
0
  6
K5LT_BASIC
 62
     5
420
      255
370
    60
100
AcDbLine
 10
238.6783341197051
 20
32.01229033880759
 30
0.0
 11
257.744325980584
 21
31.95171904953207
 31
0.0
  0
INSERT
  5
217
330
1F
100
AcDbEntity
  8
0
100
AcDbBlockReference
  2
U22
 10
0.0
 20
0.0
 30
0.0
  0
CIRCLE
  5
21E
330
1F
100
AcDbEntity
  8
0
  6
K5LT_BASIC
 62
     5
420
      255
370
    60
100
AcDbCircle
 10
233.8235563407388
 20
26.96936121208284
 30
0.0
 40
4.984808406489287
  0
LINE
  5
21F
330
1F
100
AcDbEntity
  8
0
  6
K5LT_BASIC
 62
     5
420
      255
370
    60
100
AcDbLine
 10
208.4384835956495
 20
-20.15431178468202
 30
0.0
 11
248.8454218530274
 21
-20.15431178468202
 31
0.0
  0
LINE
  5
220
330
1F
100
AcDbEntity
  8
0
  6
K5LT_BASIC
 62
     5
420
      255
370
    60
100
AcDbLine
 10
208.4384835956495
 20
-20.15431178468202
 30
0.0
 11
208.4384835956495
 21
-46.44299752059112
 31
0.0
  0
LINE
  5
221
330
1F
100
AcDbEntity
  8
0
  6
K5LT_BASIC
 62
     5
420
      255
370
    60
100
AcDbLine
 10
208.4384835956495
 20
-46.44299752059112
 30
0.0
 11
248.8384841976564
 21
-46.44299752059112
 31
0.0
  0
LINE
  5
222
330
1F
100
AcDbEntity
  8
0
  6
K5LT_BASIC
 62
     5
420
      255
370
    60
100
AcDbLine
 10
248.8384841976564
 20
-46.44299752059112
 30
0.0
 11
248.8384841976564
 21
-20.15431178468202
 31
0.0
  0
CIRCLE
  5
223
330
1F
100
AcDbEntity
  8
0
  6
K5LT_BASIC
 62
     5
420
      255
370
    60
100
AcDbCircle
 10
239.6079715860982
 20
-27.47875185203293
 30
0.0
 40
0.7000000104308128
  0
CIRCLE
  5
224
330
1F
100
AcDbEntity
  8
0
  6
K5LT_BASIC
 62
     5
420
      255
370
    60
100
AcDbCircle
 10
233.8235563407388
 20
-36.34299737008939
 30
0.0
 40
7.000000104308128
  0
INSERT
  5
226
330
1F
100
AcDbEntity
  8
0
100
AcDbBlockReference
  2
U23
 10
0.0
 20
0.0
 30
0.0
  0
CIRCLE
  5
22D
330
1F
100
AcDbEntity
  8
0
  6
K5LT_BASIC
 62
     5
420
      255
370
    60
100
AcDbCircle
 10
233.8235563407388
 20
-36.34299737008939
 30
0.0
 40
4.984808406489287
  0
LINE
  5
22E
330
1F
100
AcDbEntity
  8
0
  6
K5LT_AXLED
 62
    30
420
 16744448
370
    18
100
AcDbLine
 10
255.0259088213917
 20
-27.41982604306065
 30
0.0
 11
233.8259085054871
 21
-27.41982604306065
 31
0.0
  0
LINE
  5
22F
330
1F
100
AcDbEntity
  8
0
  6
K5LT_BASIC
 62
     5
420
      255
370
    60
100
AcDbLine
 10
248.8384841976564
 20
-23.44728519724521
 30
0.0
 11
253.550673940344
 21
-23.44728519724521
 31
0.0
  0
LINE
  5
230
330
1F
100
AcDbEntity
  8
0
  6
K5LT_BASIC
 62
     5
420
      255
370
    60
100
AcDbLine
 10
248.8384841976564
 20
-31.15345234077137
 30
0.0
 11
253.550673940344
 21
-31.21402363004688
 31
0.0
  0
LINE
  5
231
330
1F
100
AcDbEntity
  8
0
  6
K5LT_BASIC
 62
     5
420
      255
370
    60
100
AcDbLine
 10
253.550673940344
 20
-23.44728519724521
 30
0.0
 11
253.550673940344
 21
-31.21402363004688
 31
0.0
  0
ARC
  5
232
330
1F
100
AcDbEntity
  8
0
  6
K5LT_BASIC
 62
     5
420
      255
370
    60
100
AcDbCircle
 10
247.811705750712
 20
-27.33065441364602
 30
0.0
 40
6.929380372911904
100
AcDbArc
 50
325.9150928998269
 51
34.08490710017318
  0
LINE
  5
234
330
1F
100
AcDbEntity
  8
0
  6
K5LT_DASHED
 62
     7
370
    18
100
AcDbLine
 10
214.2696148602169
 20
-23.5994854951465
 30
0.0
 11
214.2696148602169
 21
-31.36918699953549
 31
0.0
  0
LINE
  5
235
330
1F
100
AcDbEntity
  8
0
  6
K5LT_DASHED
 62
     7
370
    18
100
AcDbLine
 10
221.6696147916715
 20
-31.16622392496799
 30
0.0
 11
221.6696147916715
 21
-23.56622381171917
 31
0.0
  0
LINE
  5
236
330
1F
100
AcDbEntity
  8
0
  6
K5LT_DASHED
 62
     7
370
    18
100
AcDbLine
 10
214.2696148602169
 20
-31.36918699953549
 30
0.0
 11
229.2869430320943
 21
-31.36918699953549
 31
0.0
  0
LINE
  5
237
330
1F
100
AcDbEntity
  8
0
  6
K5LT_DASHED
 62
     7
370
    18
100
AcDbLine
 10
229.2869430320943
 20
-31.36918699953549
 30
0.0
 11
229.2869430320943
 21
-23.60990335674342
 31
0.0
  0
LINE
  5
238
330
1F
100
AcDbEntity
  8
0
  6
K5LT_DASHED
 62
     7
370
    18
100
AcDbLine
 10
239.1267863694692
 20
-23.5994854951465
 30
0.0
 11
239.1267863694692
 21
-31.36918699953549
 31
0.0
  0
LWPOLYLINE
  5
239
330
1F
100
AcDbEntity
  8
0
  6
K5LT_DASHED
 62
     7
100
AcDbPolyline
 90
        9
 70
     0
 43
0.18
 10
229.2869430320943
 20
-31.36918699953549
 10
230.9892208614721
 20
-30.13192917737388
 10
232.7573912478593
 20
-29.50029525731011
 10
234.2081223514686
 20
-29.34858177696291
 10
235.4664921090129
 20
-29.46284722074588
 10
236.6467834039007
 20
-29.78757588532163
 10
237.6273050779803
 20
-30.24116094805051
 10
238.8128711326436
 20
-31.07746175069691
 10
239.1267863694692
 20
-31.36918699953549
  0
LWPOLYLINE
  5
23A
330
1F
100
AcDbEntity
  8
0
  6
K5LT_DASHED
 62
     7
100
AcDbPolyline
 90
        9
 70
     0
 43
0.18
 10
229.2869430320943
 20
-23.5994854951465
 10
230.9892208614721
 20
-24.83674331730816
 10
232.7573912478593
 20
-25.46837723737187
 10
234.2081223514686
 20
-25.62009071771907
 10
235.4664921090129
 20
-25.50582527393616
 10
236.6467834039007
 20
-25.18109660936035
 10
237.6273050779803
 20
-24.72751154663148
 10
238.8128711326436
 20
-23.89121074398508
 10
239.1267863694692
 20
-23.5994854951465
  0
LINE
  5
23B
330
1F
100
AcDbEntity
  8
0
  6
K5LT_DASHED
 62
     7
370
    18
100
AcDbLine
 10
214.2696148602169
 20
-23.5994854951465
 30
0.0
 11
229.2869430320943
 21
-23.5994854951465
 31
0.0
  0
LINE
  5
23C
330
1F
100
AcDbEntity
  8
0
  6
K5LT_DASHED
 62
     7
370
    18
100
AcDbLine
 10
239.1267863694692
 20
-23.5994854951465
 30
0.0
 11
248.8267865140105
 21
-23.5994854951465
 31
0.0
  0
LINE
  5
23D
330
1F
100
AcDbEntity
  8
0
  6
K5LT_DASHED
 62
     7
370
    18
100
AcDbLine
 10
239.0248022462604
 20
-31.26844634610183
 30
0.0
 11
248.8248023922918
 21
-31.26844634610183
 31
0.0
  0
LINE
  5
23E
330
1F
100
AcDbEntity
  8
0
  6
K5LT_DASHED
 62
     7
370
    18
100
AcDbLine
 10
229.2869430320943
 20
-31.36918699953549
 30
0.0
 11
214.0587031599084
 21
-31.36918699953549
 31
0.0
  0
LINE
  5
23F
330
1F
100
AcDbEntity
  8
0
  6
K5LT_BASIC
 62
     5
420
      255
370
    60
100
AcDbLine
 10
276.7263792889181
 20
43.15804679749016
 30
0.0
 11
276.7263792889181
 21
16.86936106158106
 31
0.0
  0
LINE
  5
240
330
1F
100
AcDbEntity
  8
0
  6
K5LT_BASIC
 62
     5
420
      255
370
    60
100
AcDbLine
 10
276.7263792889181
 20
43.15804679749016
 30
0.0
 11
288.4973698865925
 21
43.15804679749016
 31
0.0
  0
LINE
  5
241
330
1F
100
AcDbEntity
  8
0
  6
K5LT_BASIC
 62
     5
420
      255
370
    60
100
AcDbLine
 10
288.4973698865925
 20
43.15804679749016
 30
0.0
 11
288.4973698865925
 21
16.86936106158106
 31
0.0
  0
LINE
  5
242
330
1F
100
AcDbEntity
  8
0
  6
K5LT_BASIC
 62
     5
420
      255
370
    60
100
AcDbLine
 10
276.7263792889181
 20
16.86936106158112
 30
0.0
 11
288.4973698865925
 21
16.86936106158112
 31
0.0
  0
CIRCLE
  5
243
330
1F
100
AcDbEntity
  8
0
  6
K5LT_BASIC
 62
     5
420
      255
370
    60
100
AcDbCircle
 10
282.3645848693168
 20
35.83360673013931
 30
0.0
 40
3.900000058114529
  0
LINE
  5
244
330
1F
100
AcDbEntity
  8
0
  6
K5LT_BASIC
 62
     5
420
      255
370
    60
100
AcDbLine
 10
279.0067358249796
 20
33.84996103376676
 30
0.0
 11
276.7263792889181
 21
33.84996103376676
 31
0.0
  0
LINE
  5
245
330
1F
100
AcDbEntity
  8
0
  6
K5LT_BASIC
 62
     5
420
      255
370
    60
100
AcDbLine
 10
285.722433913654
 20
33.84996103376676
 30
0.0
 11
288.4973698865925
 21
33.84996103376676
 31
0.0
  0
LINE
  5
246
330
1F
100
AcDbEntity
  8
0
  6
K5LT_BASIC
 62
     5
420
      255
370
    60
100
AcDbLine
 10
276.7263792889181
 20
19.96936110777472
 30
0.0
 11
288.4973698865925
 21
19.96936110777472
 31
0.0
  0
LINE
  5
247
330
1F
100
AcDbEntity
  8
0
  6
K5LT_AXLED
 62
    30
420
 16744448
370
    18
100
AcDbLine
 10
272.8902902537163
 20
26.96936121208284
 30
0.0
 11
292.7421577395698
 21
26.96936121208284
 31
0.0
  0
LINE
  5
248
330
1F
100
AcDbEntity
  8
0
  6
K5LT_BASIC
 62
     5
420
      255
370
    60
100
AcDbLine
 10
302.5473128933936
 20
33.84996103376676
 30
0.0
 11
302.5473128933936
 21
19.96936110777472
 31
0.0
  0
LINE
  5
249
330
1F
100
AcDbEntity
  8
0
  6
K5LT_AXLED
 62
    30
420
 16744448
370
    18
100
AcDbLine
 10
297.7043906626124
 20
26.96936121208284
 30
0.0
 11
348.5550740858147
 21
26.96936121208284
 31
0.0
  0
LINE
  5
24A
330
1F
100
AcDbEntity
  8
0
  6
K5LT_AXLED
 62
    30
420
 16744448
370
    18
100
AcDbLine
 10
302.5473128933936
 20
33.84996103376676
 30
0.0
 11
309.7602517984686
 21
33.84996103376676
 31
0.0
  0
LINE
  5
24B
330
1F
100
AcDbEntity
  8
0
  6
K5LT_BASIC
 62
     5
420
      255
370
    60
100
AcDbLine
 10
302.5473128933936
 20
33.84996103376676
 30
0.0
 11
310.3537471227211
 21
33.84996103376676
 31
0.0
  0
LINE
  5
24C
330
1F
100
AcDbEntity
  8
0
  6
K5LT_BASIC
 62
     5
420
      255
370
    60
100
AcDbLine
 10
302.5473128933936
 20
19.96936110777472
 30
0.0
 11
310.3537471227211
 21
19.96936110777472
 31
0.0
  0
LINE
  5
24D
330
1F
100
AcDbEntity
  8
0
  6
K5LT_BASIC
 62
     5
420
      255
370
    60
100
AcDbLine
 10
310.3537471227211
 20
19.96936110777472
 30
0.0
 11
310.3537471227211
 21
33.86936131490086
 31
0.0
  0
LINE
  5
24E
330
1F
100
AcDbEntity
  8
0
  6
K5LT_BASIC
 62
     5
420
      255
370
    60
100
AcDbLine
 10
316.9771041768488
 20
33.84996103376676
 30
0.0
 11
316.9771041768488
 21
19.96936110777472
 31
0.0
  0
LINE
  5
24F
330
1F
100
AcDbEntity
  8
0
  6
K5LT_BASIC
 62
     5
420
      255
370
    60
100
AcDbLine
 10
316.9771041768488
 20
33.84996103376676
 30
0.0
 11
355.7593508281583
 21
33.87557709026078
 31
0.0
  0
LINE
  5
250
330
1F
100
AcDbEntity
  8
0
  6
K5LT_BASIC
 62
     5
420
      255
370
    60
100
AcDbLine
 10
316.9771041768488
 20
19.96936110777472
 30
0.0
 11
357.1555935322873
 21
19.74224074833495
 31
0.0
  0
LWPOLYLINE
  5
251
330
1F
100
AcDbEntity
  8
0
  6
K5LT_BASIC
 62
     5
420
      255
100
AcDbPolyline
 90
        7
 70
     0
 43
0.6
 10
310.3537471227211
 20
19.96936110777472
 10
312.1014004829879
 20
21.68416591375757
 10
312.4637068322166
 20
21.83003345926997
 10
314.1381021188589
 20
21.96938512819871
 10
314.4153529725172
 20
21.9229984149697
 10
315.9389708413894
 20
21.24018945871008
 10
316.9771041768488
 20
19.96936110777472
  0
LWPOLYLINE
  5
252
330
1F
100
AcDbEntity
  8
0
  6
K5LT_BASIC
 62
     5
420
      255
100
AcDbPolyline
 90
        7
 70
     0
 43
0.6
 10
310.3537471227211
 20
33.84996103376676
 10
311.9369674100916
 20
32.31506753936331
 10
313.6214971283668
 20
31.93360746691201
 10
315.7908373888417
 20
32.59421889164442
 10
315.8351113091366
 20
32.62424827746132
 10
316.9562176902553
 20
33.81661596135854
 10
316.9771041768488
 20
33.84996103376676
  0
LINE
  5
253
330
1F
100
AcDbEntity
  8
0
  6
K5LT_BASIC
 62
     5
420
      255
370
    60
100
AcDbLine
 10
325.4219297932939
 20
43.15804679749016
 30
0.0
 11
325.4219297932939
 21
33.85804665890936
 31
0.0
  0
LINE
  5
254
330
1F
100
AcDbEntity
  8
0
  6
K5LT_BASIC
 62
     5
420
      255
370
    60
100
AcDbLine
 10
325.2962827063858
 20
19.96936110777472
 30
0.0
 11
325.2962827063858
 21
10.26936096323345
 31
0.0
  0
LINE
  5
255
330
1F
100
AcDbEntity
  8
0
  6
K5LT_BASIC
 62
     5
420
      255
370
    60
100
AcDbLine
 10
325.2962827063858
 20
10.26936096323345
 30
0.0
 11
329.9962827764213
 21
10.26936096323345
 31
0.0
  0
LINE
  5
256
330
1F
100
AcDbEntity
  8
0
  6
K5LT_BASIC
 62
     5
420
      255
370
    60
100
AcDbLine
 10
329.9962827764213
 20
10.26936096323345
 30
0.0
 11
329.9962827764213
 21
19.96936110777472
 31
0.0
  0
LINE
  5
257
330
1F
100
AcDbEntity
  8
0
  6
K5LT_BASIC
 62
     5
420
      255
370
    60
100
AcDbLine
 10
329.3785652883105
 20
33.84996103376676
 30
0.0
 11
329.3785652883105
 21
43.15804679749016
 31
0.0
  0
LINE
  5
258
330
1F
100
AcDbEntity
  8
0
  6
K5LT_BASIC
 62
     5
420
      255
370
    60
100
AcDbLine
 10
329.3785652883105
 20
43.15804679749016
 30
0.0
 11
325.4219297932939
 21
43.15804679749016
 31
0.0
  0
LINE
  5
259
330
1F
100
AcDbEntity
  8
0
  6
K5LT_BASIC
 62
     5
420
      255
370
    60
100
AcDbLine
 10
329.3785652883105
 20
43.15804679749016
 30
0.0
 11
359.4489950504367
 21
43.15804679749016
 31
0.0
  0
LINE
  5
25A
330
1F
100
AcDbEntity
  8
0
  6
K5LT_BASIC
 62
     5
420
      255
370
    60
100
AcDbLine
 10
329.3785652883105
 20
39.71845748233375
 30
0.0
 11
357.4706773029284
 21
39.71845748233375
 31
0.0
  0
LINE
  5
25B
330
1F
100
AcDbEntity
  8
0
  6
K5LT_BASIC
 62
     5
420
      255
370
    60
100
AcDbLine
 10
329.9962827764213
 20
13.19183053998387
 30
0.0
 11
356.0962831653416
 21
13.19183053998387
 31
0.0
  0
LINE
  5
25C
330
1F
100
AcDbEntity
  8
0
  6
K5LT_BASIC
 62
     5
420
      255
370
    60
100
AcDbLine
 10
329.9962827764213
 20
10.81784924297386
 30
0.0
 11
329.9962827764213
 21
10.2693609632334
 31
0.0
  0
LINE
  5
25D
330
1F
100
AcDbEntity
  8
0
  6
K5LT_BASIC
 62
     5
420
      255
370
    60
100
AcDbLine
 10
356.0962831653416
 20
10.26936096323345
 30
0.0
 11
329.9962827764213
 21
10.26936096323345
 31
0.0
  0
LWPOLYLINE
  5
25E
330
1F
100
AcDbEntity
  8
0
  6
K5LT_THIN
 62
     7
100
AcDbPolyline
 90
       15
 70
     0
 43
0.18
 10
359.4489950504367
 20
43.15804679749016
 10
357.4672571469493
 20
39.71055909034408
 10
356.1334521976535
 20
34.80312809299415
 10
356.0972953790385
 20
31.08920527737515
 10
357.0249489736657
 20
28.64260946117557
 10
359.1171234325515
 20
25.01783374587547
 10
359.4481653745395
 20
23.1016471915051
 10
358.6397569971751
 20
21.40989244727087
 10
356.7204743792519
 20
19.25371499134553
 10
355.4920937879957
 20
16.86586101865073
 10
355.5564456720957
 20
15.85272364246275
 10
355.9583564780417
 20
14.09419049193092
 10
356.0964911060459
 20
13.18892503081847
 10
356.1123118694433
 20
10.51637345816678
 10
356.0962831653416
 20
10.26936096323345
  0
LWPOLYLINE
  5
25F
330
1F
100
AcDbEntity
  8
0
  6
K5LT_BASIC
 62
     5
420
      255
100
AcDbPolyline
 90
        5
 70
     0
 43
0.6
 10
302.5473128933936
 20
33.84996103376676
 10
300.4442350110059
 20
30.52166470083712
 10
300.2694778127277
 20
30.01082291274193
 10
299.8451751301126
 20
27.35332835303225
 10
299.8430537984449
 20
26.96936121208284
  0
LWPOLYLINE
  5
260
330
1F
100
AcDbEntity
  8
0
  6
K5LT_BASIC
 62
     5
420
      255
100
AcDbPolyline
 90
        5
 70
     0
 43
0.6
 10
302.5473128933936
 20
20.08876139039887
 10
300.4442350110058
 20
23.41705772332875
 10
300.2694778127277
 20
23.92789951142376
 10
299.8451751301126
 20
26.58539407113329
 10
299.8430537984449
 20
26.96936121208284
  0
LWPOLYLINE
  5
261
330
1F
100
AcDbEntity
  8
0
  6
K5LT_THIN
 62
     7
100
AcDbPolyline
 90
       48
 70
     0
 43
0.18
 10
200.0526652628184
 20
-5.655203400423602
 10
194.0419239156863
 20
-9.104253428739748
 10
189.5910818947148
 20
-12.90983979221512
 10
186.7001391999039
 20
-17.07196249084975
 10
185.3995765979638
 20
-21.34901018610413
 10
185.5769029566473
 20
-25.00565849885343
 10
187.0558660579959
 20
-29.75241910786694
 10
189.9207602923006
 20
-36.01283692241754
 10
190.0854334802848
 20
-36.35874223002154
 10
194.0779224399909
 20
-43.85806736021345
 10
198.8580428538563
 20
-49.86557913682915
 10
200.0717100741223
 20
-50.88638950212821
 10
204.1576686478081
 20
-53.08362609991944
 10
209.7387520766452
 20
-54.43844654881627
 10
217.6876982982053
 20
-55.07562342759558
 10
225.547195819741
 20
-55.4870954628694
 10
233.7969153359052
 20
-55.63806236874169
 10
244.7656461456985
 20
-55.2056999428064
 10
251.6326723716487
 20
-55.48706262298162
 10
256.5437566517398
 20
-56.61387722320448
 10
263.66055466856
 20
-59.05799344267751
 10
269.5374373211572
 20
-60.22766083684778
 10
272.5482108555121
 20
-59.61886213017357
 10
274.8971402273401
 20
-57.75223073107464
 10
277.0950648423411
 20
-54.30462593428254
 10
279.5169969632425
 20
-48.50208077837843
 10
282.6219093745104
 20
-41.30986386026407
 10
285.7339020993543
 20
-36.64419348119502
 10
290.3949764063061
 20
-30.12890049350517
 10
292.5902513843343
 20
-25.24982471376558
 10
292.740902863755
 20
-23.42625289271697
 10
291.8010849044699
 20
-20.26836878121797
 10
289.2524128163805
 20
-16.82301738917739
 10
284.8171032440664
 20
-12.98837521461516
 10
278.0198682620194
 20
-8.635791522299009
 10
272.4018151199981
 20
-5.644615667434014
 10
267.3031372843656
 20
-3.276374012128662
 10
259.3753398380297
 20
-0.5650362006546216
 10
251.8505101100342
 20
0.3821996188695196
 10
248.8216460367315
 20
0.0747900038137242
 10
245.1219955835172
 20
-1.31085891619968
 10
240.6443862055808
 20
-4.229434290120281
 10
233.8537191584332
 20
-8.39630894405152
 10
232.7257886015563
 20
-8.79189359909167
 10
225.1850900615147
 20
-10.27122740757887
 10
217.0523345451991
 20
-10.26469471832372
 10
208.5952296315493
 20
-8.691253865554195
 10
200.0526652628184
 20
-5.655203400423602
  0
LWPOLYLINE
  5
262
330
1F
100
AcDbEntity
  8
0
  6
K5LT_THIN
 62
     7
100
AcDbPolyline
 90
       47
 70
     0
 43
0.18
 10
204.6855324305887
 20
49.80521891153217
 10
201.6053782461846
 20
40.48523032430433
 10
200.1147277087538
 20
30.98168442241703
 10
200.0523041298549
 20
30.00722349329897
 10
199.914401198051
 20
26.87944989938861
 10
200.0542848679743
 20
23.47828926005574
 10
201.1306771760423
 20
17.49622495589121
 10
203.2906889989557
 20
12.43810839576393
 10
205.102710210111
 20
10.63308332384123
 10
207.0467733759322
 20
9.77102855789431
 10
210.3895802236069
 20
9.194503481995099
 10
214.4482877866403
 20
9.05479596389761
 10
217.5030203713077
 20
9.627422789691774
 10
222.5437452925688
 20
10.96477704048803
 10
224.2524814857948
 20
10.63495695247113
 10
225.4379836982699
 20
9.628378217091228
 10
226.9076563864258
 20
7.468872283743313
 10
228.6500078995981
 20
5.433137008053514
 10
231.6101565339733
 20
4.24628683431134
 10
235.7881582146152
 20
4.108188324022556
 10
241.7651813507152
 20
5.044727963289829
 10
243.9099067017456
 20
5.443645936756696
 10
249.9103154632174
 20
6.730869125200964
 10
256.5474532138493
 20
9.445875943660054
 10
257.7584149580075
 20
10.28017734343791
 10
261.0951465763637
 20
13.74901916400889
 10
264.1307423746192
 20
18.97449026860105
 10
266.6016926812623
 20
26.01822087142928
 10
266.8380330215023
 20
26.98465185602364
 10
267.987035844005
 20
32.33702013090959
 10
268.3978738935211
 20
39.30325681530321
 10
267.1276516714377
 20
42.80490190980588
 10
266.8288501855762
 20
43.16418432398975
 10
265.4477024940272
 20
44.26726604440777
 10
262.7572452240303
 20
45.49853141760106
 10
257.9728038045104
 20
47.00427058106024
 10
257.7961569568499
 20
47.06249213046303
 10
249.6112427964978
 20
49.04657663206631
 10
243.8805507851968
 20
49.80674808879724
 10
234.1231074161159
 20
50.10075033469857
 10
228.6248526556072
 20
49.80391862602162
 10
223.5591710311643
 20
48.81761909291504
 10
214.7301650012798
 20
46.83290126964816
 10
211.6522380174203
 20
47.05959829994379
 10
209.9555319665481
 20
47.50102597599015
 10
207.0922956039786
 20
48.57351403397557
 10
204.6855324305887
 20
49.80521891153217
  0
LINE
  5
263
330
1F
100
AcDbEntity
  8
0
  6
K5LT_BASIC
 62
     5
420
      255
370
    60
100
AcDbLine
 10
276.7263792889181
 20
49.80521891153217
 30
0.0
 11
276.7263792889181
 21
1.961414479356677
 31
0.0
  0
LINE
  5
264
330
1F
100
AcDbEntity
  8
0
  6
K5LT_BASIC
 62
     5
420
      255
370
    60
100
AcDbLine
 10
276.7263792889181
 20
1.961414479356677
 30
0.0
 11
272.8902902537163
 21
1.961414479356677
 31
0.0
  0
LINE
  5
265
330
1F
100
AcDbEntity
  8
0
  6
K5LT_BASIC
 62
     5
420
      255
370
    60
100
AcDbLine
 10
272.8902902537163
 20
1.961414479356677
 30
0.0
 11
272.8902902537163
 21
49.80521891153217
 31
0.0
  0
LINE
  5
266
330
1F
100
AcDbEntity
  8
0
  6
K5LT_BASIC
 62
     5
420
      255
370
    60
100
AcDbLine
 10
272.8902902537163
 20
49.80521891153217
 30
0.0
 11
276.7263792889182
 21
49.80521891153217
 31
0.0
  0
LINE
  5
267
330
1F
100
AcDbEntity
  8
0
  6
K5LT_BASIC
 62
     5
420
      255
370
    60
100
AcDbLine
 10
276.7263792889181
 20
33.84996103376676
 30
0.0
 11
272.8902902537163
 21
33.84996103376676
 31
0.0
  0
LINE
  5
268
330
1F
100
AcDbEntity
  8
0
  6
K5LT_BASIC
 62
     5
420
      255
370
    60
100
AcDbLine
 10
276.7263792889181
 20
19.96936110777472
 30
0.0
 11
272.8902902537163
 21
19.96936110777472
 31
0.0
  0
LINE
  5
269
330
1F
100
AcDbEntity
  8
0
  6
K5LT_AXLED
 62
    30
420
 16744448
370
    18
100
AcDbLine
 10
403.5929187369385
 20
-27.04642467946712
 30
0.0
 11
457.5929187369385
 21
-27.04642467946712
 31
0.0
  0
LINE
  5
26A
330
1F
100
AcDbEntity
  8
0
  6
K5LT_BASIC
 62
     5
420
      255
370
    60
100
AcDbLine
 10
494.9755160308647
 20
-19.73420530439444
 30
0.0
 11
494.9755160308647
 21
-46.02289104030353
 31
0.0
  0
LINE
  5
26B
330
1F
100
AcDbEntity
  8
0
  6
K5LT_BASIC
 62
     5
420
      255
370
    60
100
AcDbLine
 10
494.9755160308647
 20
-19.73420530439444
 30
0.0
 11
506.7465066285391
 21
-19.73420530439444
 31
0.0
  0
LINE
  5
26C
330
1F
100
AcDbEntity
  8
0
  6
K5LT_BASIC
 62
     5
420
      255
370
    60
100
AcDbLine
 10
506.7465066285391
 20
-19.73420530439444
 30
0.0
 11
506.7465066285391
 21
-46.02289104030353
 31
0.0
  0
LINE
  5
26D
330
1F
100
AcDbEntity
  8
0
  6
K5LT_BASIC
 62
     5
420
      255
370
    60
100
AcDbLine
 10
494.9755160308647
 20
-46.02289104030348
 30
0.0
 11
506.7465066285391
 21
-46.02289104030348
 31
0.0
  0
CIRCLE
  5
26E
330
1F
100
AcDbEntity
  8
0
  6
K5LT_BASIC
 62
     5
420
      255
370
    60
100
AcDbCircle
 10
500.6137216112634
 20
-27.05864537174534
 30
0.0
 40
3.900000058114529
  0
LINE
  5
26F
330
1F
100
AcDbEntity
  8
0
  6
K5LT_BASIC
 62
     5
420
      255
370
    60
100
AcDbLine
 10
497.2558725669262
 20
-29.04229106811783
 30
0.0
 11
494.9755160308647
 21
-29.04229106811783
 31
0.0
  0
LINE
  5
270
330
1F
100
AcDbEntity
  8
0
  6
K5LT_BASIC
 62
     5
420
      255
370
    60
100
AcDbLine
 10
503.9715706556005
 20
-29.04229106811783
 30
0.0
 11
506.7465066285391
 21
-29.04229106811783
 31
0.0
  0
LINE
  5
271
330
1F
100
AcDbEntity
  8
0
  6
K5LT_BASIC
 62
     5
420
      255
370
    60
100
AcDbLine
 10
494.9755160308647
 20
-42.92289099410988
 30
0.0
 11
506.7465066285391
 21
-42.92289099410988
 31
0.0
  0
LINE
  5
272
330
1F
100
AcDbEntity
  8
0
  6
K5LT_AXLED
 62
    30
420
 16744448
370
    18
100
AcDbLine
 10
458.25752652122
 20
31.5550577295345
 30
0.0
 11
423.4575260026596
 21
31.5550577295345
 31
0.0
  0
LINE
  5
273
330
1F
100
AcDbEntity
  8
0
  6
K5LT_BASIC
 62
     5
420
      255
370
    60
100
AcDbLine
 10
523.2654589992991
 20
-19.73420530439444
 30
0.0
 11
523.2654589992991
 21
-46.02289104030353
 31
0.0
  0
LINE
  5
274
330
1F
100
AcDbEntity
  8
0
  6
K5LT_BASIC
 62
     5
420
      255
370
    60
100
AcDbLine
 10
523.2654589992991
 20
-19.73420530439444
 30
0.0
 11
535.0364495969735
 21
-19.73420530439444
 31
0.0
  0
LINE
  5
275
330
1F
100
AcDbEntity
  8
0
  6
K5LT_BASIC
 62
     5
420
      255
370
    60
100
AcDbLine
 10
535.0364495969735
 20
-19.73420530439444
 30
0.0
 11
535.0364495969735
 21
-46.02289104030353
 31
0.0
  0
LINE
  5
276
330
1F
100
AcDbEntity
  8
0
  6
K5LT_BASIC
 62
     5
420
      255
370
    60
100
AcDbLine
 10
523.2654589992991
 20
-46.02289104030348
 30
0.0
 11
535.0364495969735
 21
-46.02289104030348
 31
0.0
  0
CIRCLE
  5
277
330
1F
100
AcDbEntity
  8
0
  6
K5LT_BASIC
 62
     5
420
      255
370
    60
100
AcDbCircle
 10
528.9036645796978
 20
-27.05864537174534
 30
0.0
 40
3.900000058114529
  0
LINE
  5
278
330
1F
100
AcDbEntity
  8
0
  6
K5LT_BASIC
 62
     5
420
      255
370
    60
100
AcDbLine
 10
525.5458155353606
 20
-29.04229106811783
 30
0.0
 11
523.2654589992991
 21
-29.04229106811783
 31
0.0
  0
LINE
  5
279
330
1F
100
AcDbEntity
  8
0
  6
K5LT_BASIC
 62
     5
420
      255
370
    60
100
AcDbLine
 10
532.2615136240349
 20
-29.04229106811783
 30
0.0
 11
535.0364495969735
 21
-29.04229106811783
 31
0.0
  0
LINE
  5
27A
330
1F
100
AcDbEntity
  8
0
  6
K5LT_BASIC
 62
     5
420
      255
370
    60
100
AcDbLine
 10
523.2654589992991
 20
-42.92289099410988
 30
0.0
 11
535.0364495969735
 21
-42.92289099410988
 31
0.0
  0
LINE
  5
27B
330
1F
100
AcDbEntity
  8
0
  6
K5LT_BASIC
 62
     5
420
      255
370
    60
100
AcDbLine
 10
523.2654589992991
 20
-26.23061738025126
 30
0.0
 11
525.0925794194585
 21
-26.23061738025126
 31
0.0
  0
LINE
  5
27C
330
1F
100
AcDbEntity
  8
0
  6
K5LT_BASIC
 62
     5
420
      255
370
    60
100
AcDbLine
 10
523.2654589992991
 20
-27.72592067077386
 30
0.0
 11
525.0611726631676
 21
-27.72592067077386
 31
0.0
  0
LINE
  5
27D
330
1F
100
AcDbEntity
  8
0
  6
K5LT_BASIC
 62
     5
420
      255
370
    60
100
AcDbLine
 10
532.714749739937
 20
-26.23061738025126
 30
0.0
 11
535.0364495969735
 21
-26.23061738025126
 31
0.0
  0
LINE
  5
27E
330
1F
100
AcDbEntity
  8
0
  6
K5LT_BASIC
 62
     5
420
      255
370
    60
100
AcDbLine
 10
532.746156496228
 20
-27.72592067077386
 30
0.0
 11
535.0364495969735
 21
-27.72592067077386
 31
0.0
  0
LINE
  5
27F
330
1F
100
AcDbEntity
  8
0
  6
K5LT_AXLED
 62
    30
420
 16744448
370
    18
100
AcDbLine
 10
398.6302193458054
 20
-82.28249492550606
 30
0.0
 11
470.7610108811771
 21
-82.28249492550606
 31
0.0
  0
LINE
  5
280
330
1F
100
AcDbEntity
  8
0
  6
K5LT_AXLED
 62
    30
420
 16744448
370
    18
100
AcDbLine
 10
486.7099233863968
 20
-35.91067019752359
 30
0.0
 11
514.7418970697133
 21
-35.91067019752359
 31
0.0
  0
LINE
  5
281
330
1F
100
AcDbEntity
  8
0
  6
K5LT_AXLED
 62
    30
420
 16744448
370
    18
100
AcDbLine
 10
519.8696971337346
 20
-35.91067019752359
 30
0.0
 11
539.8681173834178
 21
-35.91067019752359
 31
0.0
  0
LINE
  5
282
330
1F
100
AcDbEntity
  8
0
  6
K5LT_BASIC
 62
     5
420
      255
370
    60
100
AcDbLine
 10
448.4213259684294
 20
-19.72198461211627
 30
0.0
 11
408.0143877110515
 21
-19.72198461211627
 31
0.0
  0
LINE
  5
283
330
1F
100
AcDbEntity
  8
0
  6
K5LT_BASIC
 62
     5
420
      255
370
    60
100
AcDbLine
 10
448.4213259684294
 20
-19.72198461211627
 30
0.0
 11
448.4213259684294
 21
-46.01067034802537
 31
0.0
  0
LINE
  5
284
330
1F
100
AcDbEntity
  8
0
  6
K5LT_BASIC
 62
     5
420
      255
370
    60
100
AcDbLine
 10
442.4213259684294
 20
-23.16157392727268
 30
0.0
 11
442.4213259684294
 21
-30.93127543166162
 31
0.0
  0
LINE
  5
285
330
1F
100
AcDbEntity
  8
0
  6
K5LT_BASIC
 62
     5
420
      255
370
    60
100
AcDbLine
 10
408.0143877110517
 20
-19.72198461211627
 30
0.0
 11
408.0143877110517
 21
-23.16157392727268
 31
0.0
  0
LINE
  5
286
330
1F
100
AcDbEntity
  8
0
  6
K5LT_BASIC
 62
     5
420
      255
370
    60
100
AcDbLine
 10
448.4213259684294
 20
-46.01067034802531
 30
0.0
 11
408.0213253664225
 21
-46.01067034802531
 31
0.0
  0
LINE
  5
287
330
1F
100
AcDbEntity
  8
0
  6
K5LT_BASIC
 62
     5
420
      255
370
    60
100
AcDbLine
 10
408.0213253664225
 20
-46.01067034802531
 30
0.0
 11
408.0213253664225
 21
-30.91067012301778
 31
0.0
  0
CIRCLE
  5
288
330
1F
100
AcDbEntity
  8
0
  6
K5LT_BASIC
 62
     5
420
      255
370
    60
100
AcDbCircle
 10
423.0362532233402
 20
-35.91067019752359
 30
0.0
 40
7.000000104308128
  0
LINE
  5
289
330
1F
100
AcDbEntity
  8
0
  6
K5LT_BASIC
 62
     5
420
      255
370
    60
100
AcDbLine
 10
408.0143877110517
 20
-23.16157392727268
 30
0.0
 11
442.4213259684295
 21
-23.16157392727268
 31
0.0
  0
LINE
  5
28A
330
1F
100
AcDbEntity
  8
0
  6
K5LT_BASIC
 62
     5
420
      255
370
    60
100
AcDbLine
 10
408.0213253664225
 20
-30.91067012301778
 30
0.0
 11
418.2213255184143
 21
-30.91067012301778
 31
0.0
  0
LINE
  5
28B
330
1F
100
AcDbEntity
  8
0
  6
K5LT_BASIC
 62
     5
420
      255
370
    60
100
AcDbLine
 10
427.9561748920277
 20
-30.93127543166162
 30
0.0
 11
442.4213259684295
 21
-30.93127543166162
 31
0.0
  0
LINE
  5
28C
330
1F
100
AcDbEntity
  8
0
  6
K5LT_BASIC
 62
     5
420
      255
370
    60
100
AcDbLine
 10
408.0143877110517
 20
-23.16157392727268
 30
0.0
 11
408.0143877110517
 21
-30.86157404201163
 31
0.0
  0
INSERT
  5
28E
330
1F
100
AcDbEntity
  8
0
100
AcDbBlockReference
  2
U24
 10
0.0
 20
0.0
 30
0.0
  0
LINE
  5
295
330
1F
100
AcDbEntity
  8
0
  6
K5LT_BASIC
 62
     5
420
      255
370
    60
100
AcDbLine
 10
408.0213253664225
 20
-76.93249493295662
 30
0.0
 11
408.0213253664225
 21
-88.6324949329566
 31
0.0
  0
LINE
  5
296
330
1F
100
AcDbEntity
  8
0
  6
K5LT_BASIC
 62
     5
420
      255
370
    60
100
AcDbLine
 10
408.0213253664225
 20
-76.93249493295662
 30
0.0
 11
448.4213259684294
 21
-76.93249493295662
 31
0.0
  0
LINE
  5
297
330
1F
100
AcDbEntity
  8
0
  6
K5LT_BASIC
 62
     5
420
      255
370
    60
100
AcDbLine
 10
408.0213253664225
 20
-88.6324949329566
 30
0.0
 11
448.4213259684294
 21
-88.6324949329566
 31
0.0
  0
LINE
  5
298
330
1F
100
AcDbEntity
  8
0
  6
K5LT_BASIC
 62
     5
420
      255
370
    60
100
AcDbLine
 10
448.4213259684294
 20
-88.6324949329566
 30
0.0
 11
448.4213259684294
 21
-76.93249493295662
 31
0.0
  0
LINE
  5
299
330
1F
100
AcDbEntity
  8
0
  6
K5LT_BASIC
 62
     5
420
      255
370
    60
100
AcDbLine
 10
420.3213255497068
 20
-76.93249493295662
 30
0.0
 11
420.3213255497068
 21
-88.6324949329566
 31
0.0
  0
LINE
  5
29A
330
1F
100
AcDbEntity
  8
0
  6
K5LT_BASIC
 62
     5
420
      255
370
    60
100
AcDbLine
 10
413.1213254424184
 20
-76.93249493295662
 30
0.0
 11
413.1213254424184
 21
-88.6324949329566
 31
0.0
  0
LINE
  5
29B
330
1F
100
AcDbEntity
  8
0
  6
K5LT_BASIC
 62
     5
420
      255
370
    60
100
AcDbLine
 10
428.221325667426
 20
-79.71703940361101
 30
0.0
 11
428.221325667426
 21
-85.84795046230226
 31
0.0
  0
LINE
  5
29C
330
1F
100
AcDbEntity
  8
0
  6
K5LT_BASIC
 62
     5
420
      255
370
    60
100
AcDbLine
 10
442.4213259684294
 20
-82.78249493295664
 30
0.0
 11
442.4213259684294
 21
-79.71703940361101
 31
0.0
  0
LINE
  5
29D
330
1F
100
AcDbEntity
  8
0
  6
K5LT_BASIC
 62
     5
420
      255
370
    60
100
AcDbLine
 10
442.4213259684294
 20
-79.71703940361101
 30
0.0
 11
407.981475292382
 21
-79.71703940361101
 31
0.0
  0
LINE
  5
29E
330
1F
100
AcDbEntity
  8
0
  6
K5LT_BASIC
 62
     5
420
      255
370
    60
100
AcDbLine
 10
442.4213259684294
 20
-82.78249493295664
 30
0.0
 11
442.4213259684294
 21
-85.84795046230226
 31
0.0
  0
LINE
  5
29F
330
1F
100
AcDbEntity
  8
0
  6
K5LT_BASIC
 62
     5
420
      255
370
    60
100
AcDbLine
 10
442.4213259684294
 20
-85.84795046230226
 30
0.0
 11
408.0213253664226
 21
-85.84795046230226
 31
0.0
  0
LINE
  5
2A0
330
1F
100
AcDbEntity
  8
0
  6
K5LT_BASIC
 62
     5
420
      255
370
    60
100
AcDbLine
 10
453.7073793119094
 20
27.66872544154643
 30
0.0
 11
453.7073793119094
 21
35.47168862936275
 31
0.0
  0
LINE
  5
2A1
330
1F
100
AcDbEntity
  8
0
  6
K5LT_BASIC
 62
     5
420
      255
370
    60
100
AcDbLine
 10
446.0900510714866
 20
27.66872544154643
 30
0.0
 11
446.0900510714866
 21
35.4280090843385
 31
0.0
  0
LWPOLYLINE
  5
2A2
330
1F
100
AcDbEntity
  8
0
  6
K5LT_BASIC
 62
     5
420
      255
100
AcDbPolyline
 90
        9
 70
     0
 43
0.6
 10
446.0900510714866
 20
35.43842694593536
 10
444.3877732421089
 20
34.20116912377375
 10
442.6196028557217
 20
33.56953520371004
 10
441.1688717521124
 20
33.41782172336279
 10
439.9105019945681
 20
33.53208716714575
 10
438.7302106996802
 20
33.85681583172155
 10
437.7496890256007
 20
34.31040089445044
 10
436.5641229709374
 20
35.14670169709684
 10
436.2502077341118
 20
35.43842694593536
  0
LWPOLYLINE
  5
2A3
330
1F
100
AcDbEntity
  8
0
  6
K5LT_BASIC
 62
     5
420
      255
100
AcDbPolyline
 90
        9
 70
     0
 43
0.6
 10
446.0900510714866
 20
27.66872544154643
 10
444.3877732421089
 20
28.90598326370804
 10
442.6196028557217
 20
29.5376171837718
 10
441.1688717521124
 20
29.68933066411901
 10
439.9105019945681
 20
29.57506522033603
 10
438.7302106996802
 20
29.25033655576023
 10
437.7496890256007
 20
28.79675149303135
 10
436.5641229709374
 20
27.96045069038496
 10
436.2502077341118
 20
27.66872544154643
  0
LINE
  5
2A4
330
1F
100
AcDbEntity
  8
0
  6
K5LT_BASIC
 62
     5
420
      255
370
    60
100
AcDbLine
 10
453.7073793119094
 20
27.66872544154643
 30
0.0
 11
446.0900510714866
 21
27.66872544154643
 31
0.0
  0
LINE
  5
2A5
330
1F
100
AcDbEntity
  8
0
  6
K5LT_BASIC
 62
     5
420
      255
370
    60
100
AcDbLine
 10
422.4015369269749
 20
35.43842694593536
 30
0.0
 11
422.4015369269749
 21
27.67168851313369
 31
0.0
  0
ARC
  5
2A6
330
1F
100
AcDbEntity
  8
0
  6
K5LT_BASIC
 62
     5
420
      255
370
    60
100
AcDbCircle
 10
428.1405051166068
 20
31.55505772953455
 30
0.0
 40
6.929380372911904
100
AcDbArc
 50
145.9150928998266
 51
214.0849071001733
  0
LINE
  5
2A7
330
1F
100
AcDbEntity
  8
0
  6
K5LT_BASIC
 62
     5
420
      255
370
    60
100
AcDbLine
 10
436.2502077341118
 20
35.43842694593536
 30
0.0
 11
422.4015369269749
 21
35.43842694593536
 31
0.0
  0
LINE
  5
2A8
330
1F
100
AcDbEntity
  8
0
  6
K5LT_BASIC
 62
     5
420
      255
370
    60
100
AcDbLine
 10
436.3521918573206
 20
27.7322598024092
 30
0.0
 11
422.4015369269749
 21
27.67168851313369
 31
0.0
  0
LINE
  5
2A9
330
1F
100
AcDbEntity
  8
0
  6
K5LT_BASIC
 62
     5
420
      255
370
    60
100
AcDbLine
 10
436.2502077341118
 20
35.43842694593536
 30
0.0
 11
436.2502077341118
 21
27.66872544154643
 31
0.0
  0
CIRCLE
  5
2AA
330
1F
100
AcDbEntity
  8
0
  6
K5LT_BASIC
 62
     5
420
      255
370
    60
100
AcDbCircle
 10
433.7378912201328
 20
31.55357619374092
 30
0.0
 40
0.7000000104308128
  0
LINE
  5
2AB
330
1F
100
AcDbEntity
  8
0
  6
K5LT_BASIC
 62
     5
420
      255
370
    60
100
AcDbLine
 10
446.0900510714866
 20
35.4280090843385
 30
0.0
 11
453.6900511847355
 21
35.4280090843385
 31
0.0
  0
LINE
  5
2AC
330
1F
100
AcDbEntity
  8
0
  6
K5LT_AXLED
 62
    30
420
 16744448
370
    18
100
AcDbLine
 10
420.1427715738215
 20
31.5550577295345
 30
0.0
 11
454.9427720923819
 21
31.5550577295345
 31
0.0
  0
LINE
  5
2AD
330
1F
100
AcDbEntity
  8
0
  6
K5LT_BASIC
 62
     5
420
      255
370
    60
100
AcDbLine
 10
462.3016162161978
 20
-19.72198461211622
 30
0.0
 11
462.3016162161978
 21
-46.01067034802531
 31
0.0
  0
LINE
  5
2AE
330
1F
100
AcDbEntity
  8
0
  6
K5LT_BASIC
 62
     5
420
      255
370
    60
100
AcDbLine
 10
462.3016162161978
 20
-19.72198461211622
 30
0.0
 11
474.0726068138722
 21
-19.72198461211622
 31
0.0
  0
LINE
  5
2AF
330
1F
100
AcDbEntity
  8
0
  6
K5LT_BASIC
 62
     5
420
      255
370
    60
100
AcDbLine
 10
474.0726068138722
 20
-19.72198461211622
 30
0.0
 11
474.0726068138722
 21
-46.01067034802531
 31
0.0
  0
LINE
  5
2B0
330
1F
100
AcDbEntity
  8
0
  6
K5LT_BASIC
 62
     5
420
      255
370
    60
100
AcDbLine
 10
462.3016162161978
 20
-46.01067034802526
 30
0.0
 11
474.0726068138722
 21
-46.01067034802526
 31
0.0
  0
CIRCLE
  5
2B1
330
1F
100
AcDbEntity
  8
0
  6
K5LT_BASIC
 62
     5
420
      255
370
    60
100
AcDbCircle
 10
467.9398217965964
 20
-27.04642467946712
 30
0.0
 40
3.900000058114529
  0
LINE
  5
2B2
330
1F
100
AcDbEntity
  8
0
  6
K5LT_AXLED
 62
    30
420
 16744448
370
    18
100
AcDbLine
 10
458.9058543506333
 20
-35.89844950524537
 30
0.0
 11
478.9042746003165
 21
-35.89844950524537
 31
0.0
  0
LINE
  5
2B3
330
1F
100
AcDbEntity
  8
0
  6
K5LT_BASIC
 62
     5
420
      255
370
    60
100
AcDbLine
 10
464.514243087734
 20
-28.91067009321546
 30
0.0
 11
471.3654005054589
 21
-28.91067009321546
 31
0.0
  0
LINE
  5
2B4
330
1F
100
AcDbEntity
  8
0
  6
K5LT_DASHED
 62
     7
370
    18
100
AcDbLine
 10
462.3016162161978
 20
-42.91067030183171
 30
0.0
 11
474.0726068138722
 21
-42.91067030183171
 31
0.0
  0
LINE
  5
2B5
330
1F
100
AcDbEntity
  8
0
  6
K5LT_DASHED
 62
     7
370
    18
100
AcDbLine
 10
462.3016162161978
 20
-28.91067009321546
 30
0.0
 11
464.514243087734
 21
-28.91067009321546
 31
0.0
  0
LINE
  5
2B6
330
1F
100
AcDbEntity
  8
0
  6
K5LT_DASHED
 62
     7
370
    18
100
AcDbLine
 10
471.3654005054589
 20
-28.91067009321546
 30
0.0
 11
474.0726068138722
 21
-28.91067009321546
 31
0.0
  0
LINE
  5
2B7
330
1F
100
AcDbEntity
  8
0
  6
K5LT_BASIC
 62
     5
420
      255
370
    60
100
AcDbLine
 10
428.2178568397404
 20
55.16478967119457
 30
0.0
 11
428.2178568397404
 21
53.06478952069284
 31
0.0
  0
LINE
  5
2B8
330
1F
100
AcDbEntity
  8
0
  6
K5LT_BASIC
 62
     5
420
      255
370
    60
100
AcDbLine
 10
485.0178576861264
 20
59.16478967119457
 30
0.0
 11
485.0178576861264
 21
49.06478952069284
 31
0.0
  0
ARC
  5
2B9
330
1F
100
AcDbEntity
  8
0
  6
K5LT_BASIC
 62
     5
420
      255
370
    60
100
AcDbCircle
 10
441.3136664447113
 20
44.97853023726276
 30
0.0
 40
6.28580663354467
100
AcDbArc
 50
40.54741916478895
 51
139.4525808352111
  0
LINE
  5
2BA
330
1F
100
AcDbEntity
  8
0
  6
K5LT_AXLED
 62
    30
420
 16744448
370
    18
100
AcDbLine
 10
425.3605113238998
 20
54.11478959594371
 30
0.0
 11
488.6178577397706
 21
54.11478959594371
 31
0.0
  0
LINE
  5
2BB
330
1F
100
AcDbEntity
  8
0
  6
K5LT_BASIC
 62
     5
420
      255
370
    60
100
AcDbLine
 10
436.537281817936
 20
49.06478952069284
 30
0.0
 11
436.537281817936
 21
59.16478967119457
 31
0.0
  0
LINE
  5
2BC
330
1F
100
AcDbEntity
  8
0
  6
K5LT_BASIC
 62
     5
420
      255
370
    60
100
AcDbLine
 10
446.0900510714866
 20
49.06478952069284
 30
0.0
 11
446.0900510714866
 21
59.16478967119457
 31
0.0
  0
LINE
  5
2BD
330
1F
100
AcDbEntity
  8
0
  6
K5LT_BASIC
 62
     5
420
      255
370
    60
100
AcDbLine
 10
446.0900510714866
 20
59.16478967119457
 30
0.0
 11
485.0178576861264
 21
59.16478967119457
 31
0.0
  0
LINE
  5
2BE
330
1F
100
AcDbEntity
  8
0
  6
K5LT_BASIC
 62
     5
420
      255
370
    60
100
AcDbLine
 10
446.0900510714866
 20
49.06478952069284
 30
0.0
 11
485.0178576861264
 21
49.06478952069284
 31
0.0
  0
LINE
  5
2BF
330
1F
100
AcDbEntity
  8
0
  6
K5LT_BASIC
 62
     5
420
      255
370
    60
100
AcDbLine
 10
436.537281817936
 20
49.06478952069284
 30
0.0
 11
432.2178568397404
 21
49.06478952069284
 31
0.0
  0
LINE
  5
2C0
330
1F
100
AcDbEntity
  8
0
  6
K5LT_BASIC
 62
     5
420
      255
370
    60
100
AcDbLine
 10
436.537281817936
 20
59.16478967119457
 30
0.0
 11
432.2178568397404
 21
59.16478967119457
 31
0.0
  0
ARC
  5
2C1
330
1F
100
AcDbEntity
  8
0
  6
K5LT_BASIC
 62
     5
420
      255
370
    60
100
AcDbCircle
 10
441.3136664447113
 20
63.25104895462465
 30
0.0
 40
6.28580663354467
100
AcDbArc
 50
220.5474191647889
 51
319.4525808352111
  0
ARC
  5
2C2
330
1F
100
AcDbEntity
  8
0
  6
K5LT_BASIC
 62
     5
420
      255
370
    60
100
AcDbCircle
 10
432.2178568397404
 20
55.16478967119457
 30
0.0
 40
4.0
100
AcDbArc
 50
90.0
 51
180.0
  0
ARC
  5
2C3
330
1F
100
AcDbEntity
  8
0
  6
K5LT_BASIC
 62
     5
420
      255
370
    60
100
AcDbCircle
 10
432.2178568397404
 20
53.06478952069284
 30
0.0
 40
4.0
100
AcDbArc
 50
180.0
 51
270.0
  0
INSERT
  5
2C5
330
1F
100
AcDbEntity
  8
0
100
AcDbBlockReference
  2
U25
 10
0.0
 20
0.0
 30
0.0
  0
INSERT
  5
2E6
330
1F
100
AcDbEntity
  8
0
100
AcDbBlockReference
  2
U26
 10
0.0
 20
0.0
 30
0.0
  0
INSERT
  5
307
330
1F
100
AcDbEntity
  8
0
100
AcDbBlockReference
  2
U27
 10
0.0
 20
0.0
 30
0.0
  0
ENDSEC
  0
SECTION
  2
OBJECTS
  0
DICTIONARY
  5
C
330
0
100
AcDbDictionary
281
     1
  3
ACAD_GROUP
350
D
  3
ACAD_LAYOUT
350
1A
  3
ACAD_MATERIAL
350
3B
  3
ACAD_MLEADERSTYLE
350
34A
  3
ACAD_MLINESTYLE
350
17
  3
ACAD_PLOTSETTINGS
350
19
  3
ACAD_PLOTSTYLENAME
350
E
  3
ACAD_SCALELIST
350
C9
  3
ACAD_TABLESTYLE
350
349
  3
ACAD_VISUALSTYLE
350
2A
  3
AcDbVariableDictionary
350
327
  0
DICTIONARY
  5
D
102
{ACAD_REACTORS
330
C
102
}
330
C
100
AcDbDictionary
281
     1
  0
DICTIONARY
  5
1A
102
{ACAD_REACTORS
330
C
102
}
330
C
100
AcDbDictionary
281
     1
  3
Layout1
350
1E
  3
Layout2
350
26
  3
Model
350
22
  0
DICTIONARY
  5
3B
102
{ACAD_REACTORS
330
C
102
}
330
C
100
AcDbDictionary
281
     1
  3
ByBlock
350
3D
  3
ByLayer
350
3C
  3
Global
350
3E
  0
DICTIONARY
  5
34A
102
{ACAD_REACTORS
330
C
102
}
330
C
100
AcDbDictionary
281
     1
  0
DICTIONARY
  5
17
102
{ACAD_REACTORS
330
C
102
}
330
C
100
AcDbDictionary
281
     1
  3
Standard
350
18
  0
DICTIONARY
  5
19
102
{ACAD_REACTORS
330
C
102
}
330
C
100
AcDbDictionary
281
     1
  0
ACDBDICTIONARYWDFLT
  5
E
102
{ACAD_REACTORS
330
C
102
}
330
C
100
AcDbDictionary
281
     1
  3
Normal
350
F
100
AcDbDictionaryWithDefault
340
F
  0
DICTIONARY
  5
C9
102
{ACAD_REACTORS
330
C
102
}
330
C
100
AcDbDictionary
281
     1
  3
A0
350
CA
  3
A1
350
CB
  3
A2
350
CC
  3
A3
350
CD
  3
A4
350
CE
  3
A5
350
CF
  3
A6
350
D0
  3
A7
350
D1
  3
A8
350
D2
  3
A9
350
D3
  3
B0
350
D4
  3
B1
350
D5
  3
B2
350
D6
  3
B3
350
D7
  3
B4
350
D8
  3
B5
350
D9
  3
B6
350
DA
  3
B7
350
DB
  3
B8
350
DC
  3
B9
350
DD
  3
C0
350
DE
  3
C1
350
DF
  3
C2
350
E0
  3
C3
350
E1
  3
C4
350
E2
  3
C5
350
E3
  3
C6
350
E4
  3
C7
350
E5
  3
C8
350
E6
  3
C9
350
E7
  3
D0
350
E8
  3
D1
350
E9
  3
D2
350
EA
  0
DICTIONARY
  5
349
102
{ACAD_REACTORS
330
C
102
}
330
C
100
AcDbDictionary
281
     1
  0
DICTIONARY
  5
2A
102
{ACAD_REACTORS
330
C
102
}
330
C
100
AcDbDictionary
281
     1
  3
2dWireframe
350
2F
  3
3D Hidden
350
31
  3
3dWireframe
350
30
  3
Basic
350
32
  3
Brighten
350
36
  3
ColorChange
350
3A
  3
Conceptual
350
34
  3
Dim
350
35
  3
Facepattern
350
39
  3
Flat
350
2B
  3
FlatWithEdges
350
2C
  3
Gouraud
350
2D
  3
GouraudWithEdges
350
2E
  3
Linepattern
350
38
  3
Realistic
350
33
  3
Thicken
350
37
  0
DICTIONARY
  5
327
102
{ACAD_REACTORS
330
C
102
}
330
C
100
AcDbDictionary
281
     1
  3
CANNOSCALE
350
328
  0
LAYOUT
  5
1E
102
{ACAD_REACTORS
330
1A
102
}
330
1A
100
AcDbPlotSettings
  1

  2
none_device
  4

  6

 40
0.0
 41
0.0
 42
0.0
 43
0.0
 44
0.0
 45
0.0
 46
0.0
 47
0.0
 48
0.0
 49
0.0
140
0.0
141
0.0
142
1.0
143
1.0
 70
   688
 72
     0
 73
     0
 74
     5
  7

 75
    16
 76
     0
 77
     2
 78
   300
147
1.0
148
0.0
149
0.0
100
AcDbLayout
  1
Layout1
 70
     1
 71
     1
 10
0.0
 20
0.0
 11
420.0
 21
297.0
 12
0.0
 22
0.0
 32
0.0
 14
1.000000000000000E+20
 24
1.000000000000000E+20
 34
1.000000000000000E+20
 15
-1.000000000000000E+20
 25
-1.000000000000000E+20
 35
-1.000000000000000E+20
146
0.0
 13
0.0
 23
0.0
 33
0.0
 16
1.0
 26
0.0
 36
0.0
 17
0.0
 27
1.0
 37
0.0
 76
     0
330
1B
  0
LAYOUT
  5
26
102
{ACAD_REACTORS
330
1A
102
}
330
1A
100
AcDbPlotSettings
  1

  2
none_device
  4

  6

 40
0.0
 41
0.0
 42
0.0
 43
0.0
 44
0.0
 45
0.0
 46
0.0
 47
0.0
 48
0.0
 49
0.0
140
0.0
141
0.0
142
1.0
143
1.0
 70
   688
 72
     0
 73
     0
 74
     5
  7

 75
    16
 76
     0
 77
     2
 78
   300
147
1.0
148
0.0
149
0.0
100
AcDbLayout
  1
Layout2
 70
     1
 71
     2
 10
0.0
 20
0.0
 11
0.0
 21
0.0
 12
0.0
 22
0.0
 32
0.0
 14
0.0
 24
0.0
 34
0.0
 15
0.0
 25
0.0
 35
0.0
146
0.0
 13
0.0
 23
0.0
 33
0.0
 16
1.0
 26
0.0
 36
0.0
 17
0.0
 27
1.0
 37
0.0
 76
     0
330
23
  0
LAYOUT
  5
22
102
{ACAD_REACTORS
330
1A
102
}
330
1A
100
AcDbPlotSettings
  1

  2
none_device
  4

  6

 40
0.0
 41
0.0
 42
0.0
 43
0.0
 44
0.0
 45
0.0
 46
0.0
 47
0.0
 48
0.0
 49
0.0
140
0.0
141
0.0
142
1.0
143
1.0
 70
  1712
 72
     0
 73
     0
 74
     0
  7

 75
     0
 76
     0
 77
     2
 78
   300
147
1.0
148
0.0
149
0.0
100
AcDbLayout
  1
Model
 70
     1
 71
     0
 10
0.0
 20
0.0
 11
420.0
 21
297.0
 12
0.0
 22
0.0
 32
0.0
 14
1.000000000000000E+20
 24
1.000000000000000E+20
 34
1.000000000000000E+20
 15
-1.000000000000000E+20
 25
-1.000000000000000E+20
 35
-1.000000000000000E+20
146
0.0
 13
0.0
 23
0.0
 33
0.0
 16
1.0
 26
0.0
 36
0.0
 17
0.0
 27
1.0
 37
0.0
 76
     0
330
1F
331
29
  0
MATERIAL
  5
3D
102
{ACAD_REACTORS
330
3B
102
}
330
3B
100
AcDbMaterial
  1
ByBlock
 72
     1
 94
      127
  0
MATERIAL
  5
3C
102
{ACAD_REACTORS
330
3B
102
}
330
3B
100
AcDbMaterial
  1
ByLayer
 72
     1
 94
      127
  0
MATERIAL
  5
3E
102
{ACAD_REACTORS
330
3B
102
}
330
3B
100
AcDbMaterial
  1
Global
 72
     1
 94
      127
  0
MLINESTYLE
  5
18
102
{ACAD_REACTORS
330
17
102
}
330
17
100
AcDbMlineStyle
  2
Standard
 70
     0
  3

 62
   256
 51
90.0
 52
90.0
 71
     2
 49
0.5
 62
   256
  6
BYLAYER
 49
-0.5
 62
   256
  6
BYLAYER
  0
ACDBPLACEHOLDER
  5
F
102
{ACAD_REACTORS
330
E
102
}
330
E
  0
SCALE
  5
CA
102
{ACAD_REACTORS
330
C9
102
}
330
C9
100
AcDbScale
 70
     0
300
1:1
140
1.0
141
1.0
290
     1
  0
SCALE
  5
CB
102
{ACAD_REACTORS
330
C9
102
}
330
C9
100
AcDbScale
 70
     0
300
1:2
140
1.0
141
2.0
290
     0
  0
SCALE
  5
CC
102
{ACAD_REACTORS
330
C9
102
}
330
C9
100
AcDbScale
 70
     0
300
1:4
140
1.0
141
4.0
290
     0
  0
SCALE
  5
CD
102
{ACAD_REACTORS
330
C9
102
}
330
C9
100
AcDbScale
 70
     0
300
1:5
140
1.0
141
5.0
290
     0
  0
SCALE
  5
CE
102
{ACAD_REACTORS
330
C9
102
}
330
C9
100
AcDbScale
 70
     0
300
1:8
140
1.0
141
8.0
290
     0
  0
SCALE
  5
CF
102
{ACAD_REACTORS
330
C9
102
}
330
C9
100
AcDbScale
 70
     0
300
1:10
140
1.0
141
10.0
290
     0
  0
SCALE
  5
D0
102
{ACAD_REACTORS
330
C9
102
}
330
C9
100
AcDbScale
 70
     0
300
1:16
140
1.0
141
16.0
290
     0
  0
SCALE
  5
D1
102
{ACAD_REACTORS
330
C9
102
}
330
C9
100
AcDbScale
 70
     0
300
1:20
140
1.0
141
20.0
290
     0
  0
SCALE
  5
D2
102
{ACAD_REACTORS
330
C9
102
}
330
C9
100
AcDbScale
 70
     0
300
1:30
140
1.0
141
30.0
290
     0
  0
SCALE
  5
D3
102
{ACAD_REACTORS
330
C9
102
}
330
C9
100
AcDbScale
 70
     0
300
1:40
140
1.0
141
40.0
290
     0
  0
SCALE
  5
D4
102
{ACAD_REACTORS
330
C9
102
}
330
C9
100
AcDbScale
 70
     0
300
1:50
140
1.0
141
50.0
290
     0
  0
SCALE
  5
D5
102
{ACAD_REACTORS
330
C9
102
}
330
C9
100
AcDbScale
 70
     0
300
1:100
140
1.0
141
100.0
290
     0
  0
SCALE
  5
D6
102
{ACAD_REACTORS
330
C9
102
}
330
C9
100
AcDbScale
 70
     0
300
2:1
140
2.0
141
1.0
290
     0
  0
SCALE
  5
D7
102
{ACAD_REACTORS
330
C9
102
}
330
C9
100
AcDbScale
 70
     0
300
4:1
140
4.0
141
1.0
290
     0
  0
SCALE
  5
D8
102
{ACAD_REACTORS
330
C9
102
}
330
C9
100
AcDbScale
 70
     0
300
8:1
140
8.0
141
1.0
290
     0
  0
SCALE
  5
D9
102
{ACAD_REACTORS
330
C9
102
}
330
C9
100
AcDbScale
 70
     0
300
10:1
140
10.0
141
1.0
290
     0
  0
SCALE
  5
DA
102
{ACAD_REACTORS
330
C9
102
}
330
C9
100
AcDbScale
 70
     0
300
100:1
140
100.0
141
1.0
290
     0
  0
SCALE
  5
DB
102
{ACAD_REACTORS
330
C9
102
}
330
C9
100
AcDbScale
 70
     0
300
1/128" = 1'-0"
140
0.0078125
141
12.0
290
     0
  0
SCALE
  5
DC
102
{ACAD_REACTORS
330
C9
102
}
330
C9
100
AcDbScale
 70
     0
300
1/64" = 1'-0"
140
0.015625
141
12.0
290
     0
  0
SCALE
  5
DD
102
{ACAD_REACTORS
330
C9
102
}
330
C9
100
AcDbScale
 70
     0
300
1/32" = 1'-0"
140
0.03125
141
12.0
290
     0
  0
SCALE
  5
DE
102
{ACAD_REACTORS
330
C9
102
}
330
C9
100
AcDbScale
 70
     0
300
1/16" = 1'-0"
140
0.0625
141
12.0
290
     0
  0
SCALE
  5
DF
102
{ACAD_REACTORS
330
C9
102
}
330
C9
100
AcDbScale
 70
     0
300
3/32" = 1'-0"
140
0.09375
141
12.0
290
     0
  0
SCALE
  5
E0
102
{ACAD_REACTORS
330
C9
102
}
330
C9
100
AcDbScale
 70
     0
300
1/8" = 1'-0"
140
0.125
141
12.0
290
     0
  0
SCALE
  5
E1
102
{ACAD_REACTORS
330
C9
102
}
330
C9
100
AcDbScale
 70
     0
300
3/16" = 1'-0"
140
0.1875
141
12.0
290
     0
  0
SCALE
  5
E2
102
{ACAD_REACTORS
330
C9
102
}
330
C9
100
AcDbScale
 70
     0
300
1/4" = 1'-0"
140
0.25
141
12.0
290
     0
  0
SCALE
  5
E3
102
{ACAD_REACTORS
330
C9
102
}
330
C9
100
AcDbScale
 70
     0
300
3/8" = 1'-0"
140
0.375
141
12.0
290
     0
  0
SCALE
  5
E4
102
{ACAD_REACTORS
330
C9
102
}
330
C9
100
AcDbScale
 70
     0
300
1/2" = 1'-0"
140
0.5
141
12.0
290
     0
  0
SCALE
  5
E5
102
{ACAD_REACTORS
330
C9
102
}
330
C9
100
AcDbScale
 70
     0
300
3/4" = 1'-0"
140
0.75
141
12.0
290
     0
  0
SCALE
  5
E6
102
{ACAD_REACTORS
330
C9
102
}
330
C9
100
AcDbScale
 70
     0
300
1" = 1'-0"
140
1.0
141
12.0
290
     0
  0
SCALE
  5
E7
102
{ACAD_REACTORS
330
C9
102
}
330
C9
100
AcDbScale
 70
     0
300
1-1/2" = 1'-0"
140
1.5
141
12.0
290
     0
  0
SCALE
  5
E8
102
{ACAD_REACTORS
330
C9
102
}
330
C9
100
AcDbScale
 70
     0
300
3" = 1'-0"
140
3.0
141
12.0
290
     0
  0
SCALE
  5
E9
102
{ACAD_REACTORS
330
C9
102
}
330
C9
100
AcDbScale
 70
     0
300
6" = 1'-0"
140
6.0
141
12.0
290
     0
  0
SCALE
  5
EA
102
{ACAD_REACTORS
330
C9
102
}
330
C9
100
AcDbScale
 70
     0
300
1'-0" = 1'-0"
140
12.0
141
12.0
290
     0
  0
VISUALSTYLE
  5
2F
102
{ACAD_REACTORS
330
2A
102
}
102
{ACAD_XDICTIONARY
360
331
102
}
330
2A
100
AcDbVisualStyle
  2
2dWireframe
 70
     4
 71
     0
 72
     2
 73
     0
 90
        0
 40
-0.6
 41
-30.0
 62
     5
 63
     7
421
 16777215
 74
     1
 91
        4
 64
     7
 65
   257
 75
     1
175
     1
 42
1.0
 92
        0
 66
   257
 43
1.0
 76
     1
 77
     6
 78
     2
 67
     7
 79
     5
170
     0
171
     0
290
     0
174
     0
 93
        1
 44
0.0
173
     0
291
     0
 45
0.0
  0
VISUALSTYLE
  5
31
102
{ACAD_REACTORS
330
2A
102
}
102
{ACAD_XDICTIONARY
360
335
102
}
330
2A
100
AcDbVisualStyle
  2
3D Hidden
 70
     6
 71
     1
 72
     2
 73
     2
 90
        0
 40
-0.6
 41
-30.0
 62
     5
 63
     7
421
 16777215
 74
     2
 91
        2
 64
     7
 65
   257
 75
     2
175
     1
 42
40.0
 92
        0
 66
   257
 43
1.0
 76
     1
 77
     6
 78
     2
 67
     7
 79
     3
170
     0
171
     0
290
     0
174
     0
 93
        1
 44
0.0
173
     0
291
     0
 45
0.0
  0
VISUALSTYLE
  5
30
102
{ACAD_REACTORS
330
2A
102
}
102
{ACAD_XDICTIONARY
360
333
102
}
330
2A
100
AcDbVisualStyle
  2
3dWireframe
 70
     5
 71
     0
 72
     2
 73
     0
 90
        0
 40
-0.6
 41
-30.0
 62
     5
 63
     7
421
 16777215
 74
     1
 91
        4
 64
     7
 65
   257
 75
     1
175
     1
 42
1.0
 92
        0
 66
   257
 43
1.0
 76
     1
 77
     6
 78
     2
 67
     7
 79
     5
170
     0
171
     0
290
     0
174
     0
 93
        1
 44
0.0
173
     0
291
     0
 45
0.0
  0
VISUALSTYLE
  5
32
102
{ACAD_REACTORS
330
2A
102
}
102
{ACAD_XDICTIONARY
360
337
102
}
330
2A
100
AcDbVisualStyle
  2
Basic
 70
     7
 71
     1
 72
     0
 73
     1
 90
        0
 40
-0.6
 41
-30.0
 62
     5
 63
     7
421
 16777215
 74
     0
 91
        4
 64
     7
 65
   257
 75
     1
175
     1
 42
1.0
 92
        8
 66
     7
 43
1.0
 76
     1
 77
     6
 78
     2
 67
     7
 79
     5
170
     0
171
     0
290
     0
174
     0
 93
        1
 44
0.0
173
     0
291
     1
 45
0.0
  0
VISUALSTYLE
  5
36
102
{ACAD_REACTORS
330
2A
102
}
102
{ACAD_XDICTIONARY
360
33F
102
}
330
2A
100
AcDbVisualStyle
  2
Brighten
 70
    12
 71
     2
 72
     2
 73
     0
 90
        0
 40
-0.6
 41
-30.0
 62
     5
 63
     7
421
 16777215
 74
     1
 91
        4
 64
     7
 65
   257
 75
     1
175
     1
 42
1.0
 92
        8
 66
     7
 43
1.0
 76
     1
 77
     6
 78
     2
 67
     7
 79
     5
170
     0
171
     0
290
     0
174
     0
 93
        1
 44
50.0
173
     0
291
     1
 45
0.0
  0
VISUALSTYLE
  5
3A
102
{ACAD_REACTORS
330
2A
102
}
102
{ACAD_XDICTIONARY
360
347
102
}
330
2A
100
AcDbVisualStyle
  2
ColorChange
 70
    16
 71
     2
 72
     2
 73
     3
 90
        0
 40
-0.6
 41
-30.0
 62
     5
 63
     8
421
  8421504
 74
     1
 91
        4
 64
     7
 65
   257
 75
     1
175
     1
 42
1.0
 92
        8
 66
     8
424
  8421504
 43
1.0
 76
     1
 77
     6
 78
     2
 67
     7
 79
     5
170
     0
171
     0
290
     0
174
     0
 93
        1
 44
0.0
173
     0
291
     1
 45
0.0
  0
VISUALSTYLE
  5
34
102
{ACAD_REACTORS
330
2A
102
}
102
{ACAD_XDICTIONARY
360
33B
102
}
330
2A
100
AcDbVisualStyle
  2
Conceptual
 70
     9
 71
     3
 72
     2
 73
     0
 90
        0
 40
-0.6
 41
-30.0
 62
     5
 63
     7
421
 16777215
 74
     2
 91
        2
 64
     7
 65
   257
 75
     1
175
     1
 42
40.0
 92
        8
 66
     7
 43
1.0
 76
     1
 77
     6
 78
     2
 67
     7
 79
     3
170
     0
171
     0
290
     0
174
     0
 93
        1
 44
0.0
173
     0
291
     0
 45
0.0
  0
VISUALSTYLE
  5
35
102
{ACAD_REACTORS
330
2A
102
}
102
{ACAD_XDICTIONARY
360
33D
102
}
330
2A
100
AcDbVisualStyle
  2
Dim
 70
    11
 71
     2
 72
     2
 73
     0
 90
        0
 40
-0.6
 41
-30.0
 62
     5
 63
     7
421
 16777215
 74
     1
 91
        4
 64
     7
 65
   257
 75
     1
175
     1
 42
1.0
 92
        8
 66
     7
 43
1.0
 76
     1
 77
     6
 78
     2
 67
     7
 79
     5
170
     0
171
     0
290
     0
174
     0
 93
        1
 44
-50.0
173
     0
291
     1
 45
0.0
  0
VISUALSTYLE
  5
39
102
{ACAD_REACTORS
330
2A
102
}
102
{ACAD_XDICTIONARY
360
345
102
}
330
2A
100
AcDbVisualStyle
  2
Facepattern
 70
    15
 71
     2
 72
     2
 73
     0
 90
        0
 40
-0.6
 41
-30.0
 62
     5
 63
     7
421
 16777215
 74
     1
 91
        4
 64
     7
 65
   257
 75
     1
175
     1
 42
1.0
 92
        8
 66
     7
 43
1.0
 76
     1
 77
     6
 78
     2
 67
     7
 79
     5
170
     0
171
     0
290
     0
174
     0
 93
        1
 44
0.0
173
     0
291
     1
 45
0.0
  0
VISUALSTYLE
  5
2B
102
{ACAD_REACTORS
330
2A
102
}
102
{ACAD_XDICTIONARY
360
329
102
}
330
2A
100
AcDbVisualStyle
  2
Flat
 70
     0
 71
     2
 72
     1
 73
     1
 90
        2
 40
-0.6
 41
30.0
 62
     5
 63
     7
421
 16777215
 74
     0
 91
        4
 64
     7
 65
   257
 75
     1
175
     1
 42
1.0
 92
        8
 66
     7
 43
1.0
 76
     1
 77
     6
 78
     2
 67
     7
 79
     5
170
     0
171
     0
290
     0
174
     0
 93
       13
 44
0.0
173
     0
291
     1
 45
0.0
  0
VISUALSTYLE
  5
2C
102
{ACAD_REACTORS
330
2A
102
}
102
{ACAD_XDICTIONARY
360
32B
102
}
330
2A
100
AcDbVisualStyle
  2
FlatWithEdges
 70
     1
 71
     2
 72
     1
 73
     1
 90
        2
 40
-0.6
 41
30.0
 62
     5
 63
     7
421
 16777215
 74
     1
 91
        4
 64
     7
 65
   257
 75
     1
175
     1
 42
1.0
 92
        0
 66
   257
 43
1.0
 76
     1
 77
     6
 78
     2
 67
     7
 79
     5
170
     0
171
     0
290
     0
174
     0
 93
       13
 44
0.0
173
     0
291
     1
 45
0.0
  0
VISUALSTYLE
  5
2D
102
{ACAD_REACTORS
330
2A
102
}
102
{ACAD_XDICTIONARY
360
32D
102
}
330
2A
100
AcDbVisualStyle
  2
Gouraud
 70
     2
 71
     2
 72
     2
 73
     1
 90
        2
 40
-0.6
 41
30.0
 62
     5
 63
     7
421
 16777215
 74
     0
 91
        4
 64
     7
 65
   257
 75
     1
175
     1
 42
1.0
 92
        0
 66
     7
 43
1.0
 76
     1
 77
     6
 78
     2
 67
     7
 79
     5
170
     0
171
     0
290
     0
174
     0
 93
       13
 44
0.0
173
     0
291
     1
 45
0.0
  0
VISUALSTYLE
  5
2E
102
{ACAD_REACTORS
330
2A
102
}
102
{ACAD_XDICTIONARY
360
32F
102
}
330
2A
100
AcDbVisualStyle
  2
GouraudWithEdges
 70
     3
 71
     2
 72
     2
 73
     1
 90
        2
 40
-0.6
 41
30.0
 62
     5
 63
     7
421
 16777215
 74
     1
 91
        4
 64
     7
 65
   257
 75
     1
175
     1
 42
1.0
 92
        0
 66
   257
 43
1.0
 76
     1
 77
     6
 78
     2
 67
     7
 79
     5
170
     0
171
     0
290
     0
174
     0
 93
       13
 44
0.0
173
     0
291
     1
 45
0.0
  0
VISUALSTYLE
  5
38
102
{ACAD_REACTORS
330
2A
102
}
102
{ACAD_XDICTIONARY
360
343
102
}
330
2A
100
AcDbVisualStyle
  2
Linepattern
 70
    14
 71
     2
 72
     2
 73
     0
 90
        0
 40
-0.6
 41
-30.0
 62
     5
 63
     7
421
 16777215
 74
     1
 91
        4
 64
     7
 65
   257
 75
     7
175
     7
 42
1.0
 92
        8
 66
     7
 43
1.0
 76
     1
 77
     6
 78
     2
 67
     7
 79
     5
170
     0
171
     0
290
     0
174
     0
 93
        1
 44
0.0
173
     0
291
     1
 45
0.0
  0
VISUALSTYLE
  5
33
102
{ACAD_REACTORS
330
2A
102
}
102
{ACAD_XDICTIONARY
360
339
102
}
330
2A
100
AcDbVisualStyle
  2
Realistic
 70
     8
 71
     2
 72
     2
 73
     0
 90
        0
 40
-0.6
 41
-30.0
 62
     5
 63
     7
421
 16777215
 74
     1
 91
        0
 64
     7
 65
   257
 75
     1
175
     1
 42
1.0
 92
        8
 66
     8
424
  7895160
 43
1.0
 76
     1
 77
     6
 78
     2
 67
     7
 79
     5
170
     0
171
     0
290
     0
174
     0
 93
       13
 44
0.0
173
     0
291
     0
 45
0.0
  0
VISUALSTYLE
  5
37
102
{ACAD_REACTORS
330
2A
102
}
102
{ACAD_XDICTIONARY
360
341
102
}
330
2A
100
AcDbVisualStyle
  2
Thicken
 70
    13
 71
     2
 72
     2
 73
     0
 90
        0
 40
-0.6
 41
-30.0
 62
     5
 63
     7
421
 16777215
 74
     1
 91
        4
 64
     7
 65
   257
 75
     1
175
     1
 42
1.0
 92
       12
 66
     7
 43
1.0
 76
     1
 77
     6
 78
     2
 67
     7
 79
     5
170
     0
171
     0
290
     0
174
     0
 93
        1
 44
0.0
173
     0
291
     1
 45
0.0
  0
DICTIONARYVAR
  5
328
102
{ACAD_REACTORS
330
327
102
}
330
327
100
DictionaryVariables
280
     0
  1
1:1
  0
DICTIONARY
  5
331
330
2F
100
AcDbDictionary
280
     1
281
     1
  3
ACAD_XREC_ROUNDTRIP
360
332
  0
DICTIONARY
  5
335
330
31
100
AcDbDictionary
280
     1
281
     1
  3
ACAD_XREC_ROUNDTRIP
360
336
  0
DICTIONARY
  5
333
330
30
100
AcDbDictionary
280
     1
281
     1
  3
ACAD_XREC_ROUNDTRIP
360
334
  0
DICTIONARY
  5
337
330
32
100
AcDbDictionary
280
     1
281
     1
  3
ACAD_XREC_ROUNDTRIP
360
338
  0
DICTIONARY
  5
33F
330
36
100
AcDbDictionary
280
     1
281
     1
  3
ACAD_XREC_ROUNDTRIP
360
340
  0
DICTIONARY
  5
347
330
3A
100
AcDbDictionary
280
     1
281
     1
  3
ACAD_XREC_ROUNDTRIP
360
348
  0
DICTIONARY
  5
33B
330
34
100
AcDbDictionary
280
     1
281
     1
  3
ACAD_XREC_ROUNDTRIP
360
33C
  0
DICTIONARY
  5
33D
330
35
100
AcDbDictionary
280
     1
281
     1
  3
ACAD_XREC_ROUNDTRIP
360
33E
  0
DICTIONARY
  5
345
330
39
100
AcDbDictionary
280
     1
281
     1
  3
ACAD_XREC_ROUNDTRIP
360
346
  0
DICTIONARY
  5
329
330
2B
100
AcDbDictionary
280
     1
281
     1
  3
ACAD_XREC_ROUNDTRIP
360
32A
  0
DICTIONARY
  5
32B
330
2C
100
AcDbDictionary
280
     1
281
     1
  3
ACAD_XREC_ROUNDTRIP
360
32C
  0
DICTIONARY
  5
32D
330
2D
100
AcDbDictionary
280
     1
281
     1
  3
ACAD_XREC_ROUNDTRIP
360
32E
  0
DICTIONARY
  5
32F
330
2E
100
AcDbDictionary
280
     1
281
     1
  3
ACAD_XREC_ROUNDTRIP
360
330
  0
DICTIONARY
  5
343
330
38
100
AcDbDictionary
280
     1
281
     1
  3
ACAD_XREC_ROUNDTRIP
360
344
  0
DICTIONARY
  5
339
330
33
100
AcDbDictionary
280
     1
281
     1
  3
ACAD_XREC_ROUNDTRIP
360
33A
  0
DICTIONARY
  5
341
330
37
100
AcDbDictionary
280
     1
281
     1
  3
ACAD_XREC_ROUNDTRIP
360
342
  0
XRECORD
  5
332
102
{ACAD_REACTORS
330
331
102
}
330
331
100
AcDbXrecord
280
     1
102
RTVSPropertyOp0
 70
     1
102
RTVSPropertyOp1
 70
     1
102
RTVSPropertyOp2
 70
     1
102
RTVSPropertyOp3
 70
     1
102
RTVSPropertyOp4
 70
     1
102
RTVSPropertyOp5
 70
     1
102
RTVSPropertyOp6
 70
     1
102
RTVSPropertyOp7
 70
     1
102
RTVSPropertyOp8
 70
     1
102
RTVSPropertyOp9
 70
     1
102
RTVSPropertyOp10
 70
     1
102
RTVSPropertyOp11
 70
     1
102
RTVSPropertyOp12
 70
     1
102
RTVSPropertyOp13
 70
     1
102
RTVSPropertyOp14
 70
     1
102
RTVSPropertyOp15
 70
     1
102
RTVSPropertyOp16
 70
     1
102
RTVSPropertyOp17
 70
     1
102
RTVSPropertyOp18
 70
     1
102
RTVSPropertyOp19
 70
     1
102
RTVSPropertyOp20
 70
     1
102
RTVSPropertyOp21
 70
     1
102
RTVSPropertyOp22
 70
     1
102
RTVSPropertyOp23
 70
     1
102
RTVSPropertyOp24
 70
     1
102
RTVSPropertyOp25
 70
     1
102
RTVSPropertyOp26
 70
     1
102
RTVSPropertyOp27
 70
     1
  0
XRECORD
  5
336
102
{ACAD_REACTORS
330
335
102
}
330
335
100
AcDbXrecord
280
     1
102
RTVSPropertyOp0
 70
     1
102
RTVSPropertyOp1
 70
     1
102
RTVSPropertyOp2
 70
     1
102
RTVSPropertyOp3
 70
     1
102
RTVSPropertyOp4
 70
     1
102
RTVSPropertyOp5
 70
     1
102
RTVSPropertyOp6
 70
     1
102
RTVSPropertyOp7
 70
     1
102
RTVSPropertyOp8
 70
     1
102
RTVSPropertyOp9
 70
     1
102
RTVSPropertyOp10
 70
     1
102
RTVSPropertyOp11
 70
     1
102
RTVSPropertyOp12
 70
     1
102
RTVSPropertyOp13
 70
     1
102
RTVSPropertyOp14
 70
     1
102
RTVSPropertyOp15
 70
     1
102
RTVSPropertyOp16
 70
     1
102
RTVSPropertyOp17
 70
     1
102
RTVSPropertyOp18
 70
     1
102
RTVSPropertyOp19
 70
     1
102
RTVSPropertyOp20
 70
     1
102
RTVSPropertyOp21
 70
     1
102
RTVSPropertyOp22
 70
     1
102
RTVSPropertyOp23
 70
     1
102
RTVSPropertyOp24
 70
     1
102
RTVSPropertyOp25
 70
     1
102
RTVSPropertyOp26
 70
     1
102
RTVSPropertyOp27
 70
     1
  0
XRECORD
  5
334
102
{ACAD_REACTORS
330
333
102
}
330
333
100
AcDbXrecord
280
     1
102
RTVSPropertyOp0
 70
     1
102
RTVSPropertyOp1
 70
     1
102
RTVSPropertyOp2
 70
     1
102
RTVSPropertyOp3
 70
     1
102
RTVSPropertyOp4
 70
     1
102
RTVSPropertyOp5
 70
     1
102
RTVSPropertyOp6
 70
     1
102
RTVSPropertyOp7
 70
     1
102
RTVSPropertyOp8
 70
     1
102
RTVSPropertyOp9
 70
     1
102
RTVSPropertyOp10
 70
     1
102
RTVSPropertyOp11
 70
     1
102
RTVSPropertyOp12
 70
     1
102
RTVSPropertyOp13
 70
     1
102
RTVSPropertyOp14
 70
     1
102
RTVSPropertyOp15
 70
     1
102
RTVSPropertyOp16
 70
     1
102
RTVSPropertyOp17
 70
     1
102
RTVSPropertyOp18
 70
     1
102
RTVSPropertyOp19
 70
     1
102
RTVSPropertyOp20
 70
     1
102
RTVSPropertyOp21
 70
     1
102
RTVSPropertyOp22
 70
     1
102
RTVSPropertyOp23
 70
     1
102
RTVSPropertyOp24
 70
     1
102
RTVSPropertyOp25
 70
     1
102
RTVSPropertyOp26
 70
     1
102
RTVSPropertyOp27
 70
     1
  0
XRECORD
  5
338
102
{ACAD_REACTORS
330
337
102
}
330
337
100
AcDbXrecord
280
     1
102
RTVSPropertyOp0
 70
     1
102
RTVSPropertyOp1
 70
     1
102
RTVSPropertyOp2
 70
     1
102
RTVSPropertyOp3
 70
     1
102
RTVSPropertyOp4
 70
     1
102
RTVSPropertyOp5
 70
     1
102
RTVSPropertyOp6
 70
     1
102
RTVSPropertyOp7
 70
     1
102
RTVSPropertyOp8
 70
     1
102
RTVSPropertyOp9
 70
     1
102
RTVSPropertyOp10
 70
     1
102
RTVSPropertyOp11
 70
     1
102
RTVSPropertyOp12
 70
     1
102
RTVSPropertyOp13
 70
     1
102
RTVSPropertyOp14
 70
     1
102
RTVSPropertyOp15
 70
     1
102
RTVSPropertyOp16
 70
     1
102
RTVSPropertyOp17
 70
     1
102
RTVSPropertyOp18
 70
     1
102
RTVSPropertyOp19
 70
     1
102
RTVSPropertyOp20
 70
     1
102
RTVSPropertyOp21
 70
     1
102
RTVSPropertyOp22
 70
     1
102
RTVSPropertyOp23
 70
     1
102
RTVSPropertyOp24
 70
     1
102
RTVSPropertyOp25
 70
     1
102
RTVSPropertyOp26
 70
     1
102
RTVSPropertyOp27
 70
     1
  0
XRECORD
  5
340
102
{ACAD_REACTORS
330
33F
102
}
330
33F
100
AcDbXrecord
280
     1
102
RTVSPropertyOp0
 70
     1
102
RTVSPropertyOp1
 70
     1
102
RTVSPropertyOp2
 70
     1
102
RTVSPropertyOp3
 70
     1
102
RTVSPropertyOp4
 70
     1
102
RTVSPropertyOp5
 70
     1
102
RTVSPropertyOp6
 70
     1
102
RTVSPropertyOp7
 70
     1
102
RTVSPropertyOp8
 70
     1
102
RTVSPropertyOp9
 70
     1
102
RTVSPropertyOp10
 70
     1
102
RTVSPropertyOp11
 70
     1
102
RTVSPropertyOp12
 70
     1
102
RTVSPropertyOp13
 70
     1
102
RTVSPropertyOp14
 70
     1
102
RTVSPropertyOp15
 70
     1
102
RTVSPropertyOp16
 70
     1
102
RTVSPropertyOp17
 70
     1
102
RTVSPropertyOp18
 70
     1
102
RTVSPropertyOp19
 70
     1
102
RTVSPropertyOp20
 70
     1
102
RTVSPropertyOp21
 70
     1
102
RTVSPropertyOp22
 70
     1
102
RTVSPropertyOp23
 70
     1
102
RTVSPropertyOp24
 70
     1
102
RTVSPropertyOp25
 70
     1
102
RTVSPropertyOp26
 70
     1
102
RTVSPropertyOp27
 70
     1
  0
XRECORD
  5
348
102
{ACAD_REACTORS
330
347
102
}
330
347
100
AcDbXrecord
280
     1
102
RTVSPropertyOp0
 70
     1
102
RTVSPropertyOp1
 70
     1
102
RTVSPropertyOp2
 70
     1
102
RTVSPropertyOp3
 70
     1
102
RTVSPropertyOp4
 70
     1
102
RTVSPropertyOp5
 70
     1
102
RTVSPropertyOp6
 70
     1
102
RTVSPropertyOp7
 70
     1
102
RTVSPropertyOp8
 70
     1
102
RTVSPropertyOp9
 70
     1
102
RTVSPropertyOp10
 70
     1
102
RTVSPropertyOp11
 70
     1
102
RTVSPropertyOp12
 70
     1
102
RTVSPropertyOp13
 70
     1
102
RTVSPropertyOp14
 70
     1
102
RTVSPropertyOp15
 70
     1
102
RTVSPropertyOp16
 70
     1
102
RTVSPropertyOp17
 70
     1
102
RTVSPropertyOp18
 70
     1
102
RTVSPropertyOp19
 70
     1
102
RTVSPropertyOp20
 70
     1
102
RTVSPropertyOp21
 70
     1
102
RTVSPropertyOp22
 70
     1
102
RTVSPropertyOp23
 70
     1
102
RTVSPropertyOp24
 70
     1
102
RTVSPropertyOp25
 70
     1
102
RTVSPropertyOp26
 70
     1
102
RTVSPropertyOp27
 70
     1
  0
XRECORD
  5
33C
102
{ACAD_REACTORS
330
33B
102
}
330
33B
100
AcDbXrecord
280
     1
102
RTVSPropertyOp0
 70
     1
102
RTVSPropertyOp1
 70
     1
102
RTVSPropertyOp2
 70
     1
102
RTVSPropertyOp3
 70
     1
102
RTVSPropertyOp4
 70
     1
102
RTVSPropertyOp5
 70
     1
102
RTVSPropertyOp6
 70
     1
102
RTVSPropertyOp7
 70
     1
102
RTVSPropertyOp8
 70
     1
102
RTVSPropertyOp9
 70
     1
102
RTVSPropertyOp10
 70
     1
102
RTVSPropertyOp11
 70
     1
102
RTVSPropertyOp12
 70
     1
102
RTVSPropertyOp13
 70
     1
102
RTVSPropertyOp14
 70
     1
102
RTVSPropertyOp15
 70
     1
102
RTVSPropertyOp16
 70
     1
102
RTVSPropertyOp17
 70
     1
102
RTVSPropertyOp18
 70
     1
102
RTVSPropertyOp19
 70
     1
102
RTVSPropertyOp20
 70
     1
102
RTVSPropertyOp21
 70
     1
102
RTVSPropertyOp22
 70
     1
102
RTVSPropertyOp23
 70
     1
102
RTVSPropertyOp24
 70
     1
102
RTVSPropertyOp25
 70
     1
102
RTVSPropertyOp26
 70
     1
102
RTVSPropertyOp27
 70
     1
  0
XRECORD
  5
33E
102
{ACAD_REACTORS
330
33D
102
}
330
33D
100
AcDbXrecord
280
     1
102
RTVSPropertyOp0
 70
     1
102
RTVSPropertyOp1
 70
     1
102
RTVSPropertyOp2
 70
     1
102
RTVSPropertyOp3
 70
     1
102
RTVSPropertyOp4
 70
     1
102
RTVSPropertyOp5
 70
     1
102
RTVSPropertyOp6
 70
     1
102
RTVSPropertyOp7
 70
     1
102
RTVSPropertyOp8
 70
     1
102
RTVSPropertyOp9
 70
     1
102
RTVSPropertyOp10
 70
     1
102
RTVSPropertyOp11
 70
     1
102
RTVSPropertyOp12
 70
     1
102
RTVSPropertyOp13
 70
     1
102
RTVSPropertyOp14
 70
     1
102
RTVSPropertyOp15
 70
     1
102
RTVSPropertyOp16
 70
     1
102
RTVSPropertyOp17
 70
     1
102
RTVSPropertyOp18
 70
     1
102
RTVSPropertyOp19
 70
     1
102
RTVSPropertyOp20
 70
     1
102
RTVSPropertyOp21
 70
     1
102
RTVSPropertyOp22
 70
     1
102
RTVSPropertyOp23
 70
     1
102
RTVSPropertyOp24
 70
     1
102
RTVSPropertyOp25
 70
     1
102
RTVSPropertyOp26
 70
     1
102
RTVSPropertyOp27
 70
     1
  0
XRECORD
  5
346
102
{ACAD_REACTORS
330
345
102
}
330
345
100
AcDbXrecord
280
     1
102
RTVSPropertyOp0
 70
     1
102
RTVSPropertyOp1
 70
     1
102
RTVSPropertyOp2
 70
     1
102
RTVSPropertyOp3
 70
     1
102
RTVSPropertyOp4
 70
     1
102
RTVSPropertyOp5
 70
     1
102
RTVSPropertyOp6
 70
     1
102
RTVSPropertyOp7
 70
     1
102
RTVSPropertyOp8
 70
     1
102
RTVSPropertyOp9
 70
     1
102
RTVSPropertyOp10
 70
     1
102
RTVSPropertyOp11
 70
     1
102
RTVSPropertyOp12
 70
     1
102
RTVSPropertyOp13
 70
     1
102
RTVSPropertyOp14
 70
     1
102
RTVSPropertyOp15
 70
     1
102
RTVSPropertyOp16
 70
     1
102
RTVSPropertyOp17
 70
     1
102
RTVSPropertyOp18
 70
     1
102
RTVSPropertyOp19
 70
     1
102
RTVSPropertyOp20
 70
     1
102
RTVSPropertyOp21
 70
     1
102
RTVSPropertyOp22
 70
     1
102
RTVSPropertyOp23
 70
     1
102
RTVSPropertyOp24
 70
     1
102
RTVSPropertyOp25
 70
     1
102
RTVSPropertyOp26
 70
     1
102
RTVSPropertyOp27
 70
     1
  0
XRECORD
  5
32A
102
{ACAD_REACTORS
330
329
102
}
330
329
100
AcDbXrecord
280
     1
102
RTVSPropertyOp0
 70
     1
102
RTVSPropertyOp1
 70
     1
102
RTVSPropertyOp2
 70
     1
102
RTVSPropertyOp3
 70
     1
102
RTVSPropertyOp4
 70
     1
102
RTVSPropertyOp5
 70
     1
102
RTVSPropertyOp6
 70
     1
102
RTVSPropertyOp7
 70
     1
102
RTVSPropertyOp8
 70
     1
102
RTVSPropertyOp9
 70
     1
102
RTVSPropertyOp10
 70
     1
102
RTVSPropertyOp11
 70
     1
102
RTVSPropertyOp12
 70
     1
102
RTVSPropertyOp13
 70
     1
102
RTVSPropertyOp14
 70
     1
102
RTVSPropertyOp15
 70
     1
102
RTVSPropertyOp16
 70
     1
102
RTVSPropertyOp17
 70
     1
102
RTVSPropertyOp18
 70
     1
102
RTVSPropertyOp19
 70
     1
102
RTVSPropertyOp20
 70
     1
102
RTVSPropertyOp21
 70
     1
102
RTVSPropertyOp22
 70
     1
102
RTVSPropertyOp23
 70
     1
102
RTVSPropertyOp24
 70
     1
102
RTVSPropertyOp25
 70
     1
102
RTVSPropertyOp26
 70
     1
102
RTVSPropertyOp27
 70
     1
  0
XRECORD
  5
32C
102
{ACAD_REACTORS
330
32B
102
}
330
32B
100
AcDbXrecord
280
     1
102
RTVSPropertyOp0
 70
     1
102
RTVSPropertyOp1
 70
     1
102
RTVSPropertyOp2
 70
     1
102
RTVSPropertyOp3
 70
     1
102
RTVSPropertyOp4
 70
     1
102
RTVSPropertyOp5
 70
     1
102
RTVSPropertyOp6
 70
     1
102
RTVSPropertyOp7
 70
     1
102
RTVSPropertyOp8
 70
     1
102
RTVSPropertyOp9
 70
     1
102
RTVSPropertyOp10
 70
     1
102
RTVSPropertyOp11
 70
     1
102
RTVSPropertyOp12
 70
     1
102
RTVSPropertyOp13
 70
     1
102
RTVSPropertyOp14
 70
     1
102
RTVSPropertyOp15
 70
     1
102
RTVSPropertyOp16
 70
     1
102
RTVSPropertyOp17
 70
     1
102
RTVSPropertyOp18
 70
     1
102
RTVSPropertyOp19
 70
     1
102
RTVSPropertyOp20
 70
     1
102
RTVSPropertyOp21
 70
     1
102
RTVSPropertyOp22
 70
     1
102
RTVSPropertyOp23
 70
     1
102
RTVSPropertyOp24
 70
     1
102
RTVSPropertyOp25
 70
     1
102
RTVSPropertyOp26
 70
     1
102
RTVSPropertyOp27
 70
     1
  0
XRECORD
  5
32E
102
{ACAD_REACTORS
330
32D
102
}
330
32D
100
AcDbXrecord
280
     1
102
RTVSPropertyOp0
 70
     1
102
RTVSPropertyOp1
 70
     1
102
RTVSPropertyOp2
 70
     1
102
RTVSPropertyOp3
 70
     1
102
RTVSPropertyOp4
 70
     1
102
RTVSPropertyOp5
 70
     1
102
RTVSPropertyOp6
 70
     1
102
RTVSPropertyOp7
 70
     1
102
RTVSPropertyOp8
 70
     1
102
RTVSPropertyOp9
 70
     1
102
RTVSPropertyOp10
 70
     1
102
RTVSPropertyOp11
 70
     1
102
RTVSPropertyOp12
 70
     1
102
RTVSPropertyOp13
 70
     1
102
RTVSPropertyOp14
 70
     1
102
RTVSPropertyOp15
 70
     1
102
RTVSPropertyOp16
 70
     1
102
RTVSPropertyOp17
 70
     1
102
RTVSPropertyOp18
 70
     1
102
RTVSPropertyOp19
 70
     1
102
RTVSPropertyOp20
 70
     1
102
RTVSPropertyOp21
 70
     1
102
RTVSPropertyOp22
 70
     1
102
RTVSPropertyOp23
 70
     1
102
RTVSPropertyOp24
 70
     1
102
RTVSPropertyOp25
 70
     1
102
RTVSPropertyOp26
 70
     1
102
RTVSPropertyOp27
 70
     1
  0
XRECORD
  5
330
102
{ACAD_REACTORS
330
32F
102
}
330
32F
100
AcDbXrecord
280
     1
102
RTVSPropertyOp0
 70
     1
102
RTVSPropertyOp1
 70
     1
102
RTVSPropertyOp2
 70
     1
102
RTVSPropertyOp3
 70
     1
102
RTVSPropertyOp4
 70
     1
102
RTVSPropertyOp5
 70
     1
102
RTVSPropertyOp6
 70
     1
102
RTVSPropertyOp7
 70
     1
102
RTVSPropertyOp8
 70
     1
102
RTVSPropertyOp9
 70
     1
102
RTVSPropertyOp10
 70
     1
102
RTVSPropertyOp11
 70
     1
102
RTVSPropertyOp12
 70
     1
102
RTVSPropertyOp13
 70
     1
102
RTVSPropertyOp14
 70
     1
102
RTVSPropertyOp15
 70
     1
102
RTVSPropertyOp16
 70
     1
102
RTVSPropertyOp17
 70
     1
102
RTVSPropertyOp18
 70
     1
102
RTVSPropertyOp19
 70
     1
102
RTVSPropertyOp20
 70
     1
102
RTVSPropertyOp21
 70
     1
102
RTVSPropertyOp22
 70
     1
102
RTVSPropertyOp23
 70
     1
102
RTVSPropertyOp24
 70
     1
102
RTVSPropertyOp25
 70
     1
102
RTVSPropertyOp26
 70
     1
102
RTVSPropertyOp27
 70
     1
  0
XRECORD
  5
344
102
{ACAD_REACTORS
330
343
102
}
330
343
100
AcDbXrecord
280
     1
102
RTVSPropertyOp0
 70
     1
102
RTVSPropertyOp1
 70
     1
102
RTVSPropertyOp2
 70
     1
102
RTVSPropertyOp3
 70
     1
102
RTVSPropertyOp4
 70
     1
102
RTVSPropertyOp5
 70
     1
102
RTVSPropertyOp6
 70
     1
102
RTVSPropertyOp7
 70
     1
102
RTVSPropertyOp8
 70
     1
102
RTVSPropertyOp9
 70
     1
102
RTVSPropertyOp10
 70
     1
102
RTVSPropertyOp11
 70
     1
102
RTVSPropertyOp12
 70
     1
102
RTVSPropertyOp13
 70
     1
102
RTVSPropertyOp14
 70
     1
102
RTVSPropertyOp15
 70
     1
102
RTVSPropertyOp16
 70
     1
102
RTVSPropertyOp17
 70
     1
102
RTVSPropertyOp18
 70
     1
102
RTVSPropertyOp19
 70
     1
102
RTVSPropertyOp20
 70
     1
102
RTVSPropertyOp21
 70
     1
102
RTVSPropertyOp22
 70
     1
102
RTVSPropertyOp23
 70
     1
102
RTVSPropertyOp24
 70
     1
102
RTVSPropertyOp25
 70
     1
102
RTVSPropertyOp26
 70
     1
102
RTVSPropertyOp27
 70
     1
  0
XRECORD
  5
33A
102
{ACAD_REACTORS
330
339
102
}
330
339
100
AcDbXrecord
280
     1
102
RTVSPropertyOp0
 70
     1
102
RTVSPropertyOp1
 70
     1
102
RTVSPropertyOp2
 70
     1
102
RTVSPropertyOp3
 70
     1
102
RTVSPropertyOp4
 70
     1
102
RTVSPropertyOp5
 70
     1
102
RTVSPropertyOp6
 70
     1
102
RTVSPropertyOp7
 70
     1
102
RTVSPropertyOp8
 70
     1
102
RTVSPropertyOp9
 70
     1
102
RTVSPropertyOp10
 70
     1
102
RTVSPropertyOp11
 70
     1
102
RTVSPropertyOp12
 70
     1
102
RTVSPropertyOp13
 70
     1
102
RTVSPropertyOp14
 70
     1
102
RTVSPropertyOp15
 70
     1
102
RTVSPropertyOp16
 70
     1
102
RTVSPropertyOp17
 70
     1
102
RTVSPropertyOp18
 70
     1
102
RTVSPropertyOp19
 70
     1
102
RTVSPropertyOp20
 70
     1
102
RTVSPropertyOp21
 70
     1
102
RTVSPropertyOp22
 70
     1
102
RTVSPropertyOp23
 70
     1
102
RTVSPropertyOp24
 70
     1
102
RTVSPropertyOp25
 70
     1
102
RTVSPropertyOp26
 70
     1
102
RTVSPropertyOp27
 70
     1
  0
XRECORD
  5
342
102
{ACAD_REACTORS
330
341
102
}
330
341
100
AcDbXrecord
280
     1
102
RTVSPropertyOp0
 70
     1
102
RTVSPropertyOp1
 70
     1
102
RTVSPropertyOp2
 70
     1
102
RTVSPropertyOp3
 70
     1
102
RTVSPropertyOp4
 70
     1
102
RTVSPropertyOp5
 70
     1
102
RTVSPropertyOp6
 70
     1
102
RTVSPropertyOp7
 70
     1
102
RTVSPropertyOp8
 70
     1
102
RTVSPropertyOp9
 70
     1
102
RTVSPropertyOp10
 70
     1
102
RTVSPropertyOp11
 70
     1
102
RTVSPropertyOp12
 70
     1
102
RTVSPropertyOp13
 70
     1
102
RTVSPropertyOp14
 70
     1
102
RTVSPropertyOp15
 70
     1
102
RTVSPropertyOp16
 70
     1
102
RTVSPropertyOp17
 70
     1
102
RTVSPropertyOp18
 70
     1
102
RTVSPropertyOp19
 70
     1
102
RTVSPropertyOp20
 70
     1
102
RTVSPropertyOp21
 70
     1
102
RTVSPropertyOp22
 70
     1
102
RTVSPropertyOp23
 70
     1
102
RTVSPropertyOp24
 70
     1
102
RTVSPropertyOp25
 70
     1
102
RTVSPropertyOp26
 70
     1
102
RTVSPropertyOp27
 70
     1
  0
ENDSEC
  0
SECTION
  2
THUMBNAILIMAGE
 90
    16364
310
28000000B40000005500000001000800000000000000000000000000000000000000000000000000FFFFFF00FF000000FFFF000000FF000000FFFF000000FF00FF00FF000000000080808000C0C0C000FF000000FF7F7F00A5000000A55252007F0000007F3F3F004C0000004C2626002600000026131300FF3F0000FF9F7F
310
00A5290000A56752007F1F00007F4F3F004C1300004C2F26002609000026171300FF7F0000FFBF7F00A5520000A57C52007F3F00007F5F3F004C2600004C39260026130000261C1300FFBF0000FFDF7F00A57C0000A59152007F5F00007F6F3F004C3900004C422600261C000026211300FFFF0000FFFF7F00A5A50000A5A5
310
52007F7F00007F7F3F004C4C00004C4C26002626000026261300BFFF0000DFFF7F007CA5000091A552005F7F00006F7F3F00394C0000424C26001C260000212613007FFF0000BFFF7F0052A500007CA552003F7F00005F7F3F00264C0000394C2600132600001C2613003FFF00009FFF7F0029A5000067A552001F7F00004F
310
7F3F00134C00002F4C2600092600001726130000FF00007FFF7F0000A5000052A55200007F00003F7F3F00004C0000264C2600002600001326130000FF3F007FFF9F0000A5290052A56700007F1F003F7F4F00004C1300264C2F00002609001326170000FF7F007FFFBF0000A5520052A57C00007F3F003F7F5F00004C2600
310
264C39000026130013261C0000FFBF007FFFDF0000A57C0052A59100007F5F003F7F6F00004C3900264C420000261C001326210000FFFF007FFFFF0000A5A50052A5A500007F7F003F7F7F00004C4C00264C4C00002626001326260000BFFF007FDFFF00007CA5005291A500005F7F003F6F7F0000394C0026424C00001C26
310
0013212600007FFF007FBFFF000052A500527CA500003F7F003F5F7F0000264C0026394C0000132600131C2600003FFF007F9FFF000029A5005267A500001F7F003F4F7F0000134C00262F4C0000092600131726000000FF007F7FFF000000A5005252A50000007F003F3F7F0000004C0026264C0000002600131326003F00
310
FF009F7FFF002900A5006752A5001F007F004F3F7F0013004C002F264C0009002600171326007F00FF00BF7FFF005200A5007C52A5003F007F005F3F7F0026004C0039264C00130026001C132600BF00FF00DF7FFF007C00A5009152A5005F007F006F3F7F0039004C0042264C001C00260021132600FF00FF00FF7FFF00A5
310
00A500A552A5007F007F007F3F7F004C004C004C264C002600260026132600FF00BF00FF7FDF00A5007C00A55291007F005F007F3F6F004C0039004C26420026001C0026132100FF007F00FF7FBF00A5005200A5527C007F003F007F3F5F004C0026004C2639002600130026131C00FF003F00FF7F9F00A5002900A5526700
310
7F001F007F3F4F004C0013004C262F002600090026131700000000002D2D2D005B5B5B0089898900B7B7B700B3B3B30000000000000000000000000000000000000000000000000000000000000000000000000000000000000000000000000000000000000000000000000000000000000000000000000000000000000000
310
00000000000000000000000000000000000000000000000000000000000000000000000000000000000000000000000000000000000000000000000000000000000000000000000000000000000000000000000000000000000000000000000000000000000000000000000000000000000000000000000000000000000000
310
00000000000000000000000000000000000000000000000000000000000000000000000000000000000000000000000000000000000000000000000000000000000000000000000000000000000000000000000000000000000000000000000000000000000000000000000000000000000000000000000000000000000000
310
00000000000000000000000000000000000000000000000000000000000000000000000000000000000000000000000000000000000000000000000000000000000000000000000000000000000000000000000000000000000000000000000000000000000000000000000000000000000000000000000000000000000000
310
00000000000000000000000000000000000000000000000000000000000000000000000000000000000000000000000000000000000000000000000000000000000000000000000000000000000000000000000000000000000000000000000000000000000000000000000000000000000000000000000000000000000000
310
00000000000000000000000000000000000000000000000000000000000000000000000000000000000000000000000000000000000000000000000000000000000000000000000000000000000000000000000000000000000000000000000000000000000000000000000000000000000000000000000000000000000000
310
00000000000000000000000000000000000000000000000000000000000000000000000000000000000000000000000000000000000000000000000000000000000000000000000000000000000000000000000000000000000000000000000000000000000000000000000000000000000000000000000000000000000000
310
00000000000000000000000000000000000000000000000000000000000000000000000000000000000000000000000000000000000000000000000000000000000000000000000000000000000000000000000000000000000000000000000000000000000000000000000000000000000000000000000000000000000000
310
00000000000000000000000000000000000000000000000000000000000000000000000000000000000000000000000000000000000000000000000000000000000000000000000000000000000000000000000000000000000000000000000000000000000000000000000000000000000000000000000000000000000000
310
00000000000000000000000000000000000000000000000000000000000000000000000000000000000000000000000000000000000000000000000000000000000000000000000000000000000000000000000000000000000000000000000000000000000000000000000000000000000000000000000000000000000000
310
00000000000000000000000000000000000000000000000000000000000000000000000000000000000000000000000000000000000000000000000000000000000000000000000000000000000000000000000000000000000000000000000000000000000000000000000000000000000000000000000000000000000000
310
00000000000000000000000000000000000000000000000000000000000000000000000000000000000000000000000000000000000000000000000000000000000000000000000000000000000000000000000000000000000000000000000000000000000000000000000000000000000000000000000000000000000000
310
00000000000000000000000000000000000000000000000000000000000000000000000000000000000000000000000000000000000000000000000000000000000000000000000000000000000000000000000000000000000000000000000000000000000000000000000000000000000000000000000000000000000000
310
00000000000000000000000000000000000000000000000000000000000000000000000000000000000000000000000000000000000000000000000000000000000000000000000000000000000000000000000000000000000000000000000000000000000000000000000000000000000000000000000000000000000000
310
00000000000000000000000000000000000000000000000000000000000000000000000000000000000000000000000000000000000000000000000000000000000000000000000000000000000000000000000000000000000000000000000000000000000000000000000000000000000000000000000000000000000000
310
00000000000000000000000000000000000000000000000000000000000000000000000000000000000000000000000000000000000000000000000000000000000000000000000000000000000000000000000000000000000000000000000000000000000000000000000000000000000000000000000000000000000000
310
00000000000000000000000000000000000000000000000000000000000000000000000000000000000000000000000000000000000000000000000000000000000000000000000000000000000000000000000101010101010101010101010101010100000000000000000000000000000000000000000000000000000000
310
00000000000000000000000000000000000000000000000000000000000000000000000000000000000000000000000000000000000000000000000000000000000000000000000000000000000000000000000000000000000000000000000000000000000000000000000000000000000000000000000000000000000000
310
00000000000000000001010101010101010101010101010701000000000000000000000000000000000000000000000000000000000000000000000000000000000000000000000000000000000000000000000000000000000000000000000000000000000000000000000000000000000000000000000000000000000000
310
00000000000000000000000000000000000000000000000000000000000000000000000000000000000000000000000000000000000000000000969696960101969601969601969696969601960196969696969696960000000000000000000000000000000000000000000000000000000000000000000000000000000000
310
00000000000000000000000000000000000000000000000000000000000000000000000000000000000000000000000000000000000000000000000000000000000000000000000000000000000000000000000000000000000000000000000000000000000000000000000000000000000000010101010101010101010101
310
01010701000000000000000000000000000000000000000000000000000000000000000000000000000000000000000000000000000000000000000000000000000000000000000000000000000000000000000000000000000000000000000000000000000000000000000000000000000000000000000000000000000000
310
00000000000000000000000000000000000000000000000000000000000000000000000000000000000101010101010101010101010101010100000000000000000000000000000000000000000000000000000000000000000000000000000000000000000000000000000000000000000000000000000000000000000000
310
00000000000000000000000000000000000000000000000000000000000000000000000000000000000000000000000000000000000000000000000000000000000000000000000000000000000000000000000000000000000000000000000000000000000000000000000000000000000000000000000000000000000000
310
00000000000000000000000000000000000000000000000000000000000000000000000000000000000000000000000000000000000000000000000000000000000000000000000000000000000000000000000000000000000000000000000000000000000000000000000000000000000000000000000000000000000000
310
00000000000000000000000000000000000000000000000000000000000700000000000000000000000000000000000000000000000000000000000000000000000000000000000000000000000000000000000000000000000000000000000000000000000000000000000000000000000000000000000000000000000000
310
00000000000000000000000000000000000000000000000000000000000000000000000000000000000000000000000000000000000000000000000000000000000000000000000707000000000000000000070700000000000000000000000000000000000000000000000000000000000000000000000000000000000000
310
00000000000000000000000000000000000000000000000000000000000000000000000000000000000000000000070707070707070707070707070707070707070707070707070707070707070707070000000000000000000000000000000000000000000000000000000000000000000000000000000000000000070000
310
00000000000000000707000000000000000000000000000000000000000000000000000000000000000000000000000000000000000000000000000000000000000000000000000000000000000000000000000000000000000000000000000000000000070707070707070707070707070707070007070707070707070707
310
07070707070700000000000000000000000000000000000000000000000000000000000000000000000000000000000000000707000000000034000007000700000000000000000000000000000000000000000000000000000000000000000000000000000000000000000000000000000000000000000000000000000000
310
00000000000000000000000000000000000000000000000000000707070707070007070707070707070700070707070707070707070707070707070000000000000000000000000000000000000000000000000000000000000000000000000000000000000007070707070707000707070707070000000000000000000000
310
00000000000000000000000000000000000000000000000000000000000000000000000000000000000000000000000000000000000000000000000000000000000000000000000000000000000000000000000000070707070707070707070707070707070707070007000700000000000000000000000000000000000000
310
00000000000000000000000000000000000000000000000000000000070707070707070007070707070707000000000000000000000000000000000000000000000000000000000000000000000000000000000000000000000000000000000000000000000000000000000000000000000000000000000000000000000000
310
00000000000007070707070707000700070007070707070700070007000700070007070000000000000000000000000000000000000000000000000000000000000000000000000000000000000000000000000007070034003400000000000000000000000000000000000000000000000000000000000000000000000000
310
00000000000000000000000000000000000000000000000000000000000000000000000000000000000000000000000000000000000000000007070700070007000700070007000700070007070007000700070007000707000000000000000000000000000000000000000000000000000000000000000000000000000000
310
00000000000000000000000000340034000000000000000000000000000000000000000000000000000000000000000000000000000000000000000000000000000000000000000000000000000000000000000000000000000000000000000000000000000000000000000000070707000700000700070007000700070007
310
00070700070007000700070007000700000000000000000000000000000000000000000000000000000000000000000000000000000000000000000000000000000034003400000000000000000000000000000000000000000000000000000000000000000000000000000000000000000000000000000000000000000000
310
00000000000000000000000000000000000000000000000000000000000000000000070700070007000700070007000700070007000700070700000700070007000700070000000000000000000000000000000000000000000000000000000000000000000000000000000000000000000000000000003400000000000000
310
00000000000000000000000000000000000000000000000000000000000000000000000000000000000000000000000000000000000000000000000000000000000000000000000000000000000000000000000000000007000700070001010101010101010101010101010101070000070700070000070007000000000000
310
00000000000000000000000000000000000000000000000000000000000000000000000000000000000001010101010101010101010101010101000000000101010101010000000000000001010101010000000000010101010101000000000000000000000000000000000000000000000000000000000000000000000000
310
00000000000000000000000007000700070000010000000000000000010100000000010700000707000700070007000700000000000000000000000000000000000000000000000000000000000000000000000000000000000000000000000107070707010107070707070707070100000000070707070707000000000000
310
00010101010100000000000101010101010000000000000000000000000000000000000000000000000000000000000000000000000000000000000000000000000707070700000001000000000000010101010100000001070000070700070007000700070000000000000000000000000000000000000000000000000000
310
00000000000000000000000000000000000000000001070701019600010707070707070001000000000100000000010000000000000001000000010000000000010000000001000000000000000000000000000000000000000000000000000000000000000000000000000000000000000000000007070700000007070100
310
00000000000107070701000000010700070007000700070007000707000000000000000000000000000000000000000000000000000000000000000000000000000000000000000000000107000100960001070700070700070100000000010000000001000000000000000100000001000000000001000000000100000000
310
00000000000000000000000000000000000000000000000000000000000000000000000000000000000007070000000007000001000000000096019607070101960001000007000700070007000707000007000000000000000000000000000000000000000000000000000000000000000000000000000000000000000000
310
01070701969696960107070707070701000000969696969696969600009696969696969696969696960096969696969696969600000000000000000000000000000000000000000000000000000000000000000000000000000000000000000700000707070000070100000000000007070707070100000100070007000700
310
00070700070000070700000000000000000000000000000000000000000000000000000000000000000000000000000000000000000107070100960000010707070707070100000000010096000001000000000000000100960001000000000001000096000100000000000000000000000000000000000000000000000000
310
00000000000000000000000000000000000000000007070700000007070001070707070707070701010707070707010100070707000700070007000700070000000000000000000000000000000000000000000000000000000000000000000000000000000000000000010101010101010101010101010107010000000007
310
07010107070000000000000001010101010000000000010101010101000000000000000000000000000000000000000000000000000000000000000000000000000000000000000000000700000707070000070107070707070007070707079696969696010707070707070707000700070007070000000000000000000000
310
00000000000000000000000000000000000000000000000000000000000096960101010101969696969696969601960196969600010196960101000000000000000196960101000000000001019696010100000000000000000000000000000000000000000000000000000000000000000000000000000000000000000000
310
07070700000007070001070707070707070700000707070707000107000700070007000700070007000700000000000000000000000000000000000000000000000000000000000000000000000000000000000000010000000000000000000000000107010000000001019601000100000000000000010196010100000000
310
00010100070101000000000000000000000000000000000000000000000000000000000000000000000000000000000000000000000700070707070000070100000000070000000000000000000101010000070007000700070007000707000000000000000000000000000000000000000000000000000000000000000000
310
00000000000000000000000101010101010101010101010101070100000000010001000001000000000000000107010701000000000001070101070100000000000000000000000000000000000000000000000000000000000000000000000000000000000000000000070700000000070700010101010101010101010101
310
01010101000700070007000700070007000007000000000000000000000000000000000000000000000000000000000000000000000000000000000000000000010101010101010101010101010101010000000001010101010100000000000000010101010100000000000101010101010000000000000000000000000000
310
00000000000000000000000000000000000000000000000000000000000000000700000707070000070700000707000007000700000700070007000007000700070007000700070700000000000000000000000000000000000000000000000000000000000000000000000000000000000000000000000034000000000000
310
00000000000000000000000000000000000000000000000000000000000000000000000000000000000000000000000000000000000000000000000000000000000000000000000000000000000000000000000000000707000007070700000007000007070000070007000700070000070007000700070007000007000000
310
00000000000000000000000000000000000000000000000000000000000000000000000000000000000000000000340034000000000000000000000000000000000000000000000000000000000000000000000000000000000000000000000000000000000000000000000000000000000000000000000000000000000000
310
00000000000000000000000000070707000000000707070707070707070707000007000700070000070007000700070707070000000000000000000000000000000000000000000000000000000000000000000000000000000000000000000000000034003400000000000000000000000000000000000000000000000000
310
00000007070707070700000007070707070707000000000000000000000000000000000000000000000000000000000000000000000000000000000000000000000000000707070707000000070000000700070700070007000007000700070007070700000000000000000000000000000000000000000000000000000000
310
00000000000000000000000000000000000000000000070707070007070707000000000000000000000000000000000000000000000000000707070707070000000007000000070000000000000000000000000000000000000000000000000000000000000000000000000000000000000000000000000000000707000000
310
00000007070000000000070707000007000700070007070007000000000000000000000000000000000000000000000000000000000000000000000000000000000000000000000007070707070707000707070707070700000000000000000000000000000000000000000000070700000707000000070707070707000000
310
00000000000000000000000000000000000000000000000000000000000000000000000000000000000000000000000000000000000000000007000000000000070707070007000707070700000000000000000000000000000000000000000000000000000000000000000000000000000000000000000000000000000007
310
07000000340034000707000000000000000000000000000000000000000000000000000000000000000000000707000007070000000000000000000000000000000000000000000000000000000000000000000000000000000000000000000000000000000000000000000000000707000000000000000707070707070000
310
00000000000000000000000000000000000000000000000000000000000000000000000000000000000000000000000000000000070000000000003400000007070000000000000000000000000000000000000000000000000000000000000000000000000000000000000000000000000000000000000000000000000000
310
00000000000000000000000000000000000000000000000000000000000000000000000707070707070707070000000700000000000000010101000000000000000000000000000000000000000000000000000000000000000000000000000000000000000000000007070000000000000000000700000000000000000000
310
00000000000000000000000000000000000000000000000000000000000000000000000000000000000000000000000000000000000000000000000000000000000000000000000000000000000000000000000000000000070707070707000000070707000000000000000001070100000000000000000000000000000000
310
00000000000000000000000000000000000000000000000000000000000007070707000000000000000700070000000000000000000000000000000000000000000000000000000000000000000000000000000000000000000000000000000000000000000000000000000000000000000000000000000000000000000000
310
00000000000000000707070707070000070000340000000000000707070000000000010701000000000000000000000000000000000000000000000000000000000007000000000000000000000000000000000007070000000000000000070707000000000000000000000000000000000000000000000000000000000000
310
00000000000000000000000000000000000000000000000000000000000000000000000000000000000000000000000000000000000000000000000000070000000000070707000034000000000000000000070000000001070100000000000000000000000000000000000101010101010101010101010700000000000000
310
00000000000000000000070707000707000707000000070700070707070007079696079696969600000000000000000000000000000000000000000000000000000000000000000000000000000000000000000000000000000000000000000000000000000000000000000000000000000700000000000000000000003400
310
00000000000000000007000000010701000000000000000000000000000000000001070101010101010101010107000000000000000000000000000000000000070707070707070707000007070707070707070707070107070101000000000000000707000707000700070700000000000000000000000000000000000000
310
00000000000000000000000000000000000000000000000000000000000000000000000000000007000000000000000000000000000000000000000000000700000001070100000000000000000000000000000000000107010000000000000000070700000000000000000000000000000000000707070707070707070700
310
00070707070707070707079696969696969600000000000007070707070707000707000000000000000000000000000000000000000000000000000000000000000000000000000000000000000000000000000000000000000000070000000101010101010101010101010101010100000000000700000107010101010100
310
00000001000001000101000001070100000000000000000007000000000000000000000000000000000000000000000000000000000000000000000000000000969696960796960000000000000707070707070707070707000000000000000000000000000000000000000000000000000000000000000000000000000000
310
00000000000000000000000000000000000700000001070707070707070701010007070701000000000007000001010101010101000000010101010101010101010101010101010101010101010107000000000000000000000000000000000000000000000000000000000000000000000000000000000000000000000000
310
00000000000000000000000000000000000000000000000000000000000000000000000000000000000000000000000000000000000000000000000000000000000000000000070000000107070707070701010101010007070100000000000007000100010000000100000001010000010000010000000000000000000000
310
00000000070000000000000000000000000000000000000000000000000000000000000000000000000000000000000000000000000000000000000000000000000000000000000000000000000000000000000000000000000000000000000000000000000000000000000000000000000000000000000000000007000000
310
01070707070007010707070107070701000000000000070001000100000001000000010100000100000100000000000000000000000000000700000000000000000000000000000000000000000000000000000000000101000101000000000000000000000000000000000000000000000000000000000000000000000000
310
00000000000000000000000000000000000000000000000000000000000000000000000000000000000000000000000000070000000107070707079601070707010107000100000000000007000196019696969696960001019696019696019696969696969696969696960000070000000000000000000000000000000000
310
00000000000000010101010101010101010101010000000000000000000000000000000000000000000000000000000000000000000000000000000000000000000000000000000000000000000000000000000000000000000000000000000000000000000007000000010707070700070101010101010107010000000000
310
00070001000100960001000000000100000101010100000000000000000000000000000700000000000000000000000000000000000000000000009696969696969696969696969696969607070700070700070700000007000707000707070000070707070007070007070007000000000000000000000000000000000000
310
00000000000000000000000000000000000000000000000000000000070000000196969696079696010101010101010101010100000007000101010101010100000000010101010000010101010101010101010101010101070000000000000000000000000000000000000000000000000100000001010100010100000100
310
00000707070707070707070707070707070707070700000707070707070707070707070700000000000000000000000000000000000000000000000000000000000000000000000000000000000000000007000000019696969696969696010196969696969696010196000700010701969601010000000000000707000000
310
00000107010000000000000000000700000000000000000000000000000000000000000000000001010101010100000001010101000007070707070707070707000007070707070707070000070707070707070707070707070000000000000000000000000000000000000000000000000000000000000000000000000000
310
00000000000000000700000196960796969696000100000001960000000101000007000107010196010100000000000000070000000000010701000000000000000000070000000000000000000000000000000000000000000000000000000000000000000000000000000000000000000000000000000000000000000000
310
00000000000000000000000000000000000000000000000000000000000000000000000000000000000000000000000000000000000000000000000000070000010001070101010101010101010101010101010000070700010701000107010000000000000000070000000001070101010101010101010101070000000000
310
00000000000000000000000000000000000000000000000000000000000000000000000000000000000000000000000000000000000000000000000000000000000000000000000000000000000000000000000000000000000000000000000000000000000000000000000000000000000007000001070701010101010101
310
01010101010100000707070000000107010101010100000000000000000007000000010101010101010101010101010100000000000000000000000000000000000000000000000000000000000000000000000000000000000000000000000000000000000000000000000000000000000000000000000000000000000000
310
00000000000000000000000000000000000000000000000000000000000000000000000000000000000707070000070707070700000000000707070707000000000000010701000000000000000000000000000700000000000000000000000000000000000000000000000000000000000000000000000000000000000000
310
00000000000000000000000000000000000000000000000000000000000000000000000000000000000000000000000000000000000000000000000000000000000000000000000000000000000000000000000000000000000000000000000000000000000000000707070707000000000000000000000001010100000000
310
00000000000000000000070000000000000000000000000000000000000000000000000000000000000000000000000000000000000001010000000101010101010101010101010101010100000000000000000000000000000000000000000000000000000000000000000000000000000000000000000000000000000000
310
00000000000000000000000000000000000000000000000000000000000000340000000000000000000000000000000707070707070000000000000000000007000000000000000000000000000000000000000000000000000000000000000000000000000000000000010001010101010000000000000000000000000000
310
01000000000000000000000000000000000000000000000000000000000000000000000000000000000000000000000000000000000000000000000000000000000000000000000000000000000000000000070707000000000000000000000000000000070707070707000000000000000000000007000000000000000000
310
00000000000000000000000000000000000000000000000000000000000096019696019696960196969696969696969696969696969696000007070007070707000007070700070000070007070007070007070700000700000700070707070007000007070707000007070700070700070707070000000000000000000000
310
00000000000707070707070000000000000000000000000000000707000007070000000000000000000707070707070707070707070707070707070707070707070707070700070707070707070707070707070000010001000101010000000000000000000000000000010000000707070707070707000007070707000007
310
07070707070707070707000007070007070707070707070000070707070700000707070707070707070000000000000000000000000000000000070700000034000000000000000000000000000000000000000000000000000000000000000707070707070707070707070707070707070707070707070707070007070707
310
00070707070707070000000101010100000101010101010101010101010101010100000007070707070707070007070707070700070707070707070707070700000707000707070707070707070007070707070007070707070707070707000000000000000000000000000000000000070000000000000000000000000000
310
00000000000000000000000000000000000000000000000000000000000000000000000000000000000000000000000000000000000000000000000000000000000000000000000000000000000000000000000000000000000000000000000000000000000000000000000000000000000000000000000000000000000000
310
00000000000000000000000000000000000000000000000000000000000000000000000000000700000000000000000000000000000000000000000000000000000000000000000000000000000000000000000000000000000000000000000000000000000000000000000000000000000000000000000000000000000000
310
00000000000000000000000000000000000000000000000000000000000000000000000000000000000000000000000000000000000000000000000000000000000000000000000000000000000000000000000000000000000007000700000000000000000000000000000000000000000000000000000000000000000000
310
00000000000000000000000000000000000000000000000000000000000000000000000000000000000000000000000000000000000000000000000000000000000000000000000000000000000000000000000000000000000000000000000000000000000000000000000000000000000000000000000000000000000000
310
00000000000000000000000000000000070707000000000000000000000000000000000000000000000000000000000000000000000000000000000000000000000000000000000000000000000000000000000000000000000000000000000000000000000000000000000000000000000000000000000000000000000000
310
00000000000000000000000000000000000000000000000000000000000000000000000000000000000000000000000000000000000000000000000000000000000000000000000000000000000000000000000000000000000000000000000000000000000000000000000000000000000000000000000000000000000000
310
00000000000000000000000000000000000000000000000000000000000000000000000000000000000000000000000000000000000000000000000000000000000000000000000000000000000000000000000000000000000000000000000000000000000000000000000000000000000000070707070707070707070707
310
07070707070707070707070707070707070707070707070707070707070000000000000000000000000000000000000000000000000000000000000000000000000000000000000000000000000000000000000000000000000000000000000000000000000000000000000000000000000000000000000000000000000000
310
00000000000000000000000000000000000000000000000000000000000000000000000000000000000007070707070700070707070707070707070000070707070707070707070007070707070707070707000000000000000000000000000000000000000000000000000000000000000000000000000000000000000000
310
00000000000000000000000000000000000000000000000000000000000000000000000000000000000000000000000000000000000000000000000000000000000000000000000000000000000000000000000000000000000000000000000000000000000000000000000000000000000000000000000000000000000000
310
00000000000000000000000000000000000000000000000000000000000000000000000000000000000000000000000000000000000000000000000000000000000000000000000000000000000000000000000000000000000000000000000000000000000000000000000000000000000000000000000000000000000000
310
00000000000000000000000000000000000000000000000000000000000000000000000000000000000000000000000000000000000000000000000000000000000000000000000000000000000000000000000000000000000000000000000000000000000000000000000000000000000000000000000000000000000000
310
00000000000000000000000000000000000000000000000000000000000000000000000000000000000000000000000000000000000000000000000000000000000000000000000000000000000000000000000000000000000000000000000000000000000000000000000000000000000000000000000000000000000000
310
00000000000000000000000000000000000000000000000000000000000000000000000000000000000000000000000000000000000000000000000000000000000000000000000000000000000000000000000000000000000000000000000000000000000000000000000000000000000000000000000000000000000000
310
00000000000000000000000000000000000000000000000000000000000000000000000000000000000000000000000000000000000000000000000000000000000000000000000000000000000000000000000000000000000000000000000000000000000000000000000000000000000000000000000000000000000000
310
00000000000000000000000000000000000000000000000000000000000000000000000000000000000000000000000000000000000000000000000000000000000000000000000000000000000000000000000000000000000000000000000000000000000000000000000000000000000000000000000000000000000000
310
00000000000000000000000000000000000000000000000000000000000000000000000000000000000000000000000000000000000000000000000000000000000000000000000000000000000000000000000000000000000000000000000000000000000000000000000000000000000000000000000000000000000000
310
00000000000000000000000000000000000000000000000000000000000000000000000000000000000000000000000000000000000000000000000000000000000000000000000000000000000000000000000000000000000000000000000000000000000000000000000000000000000000000000000000000000000000
310
00000000000000000000000000000000000000000000000000000000000000000000000000000000000000000000000000000000000000000000000000000000000000000000000000000000000000000000000000000000000000000000000000000000000000000000000000000000000000000000000000000000000000
310
00000000000000000000000000000000000000000000000000000000000000000000000000000000000000000000000000000000000000000000000000000000000000000000000000000000000000000000000000000000000000000000000000000000000000000000000000000000000000000000000000000000000000
310
00000000000000000000000000000000000000000000000000000000000000000000000000000000000000000000000000000000000000000000000000000000000000000000000000000000000000000000000000000000000000000000000000000000000000000000000000000000000000000000000000000000000000
310
00000000000000000000000000000000000000000000000000000000000000000000000000000000000000000000000000000000000000000000000000000000000000000000000000000000000000000000000000000000000000000000000000000000000000000000000000000000000000000000000000000000000000
310
00000000000000000000000000000000000000000000000000000000000000000000000000000000000000000000000000000000000000000000000000000000000000000000000000000000000000000000000000000000000000000000000000000000000000000000000000000000000000000000000000000000000000
310
000000000000000000000000000000000000000000000000000000000000000000000000000000000000000000000000000000000000000000000000000000000000000000000000000000000000000000000000000000000000000000000000000000000000000000000000
  0
ENDSEC
  0
EOF
