0
SECTION
2
HEADER
0
ENDSEC
0
SECTION
2
TABLES
0
TABLE
2
LTYPE
0
LTYPE
2
Continuous
70
0
3
Solid line
72
65
73
0
40
0.000000
0
ENDTAB
0
TABLE
2
LAYER
0
LAYER
2
0
70
0
62
7
6
Continuous
0
LAYER
2
Formers
70
0
62
7
6
Continuous
0
ENDTAB
0
TABLE
2
STYLE
0
STYLE
2
Standard
3
Arial
70
0
71
0
40
5.000000
41
1.000000
42
5.000000
50
0.000000
0
ENDTAB
0
TABLE
2
DIMSTYLE
0
DIMSTYLE
2
Standard
70
0
3

4

5

6
CLOSEDFILLED
7
CLOSEDFILLED
40
1.000000
41
2.000000
42
1.000000
43
5.000000
44
2.000000
45
0.000000
46
0.000000
47
0.000000
48
0.000000
140
5.000000
141
2.000000
142
0.000000
143
25.400000
144
1.000000
145
0.000000
146
1.000000
147
2.000000
71
0
72
0
73
0
74
1
75
0
76
0
77
0
78
0
170
0
171
4
172
0
173
1
174
0
175
0
176
0
177
-2
178
-2
271
4
272
4
273
1
274
4
275
0
280
0
281
0
282
0
283
1
288
0
0
ENDTAB
0
ENDSEC
0
SECTION
2
BLOCKS
0
BLOCK
8
0
2
_CLOSEDFILLED
70
0
10
0.000000
20
0.000000
3
_CLOSEDFILLED
0
SOLID
8
0
10
-1.000000
20
0.166667
30
0.000000
11
-1.000000
21
-0.166667
31
0.000000
12
0.000000
22
0.000000
32
0.000000
13
0.000000
23
0.000000
33
0.000000
0
ENDBLK
0
BLOCK
8
0
2
_CLOSEDBLANK
70
0
10
0.000000
20
0.000000
3
_CLOSEDBLANK
0
LINE
8
0
10
-1.000000
20
0.166667
30
0.000000
11
0.000000
21
0.000000
31
0.000000
0
LINE
8
0
10
0.000000
20
0.000000
30
0.000000
11
-1.000000
21
-0.166667
31
0.000000
0
LINE
8
0
10
-1.000000
20
0.166667
30
0.000000
11
-1.000000
21
-0.166667
31
0.000000
0
ENDBLK
0
BLOCK
8
0
2
_CLOSED
70
0
10
0.000000
20
0.000000
3
_CLOSED
0
LINE
8
0
10
-1.000000
20
0.166667
30
0.000000
11
0.000000
21
0.000000
31
0.000000
0
LINE
8
0
10
0.000000
20
0.000000
30
0.000000
11
-1.000000
21
-0.166667
31
0.000000
0
LINE
8
0
10
-1.000000
20
0.166667
30
0.000000
11
-1.000000
21
-0.166667
31
0.000000
0
LINE
8
0
10
0.000000
20
0.000000
30
0.000000
11
-1.000000
21
0.000000
31
0.000000
0
ENDBLK
0
BLOCK
8
0
2
_DOT
70
0
10
0.000000
20
0.000000
3
_DOT
0
POLYLINE
8
0
70
1
66
 1
10
0.0
20
0.0
30
0.000000
0
VERTEX
8
0
10
0.250000
20
0.000000
30
0.000000
42
1.000000
0
VERTEX
8
0
10
-0.250000
20
0.000000
30
0.000000
42
1.000000
0
SEQEND
8
0
0
LINE
8
0
10
-0.500000
20
0.000000
30
0.000000
11
-1.000000
21
0.000000
31
0.000000
0
ENDBLK
0
BLOCK
8
0
2
_ARCHTICK
70
0
10
0.000000
20
0.000000
3
_ARCHTICK
0
POLYLINE
8
0
70
0
66
 1
10
0.0
20
0.0
30
0.000000
0
VERTEX
8
0
10
0.500000
20
0.500000
30
0.000000
0
VERTEX
8
0
10
-0.500000
20
-0.500000
30
0.000000
0
SEQEND
8
0
0
ENDBLK
0
BLOCK
8
0
2
_OBLIQUE
70
0
10
0.000000
20
0.000000
3
_OBLIQUE
0
LINE
8
0
10
-0.500000
20
-0.500000
30
0.000000
11
0.500000
21
0.500000
31
0.000000
0
ENDBLK
0
BLOCK
8
0
2
_OPEN
70
0
10
0.000000
20
0.000000
3
_OPEN
0
LINE
8
0
10
-1.000000
20
0.166667
30
0.000000
11
0.000000
21
0.000000
31
0.000000
0
LINE
8
0
10
-1.000000
20
-0.166667
30
0.000000
11
0.000000
21
0.000000
31
0.000000
0
LINE
8
0
10
0.000000
20
0.000000
30
0.000000
11
-1.000000
21
0.000000
31
0.000000
0
ENDBLK
0
BLOCK
8
0
2
_ORIGIN
70
0
10
0.000000
20
0.000000
3
_ORIGIN
0
CIRCLE
8
0
10
0.000000
20
0.000000
40
0.500000
0
LINE
8
0
10
0.000000
20
0.000000
30
0.000000
11
-1.000000
21
0.000000
31
0.000000
0
ENDBLK
0
BLOCK
8
0
2
_ORIGIN2
70
0
10
0.000000
20
0.000000
3
_ORIGIN2
0
CIRCLE
8
0
10
0.000000
20
0.000000
40
0.500000
0
CIRCLE
8
0
10
0.000000
20
0.000000
40
0.250000
0
LINE
8
0
10
-0.500000
20
0.000000
30
0.000000
11
-1.000000
21
0.000000
31
0.000000
0
ENDBLK
0
BLOCK
8
0
2
_OPEN90
70
0
10
0.000000
20
0.000000
3
_OPEN90
0
LINE
8
0
10
-0.500000
20
0.500000
30
0.000000
11
0.000000
21
0.000000
31
0.000000
0
LINE
8
0
10
0.000000
20
0.000000
30
0.000000
11
-0.500000
21
-0.500000
31
0.000000
0
LINE
8
0
10
0.000000
20
0.000000
30
0.000000
11
-1.000000
21
0.000000
31
0.000000
0
ENDBLK
0
BLOCK
8
0
2
_OPEN30
70
0
10
0.000000
20
0.000000
3
_OPEN30
0
LINE
8
0
10
-1.000000
20
0.267949
30
0.000000
11
0.000000
21
0.000000
31
0.000000
0
LINE
8
0
10
0.000000
20
0.000000
30
0.000000
11
-1.000000
21
-0.267949
31
0.000000
0
LINE
8
0
10
0.000000
20
0.000000
30
0.000000
11
-1.000000
21
0.000000
31
0.000000
0
ENDBLK
0
BLOCK
8
0
2
_DOTSMALL
70
0
10
0.000000
20
0.000000
3
_DOTSMALL
0
POLYLINE
8
0
70
1
66
 1
10
0.0
20
0.0
30
0.000000
0
VERTEX
8
0
10
0.062500
20
0.000000
30
0.000000
42
1.000000
0
VERTEX
8
0
10
-0.062500
20
0.000000
30
0.000000
42
1.000000
0
SEQEND
8
0
0
ENDBLK
0
BLOCK
8
0
2
_DOTBLANK
70
0
10
0.000000
20
0.000000
3
_DOTBLANK
0
CIRCLE
8
0
10
0.000000
20
0.000000
40
0.500000
0
LINE
8
0
10
-0.500000
20
0.000000
30
0.000000
11
-1.000000
21
0.000000
31
0.000000
0
ENDBLK
0
BLOCK
8
0
2
_SMALL
70
0
10
0.000000
20
0.000000
3
_SMALL
0
CIRCLE
8
0
10
0.000000
20
0.000000
40
0.250000
0
ENDBLK
0
BLOCK
8
0
2
_BOXBLANK
70
0
10
0.000000
20
0.000000
3
_BOXBLANK
0
LINE
8
0
10
-0.500000
20
-0.500000
30
0.000000
11
0.500000
21
-0.500000
31
0.000000
0
LINE
8
0
10
0.500000
20
-0.500000
30
0.000000
11
0.500000
21
0.500000
31
0.000000
0
LINE
8
0
10
0.500000
20
0.500000
30
0.000000
11
-0.500000
21
0.500000
31
0.000000
0
LINE
8
0
10
-0.500000
20
0.500000
30
0.000000
11
-0.500000
21
-0.500000
31
0.000000
0
LINE
8
0
10
-0.500000
20
0.000000
30
0.000000
11
-1.000000
21
0.000000
31
0.000000
0
ENDBLK
0
BLOCK
8
0
2
_BOXFILLED
70
0
10
0.000000
20
0.000000
3
_BOXFILLED
0
SOLID
8
0
10
-0.500000
20
0.500000
30
0.000000
11
0.500000
21
0.500000
31
0.000000
12
-0.500000
22
-0.500000
32
0.000000
13
0.500000
23
-0.500000
33
0.000000
0
LINE
8
0
10
-0.500000
20
0.000000
30
0.000000
11
-1.000000
21
0.000000
31
0.000000
0
ENDBLK
0
BLOCK
8
0
2
_DATUMBLANK
70
0
10
0.000000
20
0.000000
3
_DATUMBLANK
0
LINE
8
0
10
0.000000
20
0.577350
30
0.000000
11
-1.000000
21
0.000000
31
0.000000
0
LINE
8
0
10
-1.000000
20
0.000000
30
0.000000
11
0.000000
21
-0.577350
31
0.000000
0
LINE
8
0
10
0.000000
20
-0.577350
30
0.000000
11
0.000000
21
0.577350
31
0.000000
0
ENDBLK
0
BLOCK
8
0
2
_DATUMFILLED
70
0
10
0.000000
20
0.000000
3
_DATUMFILLED
0
SOLID
8
0
10
0.000000
20
0.577350
30
0.000000
11
-1.000000
21
0.000000
31
0.000000
12
0.000000
22
-0.577350
32
0.000000
13
0.000000
23
-0.577350
33
0.000000
0
ENDBLK
0
BLOCK
8
0
2
_INTEGRAL
70
0
10
0.000000
20
0.000000
3
_INTEGRAL
0
ARC
8
0
10
0.444888
20
-0.091335
40
0.454167
50
102.000000
51
168.000000
0
ARC
8
0
10
-0.444888
20
0.091335
40
0.454167
50
282.000000
51
348.000000
0
ENDBLK
0
BLOCK
8
0
2
_NONE
70
0
10
0.000000
20
0.000000
3
_NONE
0
ENDBLK
0
BLOCK
8
Formers
2
*R
70
1
10
14.001374
20
0.284248
3
*R
0
POLYLINE
8
Formers
6
Continuous
70
0
66
 1
10
0.0
20
0.0
30
0.000000
0
VERTEX
8
Formers
10
30.938784
20
76.127234
30
0.000000
0
VERTEX
8
Formers
10
32.637166
20
76.153530
30
0.000000
0
VERTEX
8
Formers
10
34.281632
20
76.232417
30
0.000000
0
VERTEX
8
Formers
10
35.872180
20
76.363895
30
0.000000
0
VERTEX
8
Formers
10
37.408812
20
76.547965
30
0.000000
0
VERTEX
8
Formers
10
38.891526
20
76.784627
30
0.000000
0
VERTEX
8
Formers
10
40.320324
20
77.073880
30
0.000000
0
VERTEX
8
Formers
10
41.695205
20
77.415724
30
0.000000
0
VERTEX
8
Formers
10
43.016169
20
77.810160
30
0.000000
0
VERTEX
8
Formers
10
44.283216
20
78.257187
30
0.000000
0
VERTEX
8
Formers
10
46.010136
20
78.991926
30
0.000000
0
VERTEX
8
Formers
10
47.625642
20
79.835341
30
0.000000
0
VERTEX
8
Formers
10
49.129734
20
80.787430
30
0.000000
0
VERTEX
8
Formers
10
50.522412
20
81.848195
30
0.000000
0
VERTEX
8
Formers
10
51.803675
20
83.017636
30
0.000000
0
VERTEX
8
Formers
10
52.973524
20
84.295751
30
0.000000
0
VERTEX
8
Formers
10
54.031959
20
85.682542
30
0.000000
0
VERTEX
8
Formers
10
54.978980
20
87.178008
30
0.000000
0
VERTEX
8
Formers
10
55.814587
20
88.782149
30
0.000000
0
VERTEX
8
Formers
10
56.454348
20
90.274921
30
0.000000
0
VERTEX
8
Formers
10
57.008808
20
91.850897
30
0.000000
0
VERTEX
8
Formers
10
57.477966
20
93.510077
30
0.000000
0
VERTEX
8
Formers
10
57.861823
20
95.252462
30
0.000000
0
VERTEX
8
Formers
10
58.160378
20
97.078051
30
0.000000
0
VERTEX
8
Formers
10
58.373632
20
98.986845
30
0.000000
0
VERTEX
8
Formers
10
58.501584
20
100.978843
30
0.000000
0
VERTEX
8
Formers
10
58.544235
20
103.054046
30
0.000000
0
VERTEX
8
Formers
10
58.517276
20
104.710676
30
0.000000
0
VERTEX
8
Formers
10
58.436401
20
106.314715
30
0.000000
0
VERTEX
8
Formers
10
58.301609
20
107.866162
30
0.000000
0
VERTEX
8
Formers
10
58.112900
20
109.365018
30
0.000000
0
VERTEX
8
Formers
10
57.870274
20
110.811282
30
0.000000
0
VERTEX
8
Formers
10
57.573731
20
112.204955
30
0.000000
0
VERTEX
8
Formers
10
57.223271
20
113.546037
30
0.000000
0
VERTEX
8
Formers
10
56.818894
20
114.834527
30
0.000000
0
VERTEX
8
Formers
10
56.360600
20
116.070425
30
0.000000
0
VERTEX
8
Formers
10
55.607344
20
117.754892
30
0.000000
0
VERTEX
8
Formers
10
54.742672
20
119.330683
30
0.000000
0
VERTEX
8
Formers
10
53.766587
20
120.797799
30
0.000000
0
VERTEX
8
Formers
10
52.679087
20
122.156240
30
0.000000
0
VERTEX
8
Formers
10
51.480174
20
123.406005
30
0.000000
0
VERTEX
8
Formers
10
50.169846
20
124.547096
30
0.000000
0
VERTEX
8
Formers
10
48.748103
20
125.579510
30
0.000000
0
VERTEX
8
Formers
10
47.214947
20
126.503250
30
0.000000
0
VERTEX
8
Formers
10
45.570376
20
127.318315
30
0.000000
0
VERTEX
8
Formers
10
44.039983
20
127.942348
30
0.000000
0
VERTEX
8
Formers
10
42.424287
20
128.483178
30
0.000000
0
VERTEX
8
Formers
10
40.723291
20
128.940802
30
0.000000
0
VERTEX
8
Formers
10
38.936992
20
129.315223
30
0.000000
0
VERTEX
8
Formers
10
37.065392
20
129.606438
30
0.000000
0
VERTEX
8
Formers
10
35.108491
20
129.814450
30
0.000000
0
VERTEX
8
Formers
10
33.066288
20
129.939256
30
0.000000
0
VERTEX
8
Formers
10
30.938784
20
129.980859
30
0.000000
0
VERTEX
8
Formers
10
29.240402
20
129.954563
30
0.000000
0
VERTEX
8
Formers
10
27.595937
20
129.875676
30
0.000000
0
VERTEX
8
Formers
10
26.005388
20
129.744197
30
0.000000
0
VERTEX
8
Formers
10
24.468757
20
129.560127
30
0.000000
0
VERTEX
8
Formers
10
22.986042
20
129.323466
30
0.000000
0
VERTEX
8
Formers
10
21.557244
20
129.034213
30
0.000000
0
VERTEX
8
Formers
10
20.182363
20
128.692368
30
0.000000
0
VERTEX
8
Formers
10
18.861399
20
128.297933
30
0.000000
0
VERTEX
8
Formers
10
17.594352
20
127.850906
30
0.000000
0
VERTEX
8
Formers
10
15.867432
20
127.116166
30
0.000000
0
VERTEX
8
Formers
10
14.251926
20
126.272752
30
0.000000
0
VERTEX
8
Formers
10
12.747834
20
125.320662
30
0.000000
0
VERTEX
8
Formers
10
11.355157
20
124.259897
30
0.000000
0
VERTEX
8
Formers
10
10.073893
20
123.090457
30
0.000000
0
VERTEX
8
Formers
10
8.904044
20
121.812341
30
0.000000
0
VERTEX
8
Formers
10
7.845609
20
120.425550
30
0.000000
0
VERTEX
8
Formers
10
6.898588
20
118.930084
30
0.000000
0
VERTEX
8
Formers
10
6.062981
20
117.325943
30
0.000000
0
VERTEX
8
Formers
10
5.423220
20
115.833172
30
0.000000
0
VERTEX
8
Formers
10
4.868760
20
114.257196
30
0.000000
0
VERTEX
8
Formers
10
4.399602
20
112.598015
30
0.000000
0
VERTEX
8
Formers
10
4.015745
20
110.855630
30
0.000000
0
VERTEX
8
Formers
10
3.717190
20
109.030041
30
0.000000
0
VERTEX
8
Formers
10
3.503936
20
107.121247
30
0.000000
0
VERTEX
8
Formers
10
3.375984
20
105.129249
30
0.000000
0
VERTEX
8
Formers
10
3.333333
20
103.054046
30
0.000000
0
VERTEX
8
Formers
10
3.360292
20
101.397416
30
0.000000
0
VERTEX
8
Formers
10
3.441167
20
99.793377
30
0.000000
0
VERTEX
8
Formers
10
3.575959
20
98.241930
30
0.000000
0
VERTEX
8
Formers
10
3.764669
20
96.743075
30
0.000000
0
VERTEX
8
Formers
10
4.007295
20
95.296810
30
0.000000
0
VERTEX
8
Formers
10
4.303837
20
93.903137
30
0.000000
0
VERTEX
8
Formers
10
4.654297
20
92.562056
30
0.000000
0
VERTEX
8
Formers
10
5.058674
20
91.273566
30
0.000000
0
VERTEX
8
Formers
10
5.516968
20
90.037667
30
0.000000
0
VERTEX
8
Formers
10
6.270225
20
88.353201
30
0.000000
0
VERTEX
8
Formers
10
7.134896
20
86.777409
30
0.000000
0
VERTEX
8
Formers
10
8.110981
20
85.310293
30
0.000000
0
VERTEX
8
Formers
10
9.198481
20
83.951853
30
0.000000
0
VERTEX
8
Formers
10
10.397394
20
82.702087
30
0.000000
0
VERTEX
8
Formers
10
11.707722
20
81.560997
30
0.000000
0
VERTEX
8
Formers
10
13.129465
20
80.528582
30
0.000000
0
VERTEX
8
Formers
10
14.662621
20
79.604842
30
0.000000
0
VERTEX
8
Formers
10
16.307192
20
78.789778
30
0.000000
0
VERTEX
8
Formers
10
17.837585
20
78.165744
30
0.000000
0
VERTEX
8
Formers
10
19.453281
20
77.624915
30
0.000000
0
VERTEX
8
Formers
10
21.154278
20
77.167290
30
0.000000
0
VERTEX
8
Formers
10
22.940576
20
76.792870
30
0.000000
0
VERTEX
8
Formers
10
24.812176
20
76.501654
30
0.000000
0
VERTEX
8
Formers
10
26.769077
20
76.293643
30
0.000000
0
VERTEX
8
Formers
10
28.811280
20
76.168836
30
0.000000
0
VERTEX
8
Formers
10
30.938784
20
76.127234
30
0.000000
0
SEQEND
8
0
0
POLYLINE
8
Formers
6
Continuous
70
0
66
 1
10
0.0
20
0.0
30
0.000000
0
VERTEX
8
Formers
10
31.095200
20
84.130614
30
0.000000
0
VERTEX
8
Formers
10
32.253703
20
84.148551
30
0.000000
42
0.008113
0
VERTEX
8
Formers
10
32.513185
20
84.156782
30
0.000000
0
VERTEX
8
Formers
10
33.622269
20
84.209986
30
0.000000
42
0.008635
0
VERTEX
8
Formers
10
33.897991
20
84.227990
30
0.000000
0
VERTEX
8
Formers
10
34.920135
20
84.312483
30
0.000000
42
0.009187
0
VERTEX
8
Formers
10
35.212585
20
84.342076
30
0.000000
0
VERTEX
8
Formers
10
36.147020
20
84.454010
30
0.000000
42
0.009765
0
VERTEX
8
Formers
10
36.456466
20
84.497223
30
0.000000
0
VERTEX
8
Formers
10
37.302943
20
84.632332
30
0.000000
42
0.010367
0
VERTEX
8
Formers
10
37.629354
20
84.691396
30
0.000000
0
VERTEX
8
Formers
10
38.388311
20
84.845043
30
0.000000
42
0.010988
0
VERTEX
8
Formers
10
38.731267
20
84.922354
30
0.000000
0
VERTEX
8
Formers
10
39.404012
20
85.089623
30
0.000000
42
0.011619
0
VERTEX
8
Formers
10
39.762612
20
85.187684
30
0.000000
0
VERTEX
8
Formers
10
40.351513
20
85.363528
30
0.000000
42
0.012252
0
VERTEX
8
Formers
10
40.724281
20
85.484860
30
0.000000
0
VERTEX
8
Formers
10
41.145441
20
85.633449
30
0.000000
42
0.015773
0
VERTEX
8
Formers
10
41.615765
20
85.816260
30
0.000000
0
VERTEX
8
Formers
10
42.297094
20
86.106140
30
0.000000
42
0.019725
0
VERTEX
8
Formers
10
42.867485
20
86.375858
30
0.000000
0
VERTEX
8
Formers
10
43.333013
20
86.618899
30
0.000000
42
0.020798
0
VERTEX
8
Formers
10
43.909423
20
86.951031
30
0.000000
0
VERTEX
8
Formers
10
44.265190
20
87.176231
30
0.000000
42
0.021653
0
VERTEX
8
Formers
10
44.833795
20
87.571638
30
0.000000
0
VERTEX
8
Formers
10
45.109039
20
87.781283
30
0.000000
42
0.022221
0
VERTEX
8
Formers
10
45.654752
20
88.236625
30
0.000000
0
VERTEX
8
Formers
10
45.879605
20
88.441854
30
0.000000
42
0.022453
0
VERTEX
8
Formers
10
46.387751
20
88.949288
30
0.000000
0
VERTEX
8
Formers
10
46.589655
20
89.169878
30
0.000000
42
0.022326
0
VERTEX
8
Formers
10
47.047784
20
89.717605
30
0.000000
0
VERTEX
8
Formers
10
47.248106
20
89.980074
30
0.000000
42
0.021852
0
VERTEX
8
Formers
10
47.647478
20
90.553665
30
0.000000
0
VERTEX
8
Formers
10
47.859244
20
90.888070
30
0.000000
42
0.021075
0
VERTEX
8
Formers
10
48.195573
20
91.472260
30
0.000000
0
VERTEX
8
Formers
10
48.440909
20
91.943238
30
0.000000
42
0.018837
0
VERTEX
8
Formers
10
48.698963
20
92.487755
30
0.000000
0
VERTEX
8
Formers
10
48.891240
20
92.936399
30
0.000000
42
0.016651
0
VERTEX
8
Formers
10
49.084658
20
93.432727
30
0.000000
0
VERTEX
8
Formers
10
49.295643
20
94.032423
30
0.000000
42
0.015682
0
VERTEX
8
Formers
10
49.447229
20
94.510688
30
0.000000
0
VERTEX
8
Formers
10
49.651929
20
95.234610
30
0.000000
42
0.014683
0
VERTEX
8
Formers
10
49.766423
20
95.690211
30
0.000000
0
VERTEX
8
Formers
10
49.954932
20
96.545880
30
0.000000
42
0.013685
0
VERTEX
8
Formers
10
50.037396
20
96.975889
30
0.000000
0
VERTEX
8
Formers
10
50.199597
20
97.967708
30
0.000000
42
0.012712
0
VERTEX
8
Formers
10
50.255014
20
98.370621
30
0.000000
0
VERTEX
8
Formers
10
50.381238
20
99.500431
30
0.000000
42
0.011779
0
VERTEX
8
Formers
10
50.414250
20
99.875871
30
0.000000
0
VERTEX
8
Formers
10
50.495677
20
101.143551
30
0.000000
42
0.010899
0
VERTEX
8
Formers
10
50.510441
20
101.491973
30
0.000000
0
VERTEX
8
Formers
10
50.539870
20
102.923890
30
0.000000
42
0.009206
0
VERTEX
8
Formers
10
50.540500
20
103.218444
30
0.000000
0
VERTEX
8
Formers
10
50.522775
20
104.307674
30
0.000000
42
0.008527
0
VERTEX
8
Formers
10
50.513685
20
104.580354
30
0.000000
0
VERTEX
8
Formers
10
50.461170
20
105.621910
30
0.000000
42
0.009072
0
VERTEX
8
Formers
10
50.441295
20
105.911507
30
0.000000
0
VERTEX
8
Formers
10
50.358350
20
106.866205
30
0.000000
42
0.009645
0
VERTEX
8
Formers
10
50.325712
20
107.173088
30
0.000000
0
VERTEX
8
Formers
10
50.216509
20
108.040455
30
0.000000
42
0.010243
0
VERTEX
8
Formers
10
50.168918
20
108.364715
30
0.000000
0
VERTEX
8
Formers
10
50.038030
20
109.144921
30
0.000000
42
0.010860
0
VERTEX
8
Formers
10
49.973111
20
109.486284
30
0.000000
0
VERTEX
8
Formers
10
49.825435
20
110.180322
30
0.000000
42
0.011490
0
VERTEX
8
Formers
10
49.740680
20
110.538056
30
0.000000
0
VERTEX
8
Formers
10
49.581302
20
111.147938
30
0.000000
42
0.012124
0
VERTEX
8
Formers
10
49.474155
20
111.520753
30
0.000000
0
VERTEX
8
Formers
10
49.308155
20
112.049691
30
0.000000
42
0.012750
0
VERTEX
8
Formers
10
49.176123
20
112.435659
30
0.000000
0
VERTEX
8
Formers
10
49.041693
20
112.798181
30
0.000000
42
0.016353
0
VERTEX
8
Formers
10
48.843861
20
113.282485
30
0.000000
0
VERTEX
8
Formers
10
48.570118
20
113.894641
30
0.000000
42
0.020342
0
VERTEX
8
Formers
10
48.280564
20
114.477335
30
0.000000
0
VERTEX
8
Formers
10
48.057254
20
114.884300
30
0.000000
42
0.021303
0
VERTEX
8
Formers
10
47.704318
20
115.467173
30
0.000000
0
VERTEX
8
Formers
10
47.496286
20
115.779857
30
0.000000
42
0.022007
0
VERTEX
8
Formers
10
47.080988
20
116.348172
30
0.000000
0
VERTEX
8
Formers
10
46.881871
20
116.596897
30
0.000000
42
0.022393
0
VERTEX
8
Formers
10
46.409682
20
117.135427
30
0.000000
0
VERTEX
8
Formers
10
46.204149
20
117.349678
30
0.000000
42
0.022427
0
VERTEX
8
Formers
10
45.684882
20
117.844518
30
0.000000
0
VERTEX
8
Formers
10
45.449703
20
118.049322
30
0.000000
42
0.022104
0
VERTEX
8
Formers
10
44.896553
20
118.489605
30
0.000000
0
VERTEX
8
Formers
10
44.603233
20
118.702603
30
0.000000
42
0.021455
0
VERTEX
8
Formers
10
44.031162
20
119.081644
30
0.000000
0
VERTEX
8
Formers
10
43.649470
20
119.311617
30
0.000000
42
0.020536
0
VERTEX
8
Formers
10
43.073381
20
119.627230
30
0.000000
0
VERTEX
8
Formers
10
42.541007
20
119.891080
30
0.000000
42
0.018240
0
VERTEX
8
Formers
10
42.009115
20
120.130943
30
0.000000
0
VERTEX
8
Formers
10
41.494868
20
120.340632
30
0.000000
42
0.016043
0
VERTEX
8
Formers
10
41.013639
20
120.519078
30
0.000000
0
VERTEX
8
Formers
10
40.341736
20
120.743988
30
0.000000
42
0.015051
0
VERTEX
8
Formers
10
39.880713
20
120.883025
30
0.000000
0
VERTEX
8
Formers
10
39.079164
20
121.098669
30
0.000000
42
0.014050
0
VERTEX
8
Formers
10
38.641987
20
121.203207
30
0.000000
0
VERTEX
8
Formers
10
37.705054
20
121.399594
30
0.000000
42
0.013065
0
VERTEX
8
Formers
10
37.293842
20
121.474629
30
0.000000
0
VERTEX
8
Formers
10
36.218567
20
121.641939
30
0.000000
42
0.012116
0
VERTEX
8
Formers
10
35.834196
20
121.692241
30
0.000000
0
VERTEX
8
Formers
10
34.619820
20
121.821325
30
0.000000
42
0.011216
0
VERTEX
8
Formers
10
34.262214
20
121.851243
30
0.000000
0
VERTEX
8
Formers
10
32.909605
20
121.933906
30
0.000000
42
0.010372
0
VERTEX
8
Formers
10
32.578011
20
121.947275
30
0.000000
0
VERTEX
8
Formers
10
31.062622
20
121.976908
30
0.000000
42
0.008759
0
VERTEX
8
Formers
10
30.782368
20
121.977478
30
0.000000
0
VERTEX
8
Formers
10
29.623865
20
121.959541
30
0.000000
42
0.008113
0
VERTEX
8
Formers
10
29.364383
20
121.951311
30
0.000000
0
VERTEX
8
Formers
10
28.255299
20
121.898106
30
0.000000
42
0.008635
0
VERTEX
8
Formers
10
27.979577
20
121.880103
30
0.000000
0
VERTEX
8
Formers
10
26.957433
20
121.795610
30
0.000000
42
0.009187
0
VERTEX
8
Formers
10
26.664983
20
121.766016
30
0.000000
0
VERTEX
8
Formers
10
25.730548
20
121.654082
30
0.000000
42
0.009765
0
VERTEX
8
Formers
10
25.421102
20
121.610869
30
0.000000
0
VERTEX
8
Formers
10
24.574625
20
121.475760
30
0.000000
42
0.010367
0
VERTEX
8
Formers
10
24.248214
20
121.416696
30
0.000000
0
VERTEX
8
Formers
10
23.489257
20
121.263049
30
0.000000
42
0.010988
0
VERTEX
8
Formers
10
23.146301
20
121.185738
30
0.000000
0
VERTEX
8
Formers
10
22.473556
20
121.018470
30
0.000000
42
0.011619
0
VERTEX
8
Formers
10
22.114956
20
120.920408
30
0.000000
0
VERTEX
8
Formers
10
21.526055
20
120.744564
30
0.000000
42
0.012252
0
VERTEX
8
Formers
10
21.153287
20
120.623233
30
0.000000
0
VERTEX
8
Formers
10
20.732127
20
120.474643
30
0.000000
42
0.015773
0
VERTEX
8
Formers
10
20.261803
20
120.291833
30
0.000000
0
VERTEX
8
Formers
10
19.580474
20
120.001953
30
0.000000
42
0.019725
0
VERTEX
8
Formers
10
19.010083
20
119.732234
30
0.000000
0
VERTEX
8
Formers
10
18.544555
20
119.489193
30
0.000000
42
0.020798
0
VERTEX
8
Formers
10
17.968145
20
119.157062
30
0.000000
0
VERTEX
8
Formers
10
17.612378
20
118.931862
30
0.000000
42
0.021653
0
VERTEX
8
Formers
10
17.043773
20
118.536455
30
0.000000
0
VERTEX
8
Formers
10
16.768530
20
118.326809
30
0.000000
42
0.022221
0
VERTEX
8
Formers
10
16.222816
20
117.871468
30
0.000000
0
VERTEX
8
Formers
10
15.997963
20
117.666239
30
0.000000
42
0.022453
0
VERTEX
8
Formers
10
15.489818
20
117.158804
30
0.000000
0
VERTEX
8
Formers
10
15.287913
20
116.938214
30
0.000000
42
0.022326
0
VERTEX
8
Formers
10
14.829784
20
116.390487
30
0.000000
0
VERTEX
8
Formers
10
14.629462
20
116.128019
30
0.000000
42
0.021852
0
VERTEX
8
Formers
10
14.230090
20
115.554427
30
0.000000
0
VERTEX
8
Formers
10
14.018324
20
115.220022
30
0.000000
42
0.021075
0
VERTEX
8
Formers
10
13.681995
20
114.635833
30
0.000000
0
VERTEX
8
Formers
10
13.436659
20
114.164854
30
0.000000
42
0.018837
0
VERTEX
8
Formers
10
13.178605
20
113.620338
30
0.000000
0
VERTEX
8
Formers
10
12.986328
20
113.171693
30
0.000000
42
0.016651
0
VERTEX
8
Formers
10
12.792910
20
112.675365
30
0.000000
0
VERTEX
8
Formers
10
12.581925
20
112.075669
30
0.000000
42
0.015682
0
VERTEX
8
Formers
10
12.430339
20
111.597404
30
0.000000
0
VERTEX
8
Formers
10
12.225639
20
110.873482
30
0.000000
42
0.014683
0
VERTEX
8
Formers
10
12.111145
20
110.417881
30
0.000000
0
VERTEX
8
Formers
10
11.922636
20
109.562212
30
0.000000
42
0.013685
0
VERTEX
8
Formers
10
11.840172
20
109.132203
30
0.000000
0
VERTEX
8
Formers
10
11.677971
20
108.140384
30
0.000000
42
0.012712
0
VERTEX
8
Formers
10
11.622554
20
107.737471
30
0.000000
0
VERTEX
8
Formers
10
11.496330
20
106.607661
30
0.000000
42
0.011779
0
VERTEX
8
Formers
10
11.463318
20
106.232222
30
0.000000
0
VERTEX
8
Formers
10
11.381891
20
104.964541
30
0.000000
42
0.010899
0
VERTEX
8
Formers
10
11.367127
20
104.616119
30
0.000000
0
VERTEX
8
Formers
10
11.337698
20
103.184202
30
0.000000
42
0.009206
0
VERTEX
8
Formers
10
11.337068
20
102.889649
30
0.000000
0
VERTEX
8
Formers
10
11.354793
20
101.800418
30
0.000000
42
0.008527
0
VERTEX
8
Formers
10
11.363883
20
101.527738
30
0.000000
0
VERTEX
8
Formers
10
11.416398
20
100.486183
30
0.000000
42
0.009072
0
VERTEX
8
Formers
10
11.436273
20
100.196585
30
0.000000
0
VERTEX
8
Formers
10
11.519218
20
99.241888
30
0.000000
42
0.009645
0
VERTEX
8
Formers
10
11.551856
20
98.935004
30
0.000000
0
VERTEX
8
Formers
10
11.661059
20
98.067638
30
0.000000
42
0.010243
0
VERTEX
8
Formers
10
11.708650
20
97.743377
30
0.000000
0
VERTEX
8
Formers
10
11.839538
20
96.963172
30
0.000000
42
0.010860
0
VERTEX
8
Formers
10
11.904457
20
96.621808
30
0.000000
0
VERTEX
8
Formers
10
12.052133
20
95.927770
30
0.000000
42
0.011490
0
VERTEX
8
Formers
10
12.136888
20
95.570037
30
0.000000
0
VERTEX
8
Formers
10
12.296266
20
94.960154
30
0.000000
42
0.012124
0
VERTEX
8
Formers
10
12.403413
20
94.587339
30
0.000000
0
VERTEX
8
Formers
10
12.569413
20
94.058401
30
0.000000
42
0.012750
0
VERTEX
8
Formers
10
12.701445
20
93.672433
30
0.000000
0
VERTEX
8
Formers
10
12.835875
20
93.309911
30
0.000000
42
0.016353
0
VERTEX
8
Formers
10
13.033707
20
92.825607
30
0.000000
0
VERTEX
8
Formers
10
13.307450
20
92.213452
30
0.000000
42
0.020342
0
VERTEX
8
Formers
10
13.597004
20
91.630757
30
0.000000
0
VERTEX
8
Formers
10
13.820315
20
91.223792
30
0.000000
42
0.021303
0
VERTEX
8
Formers
10
14.173250
20
90.640920
30
0.000000
0
VERTEX
8
Formers
10
14.381282
20
90.328235
30
0.000000
42
0.022007
0
VERTEX
8
Formers
10
14.796580
20
89.759920
30
0.000000
0
VERTEX
8
Formers
10
14.995697
20
89.511195
30
0.000000
42
0.022393
0
VERTEX
8
Formers
10
15.467887
20
88.972665
30
0.000000
0
VERTEX
8
Formers
10
15.673420
20
88.758414
30
0.000000
42
0.022427
0
VERTEX
8
Formers
10
16.192686
20
88.263574
30
0.000000
0
VERTEX
8
Formers
10
16.427865
20
88.058770
30
0.000000
42
0.022104
0
VERTEX
8
Formers
10
16.981015
20
87.618487
30
0.000000
0
VERTEX
8
Formers
10
17.274335
20
87.405489
30
0.000000
42
0.021455
0
VERTEX
8
Formers
10
17.846406
20
87.026448
30
0.000000
0
VERTEX
8
Formers
10
18.228098
20
86.796476
30
0.000000
42
0.020536
0
VERTEX
8
Formers
10
18.804187
20
86.480862
30
0.000000
0
VERTEX
8
Formers
10
19.336561
20
86.217013
30
0.000000
42
0.018240
0
VERTEX
8
Formers
10
19.868453
20
85.977149
30
0.000000
0
VERTEX
8
Formers
10
20.382701
20
85.767460
30
0.000000
42
0.016043
0
VERTEX
8
Formers
10
20.863929
20
85.589014
30
0.000000
0
VERTEX
8
Formers
10
21.535832
20
85.364105
30
0.000000
42
0.015051
0
VERTEX
8
Formers
10
21.996855
20
85.225067
30
0.000000
0
VERTEX
8
Formers
10
22.798405
20
85.009424
30
0.000000
42
0.014050
0
VERTEX
8
Formers
10
23.235581
20
84.904886
30
0.000000
0
VERTEX
8
Formers
10
24.172514
20
84.708498
30
0.000000
42
0.013065
0
VERTEX
8
Formers
10
24.583726
20
84.633463
30
0.000000
0
VERTEX
8
Formers
10
25.659001
20
84.466153
30
0.000000
42
0.012116
0
VERTEX
8
Formers
10
26.043372
20
84.415851
30
0.000000
0
VERTEX
8
Formers
10
27.257748
20
84.286768
30
0.000000
42
0.011216
0
VERTEX
8
Formers
10
27.615354
20
84.256849
30
0.000000
0
VERTEX
8
Formers
10
28.967963
20
84.174186
30
0.000000
42
0.010372
0
VERTEX
8
Formers
10
29.299557
20
84.160817
30
0.000000
0
VERTEX
8
Formers
10
30.814946
20
84.131185
30
0.000000
42
0.008759
0
VERTEX
8
Formers
10
31.095200
20
84.130614
30
0.000000
0
SEQEND
8
0
0
ENDBLK
0
BLOCK
8
Formers
2
*R1
70
1
10
79.210901
20
-31.938833
3
*R1
0
POLYLINE
8
Formers
6
Continuous
70
0
66
 1
10
0.0
20
0.0
30
0.000000
0
VERTEX
8
Formers
10
161.529081
20
98.769798
30
0.000000
0
VERTEX
8
Formers
10
161.529081
20
53.769798
30
0.000000
0
VERTEX
8
Formers
10
153.529079
20
53.769798
30
0.000000
0
VERTEX
8
Formers
10
153.529079
20
45.769798
30
0.000000
0
VERTEX
8
Formers
10
161.529081
20
45.769798
30
0.000000
0
VERTEX
8
Formers
10
161.529081
20
37.212089
30
0.000000
0
VERTEX
8
Formers
10
161.501248
20
35.339538
30
0.000000
0
VERTEX
8
Formers
10
161.417749
20
33.520648
30
0.000000
0
VERTEX
8
Formers
10
161.278584
20
31.755419
30
0.000000
0
VERTEX
8
Formers
10
161.083752
20
30.043850
30
0.000000
0
VERTEX
8
Formers
10
160.833254
20
28.385942
30
0.000000
0
VERTEX
8
Formers
10
160.527090
20
26.781695
30
0.000000
0
VERTEX
8
Formers
10
160.165260
20
25.231108
30
0.000000
0
VERTEX
8
Formers
10
159.747763
20
23.734182
30
0.000000
0
VERTEX
8
Formers
10
159.202462
20
22.089117
30
0.000000
0
VERTEX
8
Formers
10
158.584453
20
20.514138
30
0.000000
0
VERTEX
8
Formers
10
157.893738
20
19.009247
30
0.000000
0
VERTEX
8
Formers
10
157.130316
20
17.574444
30
0.000000
0
VERTEX
8
Formers
10
156.294187
20
16.209727
30
0.000000
0
VERTEX
8
Formers
10
155.385351
20
14.915098
30
0.000000
0
VERTEX
8
Formers
10
154.403809
20
13.690557
30
0.000000
0
VERTEX
8
Formers
10
153.349559
20
12.536103
30
0.000000
0
VERTEX
8
Formers
10
152.222603
20
11.451736
30
0.000000
0
VERTEX
8
Formers
10
151.395751
20
10.738731
30
0.000000
0
VERTEX
8
Formers
10
150.533714
20
10.059643
30
0.000000
0
VERTEX
8
Formers
10
149.636492
20
9.414473
30
0.000000
0
VERTEX
8
Formers
10
148.704085
20
8.803220
30
0.000000
0
VERTEX
8
Formers
10
147.736493
20
8.225885
30
0.000000
0
VERTEX
8
Formers
10
146.733716
20
7.682468
30
0.000000
0
VERTEX
8
Formers
10
145.695753
20
7.172968
30
0.000000
0
VERTEX
8
Formers
10
144.622605
20
6.697385
30
0.000000
0
VERTEX
8
Formers
10
143.514272
20
6.255720
30
0.000000
0
VERTEX
8
Formers
10
141.913712
20
5.697652
30
0.000000
0
VERTEX
8
Formers
10
140.245044
20
5.205239
30
0.000000
0
VERTEX
8
Formers
10
138.508266
20
4.778481
30
0.000000
0
VERTEX
8
Formers
10
136.703380
20
4.417378
30
0.000000
0
VERTEX
8
Formers
10
134.830385
20
4.121930
30
0.000000
0
VERTEX
8
Formers
10
132.889280
20
3.892137
30
0.000000
0
VERTEX
8
Formers
10
130.880067
20
3.728000
30
0.000000
0
VERTEX
8
Formers
10
128.802745
20
3.629517
30
0.000000
0
VERTEX
8
Formers
10
126.657314
20
3.596690
30
0.000000
0
VERTEX
8
Formers
10
103.416002
20
3.596690
30
0.000000
0
VERTEX
8
Formers
10
101.473465
20
3.623520
30
0.000000
0
VERTEX
8
Formers
10
99.586595
20
3.704011
30
0.000000
0
VERTEX
8
Formers
10
97.755390
20
3.838162
30
0.000000
0
VERTEX
8
Formers
10
95.979852
20
4.025975
30
0.000000
0
VERTEX
8
Formers
10
94.259980
20
4.267448
30
0.000000
0
VERTEX
8
Formers
10
92.595775
20
4.562581
30
0.000000
0
VERTEX
8
Formers
10
90.987235
20
4.911375
30
0.000000
0
VERTEX
8
Formers
10
89.434362
20
5.313830
30
0.000000
0
VERTEX
8
Formers
10
87.727812
20
5.839485
30
0.000000
0
VERTEX
8
Formers
10
86.093969
20
6.435228
30
0.000000
0
VERTEX
8
Formers
10
84.532833
20
7.101058
30
0.000000
0
VERTEX
8
Formers
10
83.044404
20
7.836975
30
0.000000
0
VERTEX
8
Formers
10
81.628682
20
8.642980
30
0.000000
0
VERTEX
8
Formers
10
80.285667
20
9.519072
30
0.000000
0
VERTEX
8
Formers
10
79.015358
20
10.465251
30
0.000000
0
VERTEX
8
Formers
10
77.817757
20
11.481518
30
0.000000
0
VERTEX
8
Formers
10
76.692862
20
12.567872
30
0.000000
0
VERTEX
8
Formers
10
75.953208
20
13.364934
30
0.000000
0
VERTEX
8
Formers
10
75.248740
20
14.195913
30
0.000000
0
VERTEX
8
Formers
10
74.579457
20
15.060810
30
0.000000
0
VERTEX
8
Formers
10
73.945359
20
15.959624
30
0.000000
0
VERTEX
8
Formers
10
73.346446
20
16.892355
30
0.000000
0
VERTEX
8
Formers
10
72.782718
20
17.859005
30
0.000000
0
VERTEX
8
Formers
10
72.254176
20
18.859571
30
0.000000
0
VERTEX
8
Formers
10
71.760818
20
19.894055
30
0.000000
0
VERTEX
8
Formers
10
71.302646
20
20.962457
30
0.000000
0
VERTEX
8
Formers
10
70.723720
20
22.505352
30
0.000000
0
VERTEX
8
Formers
10
70.212903
20
24.113901
30
0.000000
0
VERTEX
8
Formers
10
69.770195
20
25.788105
30
0.000000
0
VERTEX
8
Formers
10
69.395596
20
27.527965
30
0.000000
0
VERTEX
8
Formers
10
69.089106
20
29.333479
30
0.000000
0
VERTEX
8
Formers
10
68.850725
20
31.204649
30
0.000000
0
VERTEX
8
Formers
10
68.680453
20
33.141474
30
0.000000
0
VERTEX
8
Formers
10
68.578289
20
35.143954
30
0.000000
0
VERTEX
8
Formers
10
68.544235
20
37.212089
30
0.000000
0
VERTEX
8
Formers
10
68.544235
20
45.769798
30
0.000000
0
VERTEX
8
Formers
10
76.544237
20
45.769798
30
0.000000
0
VERTEX
8
Formers
10
76.544237
20
53.769798
30
0.000000
0
VERTEX
8
Formers
10
68.544235
20
53.769798
30
0.000000
0
VERTEX
8
Formers
10
68.544235
20
98.769798
30
0.000000
0
VERTEX
8
Formers
10
76.544237
20
98.769798
30
0.000000
0
VERTEX
8
Formers
10
76.544237
20
106.769798
30
0.000000
0
VERTEX
8
Formers
10
68.608722
20
106.769798
30
0.000000
0
VERTEX
8
Formers
10
68.692657
20
108.141282
30
0.000000
0
VERTEX
8
Formers
10
68.878184
20
109.906511
30
0.000000
0
VERTEX
8
Formers
10
69.137922
20
111.618080
30
0.000000
0
VERTEX
8
Formers
10
69.471871
20
113.275987
30
0.000000
0
VERTEX
8
Formers
10
69.880031
20
114.880235
30
0.000000
0
VERTEX
8
Formers
10
70.362402
20
116.430821
30
0.000000
0
VERTEX
8
Formers
10
70.918983
20
117.927748
30
0.000000
0
VERTEX
8
Formers
10
71.645947
20
119.572813
30
0.000000
0
VERTEX
8
Formers
10
72.469839
20
121.147792
30
0.000000
0
VERTEX
8
Formers
10
73.390660
20
122.652683
30
0.000000
0
VERTEX
8
Formers
10
74.408409
20
124.087486
30
0.000000
0
VERTEX
8
Formers
10
75.523087
20
125.452202
30
0.000000
0
VERTEX
8
Formers
10
76.734693
20
126.746831
30
0.000000
0
VERTEX
8
Formers
10
78.043228
20
127.971373
30
0.000000
0
VERTEX
8
Formers
10
79.448692
20
129.125827
30
0.000000
0
VERTEX
8
Formers
10
80.951083
20
130.210194
30
0.000000
0
VERTEX
8
Formers
10
82.053393
20
130.923199
30
0.000000
0
VERTEX
8
Formers
10
83.202610
20
131.602287
30
0.000000
0
VERTEX
8
Formers
10
84.398733
20
132.247457
30
0.000000
0
VERTEX
8
Formers
10
85.641763
20
132.858709
30
0.000000
0
VERTEX
8
Formers
10
86.931700
20
133.436044
30
0.000000
0
VERTEX
8
Formers
10
88.268544
20
133.979462
30
0.000000
0
VERTEX
8
Formers
10
89.652295
20
134.488962
30
0.000000
0
VERTEX
8
Formers
10
91.082952
20
134.964545
30
0.000000
0
VERTEX
8
Formers
10
92.560516
20
135.406210
30
0.000000
0
VERTEX
8
Formers
10
94.694288
20
135.964278
30
0.000000
0
VERTEX
8
Formers
10
96.918859
20
136.456691
30
0.000000
0
VERTEX
8
Formers
10
99.234228
20
136.883449
30
0.000000
0
VERTEX
8
Formers
10
101.640396
20
137.244552
30
0.000000
0
VERTEX
8
Formers
10
104.137363
20
137.540000
30
0.000000
0
VERTEX
8
Formers
10
106.725129
20
137.769792
30
0.000000
0
VERTEX
8
Formers
10
109.403693
20
137.933930
30
0.000000
0
VERTEX
8
Formers
10
112.173057
20
138.032413
30
0.000000
0
VERTEX
8
Formers
10
115.033219
20
138.065240
30
0.000000
0
VERTEX
8
Formers
10
115.040098
20
138.065240
30
0.000000
0
VERTEX
8
Formers
10
117.629773
20
138.038410
30
0.000000
0
VERTEX
8
Formers
10
120.145237
20
137.957919
30
0.000000
0
VERTEX
8
Formers
10
122.586491
20
137.823767
30
0.000000
0
VERTEX
8
Formers
10
124.953534
20
137.635955
30
0.000000
0
VERTEX
8
Formers
10
127.246366
20
137.394482
30
0.000000
0
VERTEX
8
Formers
10
129.464987
20
137.099349
30
0.000000
0
VERTEX
8
Formers
10
131.609397
20
136.750555
30
0.000000
0
VERTEX
8
Formers
10
133.679596
20
136.348100
30
0.000000
0
VERTEX
8
Formers
10
135.954667
20
135.822445
30
0.000000
0
VERTEX
8
Formers
10
138.132810
20
135.226702
30
0.000000
0
VERTEX
8
Formers
10
140.214024
20
134.560872
30
0.000000
0
VERTEX
8
Formers
10
142.198310
20
133.824955
30
0.000000
0
VERTEX
8
Formers
10
144.085668
20
133.018950
30
0.000000
0
VERTEX
8
Formers
10
145.876097
20
132.142858
30
0.000000
0
VERTEX
8
Formers
10
147.569597
20
131.196679
30
0.000000
0
VERTEX
8
Formers
10
149.166169
20
130.180412
30
0.000000
0
VERTEX
8
Formers
10
150.665812
20
129.094058
30
0.000000
0
VERTEX
8
Formers
10
151.651875
20
128.296996
30
0.000000
0
VERTEX
8
Formers
10
152.591031
20
127.466017
30
0.000000
0
VERTEX
8
Formers
10
153.483279
20
126.601120
30
0.000000
0
VERTEX
8
Formers
10
154.328622
20
125.702306
30
0.000000
0
VERTEX
8
Formers
10
155.127057
20
124.769574
30
0.000000
0
VERTEX
8
Formers
10
155.878585
20
123.802925
30
0.000000
0
VERTEX
8
Formers
10
156.583207
20
122.802359
30
0.000000
0
VERTEX
8
Formers
10
157.240922
20
121.767874
30
0.000000
0
VERTEX
8
Formers
10
157.851730
20
120.699473
30
0.000000
0
VERTEX
8
Formers
10
158.623520
20
119.156578
30
0.000000
0
VERTEX
8
Formers
10
159.304511
20
117.548029
30
0.000000
0
VERTEX
8
Formers
10
159.894703
20
115.873825
30
0.000000
0
VERTEX
8
Formers
10
160.394096
20
114.133965
30
0.000000
0
VERTEX
8
Formers
10
160.802691
20
112.328450
30
0.000000
0
VERTEX
8
Formers
10
161.120487
20
110.457281
30
0.000000
0
VERTEX
8
Formers
10
161.347484
20
108.520456
30
0.000000
0
VERTEX
8
Formers
10
161.466554
20
106.769798
30
0.000000
0
VERTEX
8
Formers
10
153.529079
20
106.769798
30
0.000000
0
VERTEX
8
Formers
10
153.529079
20
98.769798
30
0.000000
0
VERTEX
8
Formers
10
161.529081
20
98.769798
30
0.000000
0
SEQEND
8
0
0
POLYLINE
8
Formers
6
Continuous
70
0
66
 1
10
0.0
20
0.0
30
0.000000
0
VERTEX
8
Formers
10
149.529080
20
91.841594
30
0.000000
42
-0.267949
0
VERTEX
8
Formers
10
145.529079
20
98.769798
30
0.000000
0
VERTEX
8
Formers
10
145.529079
20
106.769798
30
0.000000
42
-0.164428
0
VERTEX
8
Formers
10
147.169515
20
111.623244
30
0.000000
42
0.421543
0
VERTEX
8
Formers
10
145.503178
20
122.955395
30
0.000000
0
VERTEX
8
Formers
10
144.862249
20
123.419690
30
0.000000
42
0.015019
0
VERTEX
8
Formers
10
144.464827
20
123.689766
30
0.000000
0
VERTEX
8
Formers
10
143.660876
20
124.201506
30
0.000000
42
0.014336
0
VERTEX
8
Formers
10
143.267049
20
124.436603
30
0.000000
0
VERTEX
8
Formers
10
142.354418
20
124.946501
30
0.000000
42
0.013611
0
VERTEX
8
Formers
10
141.968619
20
125.148475
30
0.000000
0
VERTEX
8
Formers
10
140.939334
20
125.652124
30
0.000000
42
0.012865
0
VERTEX
8
Formers
10
140.565079
20
125.823466
30
0.000000
0
VERTEX
8
Formers
10
139.413003
20
126.315465
30
0.000000
42
0.012116
0
VERTEX
8
Formers
10
139.052907
20
126.459033
30
0.000000
0
VERTEX
8
Formers
10
137.773642
20
126.933477
30
0.000000
42
0.011379
0
VERTEX
8
Formers
10
137.429493
20
127.052277
30
0.000000
0
VERTEX
8
Formers
10
136.020184
20
127.503148
30
0.000000
42
0.010664
0
VERTEX
8
Formers
10
135.693062
20
127.600163
30
0.000000
0
VERTEX
8
Formers
10
134.152155
20
128.021615
30
0.000000
42
0.009979
0
VERTEX
8
Formers
10
133.842552
20
128.099689
30
0.000000
0
VERTEX
8
Formers
10
132.151923
20
128.490309
30
0.000000
42
0.008764
0
VERTEX
8
Formers
10
131.877619
20
128.548642
30
0.000000
0
VERTEX
8
Formers
10
130.324388
20
128.850596
30
0.000000
42
0.007692
0
VERTEX
8
Formers
10
130.082081
20
128.893844
30
0.000000
0
VERTEX
8
Formers
10
128.409582
20
129.165880
30
0.000000
42
0.007248
0
VERTEX
8
Formers
10
128.180151
20
129.199792
30
0.000000
0
VERTEX
8
Formers
10
126.408115
20
129.435518
30
0.000000
42
0.006830
0
VERTEX
8
Formers
10
126.191100
20
129.461375
30
0.000000
0
VERTEX
8
Formers
10
124.320521
20
129.658378
30
0.000000
42
0.006438
0
VERTEX
8
Formers
10
124.115392
20
129.677314
30
0.000000
0
VERTEX
8
Formers
10
122.147380
20
129.833466
30
0.000000
42
0.006071
0
VERTEX
8
Formers
10
121.953564
20
129.846478
30
0.000000
0
VERTEX
8
Formers
10
119.889290
20
129.959914
30
0.000000
42
0.005727
0
VERTEX
8
Formers
10
119.706193
20
129.967873
30
0.000000
0
VERTEX
8
Formers
10
117.546854
20
130.036969
30
0.000000
42
0.005407
0
VERTEX
8
Formers
10
117.373877
20
130.040632
30
0.000000
0
VERTEX
8
Formers
10
115.131692
20
130.063862
30
0.000000
42
0.005452
0
VERTEX
8
Formers
10
114.957219
20
130.063767
30
0.000000
0
VERTEX
8
Formers
10
112.457423
20
130.035144
30
0.000000
42
0.006024
0
VERTEX
8
Formers
10
112.264705
20
130.030615
30
0.000000
0
VERTEX
8
Formers
10
109.893129
20
129.946278
30
0.000000
42
0.006414
0
VERTEX
8
Formers
10
109.688133
20
129.936354
30
0.000000
0
VERTEX
8
Formers
10
107.432966
20
129.798161
30
0.000000
42
0.006842
0
VERTEX
8
Formers
10
107.214661
20
129.781783
30
0.000000
0
VERTEX
8
Formers
10
105.077739
20
129.592025
30
0.000000
42
0.007302
0
VERTEX
8
Formers
10
104.845327
20
129.567962
30
0.000000
0
VERTEX
8
Formers
10
102.828209
20
129.329291
30
0.000000
42
0.007797
0
VERTEX
8
Formers
10
102.580938
20
129.296115
30
0.000000
0
VERTEX
8
Formers
10
100.685056
20
129.011593
30
0.000000
42
0.008327
0
VERTEX
8
Formers
10
100.422255
20
128.967667
30
0.000000
0
VERTEX
8
Formers
10
98.648830
20
128.640797
30
0.000000
42
0.008893
0
VERTEX
8
Formers
10
98.369961
20
128.584252
30
0.000000
0
VERTEX
8
Formers
10
96.719880
20
128.219003
30
0.000000
42
0.009493
0
VERTEX
8
Formers
10
96.424607
20
128.147738
30
0.000000
0
VERTEX
8
Formers
10
94.852959
20
127.736688
30
0.000000
42
0.008663
0
VERTEX
8
Formers
10
94.586050
20
127.661917
30
0.000000
0
VERTEX
8
Formers
10
93.607667
20
127.369465
30
0.000000
42
0.007618
0
VERTEX
8
Formers
10
93.375217
20
127.296106
30
0.000000
0
VERTEX
8
Formers
10
92.417834
20
126.977851
30
0.000000
42
0.007967
0
VERTEX
8
Formers
10
92.177235
20
126.893590
30
0.000000
0
VERTEX
8
Formers
10
91.282707
20
126.564223
30
0.000000
42
0.008324
0
VERTEX
8
Formers
10
91.034342
20
126.468050
30
0.000000
0
VERTEX
8
Formers
10
90.201741
20
126.129603
30
0.000000
42
0.008685
0
VERTEX
8
Formers
10
89.946157
20
126.020500
30
0.000000
0
VERTEX
8
Formers
10
89.174204
20
125.674998
30
0.000000
42
0.009048
0
VERTEX
8
Formers
10
88.912135
20
125.551965
30
0.000000
0
VERTEX
8
Formers
10
88.199163
20
125.201365
30
0.000000
42
0.009409
0
VERTEX
8
Formers
10
87.931543
20
125.063452
30
0.000000
0
VERTEX
8
Formers
10
87.275468
20
124.709575
30
0.000000
42
0.009764
0
VERTEX
8
Formers
10
87.003445
20
124.555919
30
0.000000
0
VERTEX
8
Formers
10
86.401752
20
124.200370
30
0.000000
42
0.010108
0
VERTEX
8
Formers
10
86.126690
20
124.030239
30
0.000000
0
VERTEX
8
Formers
10
85.638920
20
123.714735
30
0.000000
42
0.012760
0
VERTEX
8
Formers
10
85.301883
20
123.484323
30
0.000000
0
VERTEX
8
Formers
10
84.581032
20
122.964042
30
0.000000
42
0.422066
0
VERTEX
8
Formers
10
82.903612
20
111.623492
30
0.000000
42
-0.164438
0
VERTEX
8
Formers
10
84.544237
20
106.769798
30
0.000000
0
VERTEX
8
Formers
10
84.544237
20
98.769798
30
0.000000
42
-0.267949
0
VERTEX
8
Formers
10
80.544236
20
91.841594
30
0.000000
42
0.267949
0
VERTEX
8
Formers
10
76.544235
20
84.913391
30
0.000000
0
VERTEX
8
Formers
10
76.544235
20
67.626206
30
0.000000
42
0.267949
0
VERTEX
8
Formers
10
80.544236
20
60.698002
30
0.000000
42
-0.267949
0
VERTEX
8
Formers
10
84.544237
20
53.769798
30
0.000000
0
VERTEX
8
Formers
10
84.544237
20
45.769798
30
0.000000
42
-0.261704
0
VERTEX
8
Formers
10
80.704859
20
38.936847
30
0.000000
42
0.295847
0
VERTEX
8
Formers
10
76.929621
20
31.092891
30
0.000000
0
VERTEX
8
Formers
10
76.983069
20
30.673353
30
0.000000
42
0.010359
0
VERTEX
8
Formers
10
77.031759
20
30.345492
30
0.000000
0
VERTEX
8
Formers
10
77.223957
20
29.213270
30
0.000000
42
0.010980
0
VERTEX
8
Formers
10
77.290342
20
28.868287
30
0.000000
0
VERTEX
8
Formers
10
77.512759
20
27.835255
30
0.000000
42
0.011612
0
VERTEX
8
Formers
10
77.599371
20
27.473965
30
0.000000
0
VERTEX
8
Formers
10
77.846885
20
26.537930
30
0.000000
42
0.012245
0
VERTEX
8
Formers
10
77.956290
20
26.161719
30
0.000000
0
VERTEX
8
Formers
10
78.223826
20
25.319255
30
0.000000
42
0.012869
0
VERTEX
8
Formers
10
78.358503
20
24.930168
30
0.000000
0
VERTEX
8
Formers
10
78.663001
20
24.118650
30
0.000000
42
0.011539
0
VERTEX
8
Formers
10
78.800643
20
23.776071
30
0.000000
0
VERTEX
8
Formers
10
78.987479
20
23.340392
30
0.000000
42
0.009973
0
VERTEX
8
Formers
10
79.119065
20
23.049696
30
0.000000
0
VERTEX
8
Formers
10
79.333897
20
22.599230
30
0.000000
42
0.010245
0
VERTEX
8
Formers
10
79.481041
20
22.306298
30
0.000000
0
VERTEX
8
Formers
10
79.699580
20
21.892589
30
0.000000
42
0.010493
0
VERTEX
8
Formers
10
79.862597
20
21.599070
30
0.000000
0
VERTEX
8
Formers
10
80.084435
20
21.218674
30
0.000000
42
0.010712
0
VERTEX
8
Formers
10
80.263410
20
20.926353
30
0.000000
0
VERTEX
8
Formers
10
80.488636
20
20.575592
30
0.000000
42
0.010898
0
VERTEX
8
Formers
10
80.683390
20
20.286353
30
0.000000
0
VERTEX
8
Formers
10
80.912639
20
19.961400
30
0.000000
42
0.011046
0
VERTEX
8
Formers
10
81.122709
20
19.677174
30
0.000000
0
VERTEX
8
Formers
10
81.357190
20
19.374161
30
0.000000
42
0.011153
0
VERTEX
8
Formers
10
81.581828
20
19.096873
30
0.000000
0
VERTEX
8
Formers
10
81.823323
20
18.812010
30
0.000000
42
0.011217
0
VERTEX
8
Formers
10
82.061496
20
18.543515
30
0.000000
0
VERTEX
8
Formers
10
82.258846
20
18.330848
30
0.000000
42
0.013693
0
VERTEX
8
Formers
10
82.565521
20
18.018004
30
0.000000
0
VERTEX
8
Formers
10
83.005033
20
17.593551
30
0.000000
42
0.016076
0
VERTEX
8
Formers
10
83.386273
20
17.248354
30
0.000000
0
VERTEX
8
Formers
10
83.804189
20
16.893717
30
0.000000
42
0.015871
0
VERTEX
8
Formers
10
84.201569
20
16.577640
30
0.000000
0
VERTEX
8
Formers
10
84.665402
20
16.232157
30
0.000000
42
0.015546
0
VERTEX
8
Formers
10
85.073311
20
15.947607
30
0.000000
0
VERTEX
8
Formers
10
85.594374
20
15.607701
30
0.000000
42
0.015115
0
VERTEX
8
Formers
10
86.007183
20
15.355861
30
0.000000
0
VERTEX
8
Formers
10
86.596493
20
15.020353
30
0.000000
42
0.014596
0
VERTEX
8
Formers
10
87.008878
20
14.801255
30
0.000000
0
VERTEX
8
Formers
10
87.676577
20
14.471128
30
0.000000
42
0.014010
0
VERTEX
8
Formers
10
88.083775
20
14.283806
30
0.000000
0
VERTEX
8
Formers
10
88.838695
20
13.961830
30
0.000000
42
0.013375
0
VERTEX
8
Formers
10
89.236672
20
13.804535
30
0.000000
0
VERTEX
8
Formers
10
90.086098
20
13.494811
30
0.000000
42
0.012712
0
VERTEX
8
Formers
10
90.471624
20
13.365243
30
0.000000
0
VERTEX
8
Formers
10
91.443626
20
13.065844
30
0.000000
42
0.011303
0
VERTEX
8
Formers
10
91.791583
20
12.967220
30
0.000000
0
VERTEX
8
Formers
10
92.684035
20
12.735925
30
0.000000
42
0.010014
0
VERTEX
8
Formers
10
92.995754
20
12.661766
30
0.000000
0
VERTEX
8
Formers
10
93.993831
20
12.445344
30
0.000000
42
0.009504
0
VERTEX
8
Formers
10
94.292206
20
12.386559
30
0.000000
0
VERTEX
8
Formers
10
95.373098
20
12.194872
30
0.000000
42
0.009007
0
VERTEX
8
Formers
10
95.657734
20
12.149666
30
0.000000
0
VERTEX
8
Formers
10
96.821947
20
11.986209
30
0.000000
42
0.008526
0
VERTEX
8
Formers
10
97.092724
20
11.952889
30
0.000000
0
VERTEX
8
Formers
10
98.340265
20
11.820927
30
0.000000
42
0.008065
0
VERTEX
8
Formers
10
98.597288
20
11.797925
30
0.000000
0
VERTEX
8
Formers
10
99.927767
20
11.700456
30
0.000000
42
0.007624
0
VERTEX
8
Formers
10
100.171313
20
11.686343
30
0.000000
0
VERTEX
8
Formers
10
101.584045
20
11.626078
30
0.000000
42
0.007205
0
VERTEX
8
Formers
10
101.814517
20
11.619572
30
0.000000
0
VERTEX
8
Formers
10
103.416007
20
11.597453
30
0.000000
42
0.003453
0
VERTEX
8
Formers
10
103.526493
20
11.596690
30
0.000000
0
VERTEX
8
Formers
10
126.534912
20
11.596690
30
0.000000
42
0.003825
0
VERTEX
8
Formers
10
126.657307
20
11.597626
30
0.000000
0
VERTEX
8
Formers
10
128.423774
20
11.624655
30
0.000000
42
0.008018
0
VERTEX
8
Formers
10
128.680222
20
11.632694
30
0.000000
0
VERTEX
8
Formers
10
130.228397
20
11.706090
30
0.000000
42
0.008535
0
VERTEX
8
Formers
10
130.500925
20
11.723677
30
0.000000
0
VERTEX
8
Formers
10
131.948263
20
11.841914
30
0.000000
42
0.009081
0
VERTEX
8
Formers
10
132.237385
20
11.870827
30
0.000000
0
VERTEX
8
Formers
10
133.583055
20
12.030131
30
0.000000
42
0.009655
0
VERTEX
8
Formers
10
133.889076
20
12.072365
30
0.000000
0
VERTEX
8
Formers
10
135.132741
20
12.268541
30
0.000000
42
0.010253
0
VERTEX
8
Formers
10
135.455682
20
12.326292
30
0.000000
0
VERTEX
8
Formers
10
136.597660
20
12.554767
30
0.000000
42
0.010871
0
VERTEX
8
Formers
10
136.937168
20
12.630404
30
0.000000
0
VERTEX
8
Formers
10
137.978615
20
12.886306
30
0.000000
42
0.011502
0
VERTEX
8
Formers
10
138.333873
20
12.982316
30
0.000000
0
VERTEX
8
Formers
10
139.276971
20
13.260618
30
0.000000
42
0.012136
0
VERTEX
8
Formers
10
139.646606
20
13.379519
30
0.000000
0
VERTEX
8
Formers
10
140.550117
20
13.694547
30
0.000000
42
0.010930
0
VERTEX
8
Formers
10
140.877742
20
13.816876
30
0.000000
0
VERTEX
8
Formers
10
141.379074
20
14.016654
30
0.000000
42
0.009487
0
VERTEX
8
Formers
10
141.658891
20
14.134359
30
0.000000
0
VERTEX
8
Formers
10
142.168025
20
14.359990
30
0.000000
42
0.009790
0
VERTEX
8
Formers
10
142.451861
20
14.492484
30
0.000000
0
VERTEX
8
Formers
10
142.919134
20
14.721853
30
0.000000
42
0.010075
0
VERTEX
8
Formers
10
143.205603
20
14.869706
30
0.000000
0
VERTEX
8
Formers
10
143.633968
20
15.101842
30
0.000000
42
0.010339
0
VERTEX
8
Formers
10
143.921508
20
15.265444
30
0.000000
0
VERTEX
8
Formers
10
144.314244
20
15.499778
30
0.000000
42
0.010577
0
VERTEX
8
Formers
10
144.601145
20
15.679301
30
0.000000
0
VERTEX
8
Formers
10
144.961797
20
15.915730
30
0.000000
42
0.010785
0
VERTEX
8
Formers
10
145.246235
20
16.111097
30
0.000000
0
VERTEX
8
Formers
10
145.578533
20
16.350044
30
0.000000
42
0.010957
0
VERTEX
8
Formers
10
145.858612
20
16.560903
30
0.000000
0
VERTEX
8
Formers
10
146.166378
20
16.803352
30
0.000000
42
0.011090
0
VERTEX
8
Formers
10
146.440184
20
17.029067
30
0.000000
0
VERTEX
8
Formers
10
146.667712
20
17.225268
30
0.000000
42
0.013636
0
VERTEX
8
Formers
10
146.990222
20
17.519081
30
0.000000
0
VERTEX
8
Formers
10
147.430184
20
17.942416
30
0.000000
42
0.016150
0
VERTEX
8
Formers
10
147.790727
20
18.312486
30
0.000000
0
VERTEX
8
Formers
10
148.149015
20
18.704829
30
0.000000
42
0.016094
0
VERTEX
8
Formers
10
148.483796
20
19.096000
30
0.000000
0
VERTEX
8
Formers
10
148.824718
20
19.521324
30
0.000000
42
0.015907
0
VERTEX
8
Formers
10
149.130201
20
19.928312
30
0.000000
0
VERTEX
8
Formers
10
149.459672
20
20.397641
30
0.000000
42
0.015597
0
VERTEX
8
Formers
10
149.733490
20
20.814776
30
0.000000
0
VERTEX
8
Formers
10
150.055002
20
21.339543
30
0.000000
42
0.015179
0
VERTEX
8
Formers
10
150.296014
20
21.761132
30
0.000000
0
VERTEX
8
Formers
10
150.610657
20
22.352482
30
0.000000
42
0.014671
0
VERTEX
8
Formers
10
150.818880
20
22.773139
30
0.000000
0
VERTEX
8
Formers
10
151.125566
20
23.441328
30
0.000000
42
0.014093
0
VERTEX
8
Formers
10
151.302021
20
23.856237
30
0.000000
0
VERTEX
8
Formers
10
151.597867
20
24.610194
30
0.000000
42
0.013464
0
VERTEX
8
Formers
10
151.744361
20
25.015278
30
0.000000
0
VERTEX
8
Formers
10
152.033011
20
25.886077
30
0.000000
42
0.012023
0
VERTEX
8
Formers
10
152.145230
20
26.254013
30
0.000000
0
VERTEX
8
Formers
10
152.367480
20
27.050885
30
0.000000
42
0.010686
0
VERTEX
8
Formers
10
152.452276
20
27.382117
30
0.000000
0
VERTEX
8
Formers
10
152.662443
20
28.282768
30
0.000000
42
0.010168
0
VERTEX
8
Formers
10
152.729917
20
28.601031
30
0.000000
0
VERTEX
8
Formers
10
152.917155
20
29.582124
30
0.000000
42
0.009655
0
VERTEX
8
Formers
10
152.969199
20
29.886648
30
0.000000
0
VERTEX
8
Formers
10
153.123157
20
30.905613
30
0.000000
42
0.302279
0
VERTEX
8
Formers
10
149.371009
20
38.935294
30
0.000000
42
-0.261804
0
VERTEX
8
Formers
10
145.529079
20
45.769798
30
0.000000
0
VERTEX
8
Formers
10
145.529079
20
53.769798
30
0.000000
42
-0.267949
0
VERTEX
8
Formers
10
149.529080
20
60.698002
30
0.000000
42
0.267949
0
VERTEX
8
Formers
10
153.529081
20
67.626206
30
0.000000
0
VERTEX
8
Formers
10
153.529081
20
84.913391
30
0.000000
42
0.267949
0
VERTEX
8
Formers
10
149.529080
20
91.841594
30
0.000000
0
SEQEND
8
0
0
ENDBLK
0
BLOCK
8
Formers
2
*R2
70
1
10
182.195748
20
-31.456219
3
*R2
0
POLYLINE
8
Formers
6
Continuous
70
0
66
 1
10
0.0
20
0.0
30
0.000000
0
VERTEX
8
Formers
10
264.327887
20
98.918313
30
0.000000
0
VERTEX
8
Formers
10
264.327887
20
53.621283
30
0.000000
0
VERTEX
8
Formers
10
256.624916
20
53.621283
30
0.000000
0
VERTEX
8
Formers
10
256.624916
20
45.918313
30
0.000000
0
VERTEX
8
Formers
10
264.327887
20
45.918313
30
0.000000
0
VERTEX
8
Formers
10
264.327887
20
36.658648
30
0.000000
0
VERTEX
8
Formers
10
264.300110
20
34.802257
30
0.000000
0
VERTEX
8
Formers
10
264.216778
20
32.999063
30
0.000000
0
VERTEX
8
Formers
10
264.077892
20
31.249067
30
0.000000
0
VERTEX
8
Formers
10
263.883452
20
29.552268
30
0.000000
0
VERTEX
8
Formers
10
263.633457
20
27.908667
30
0.000000
0
VERTEX
8
Formers
10
263.327907
20
26.318264
30
0.000000
0
VERTEX
8
Formers
10
262.966804
20
24.781058
30
0.000000
0
VERTEX
8
Formers
10
262.550145
20
23.297050
30
0.000000
0
VERTEX
8
Formers
10
262.005939
20
21.666180
30
0.000000
0
VERTEX
8
Formers
10
261.389171
20
20.104793
30
0.000000
0
VERTEX
8
Formers
10
260.699842
20
18.612888
30
0.000000
0
VERTEX
8
Formers
10
259.937953
20
17.190466
30
0.000000
0
VERTEX
8
Formers
10
259.103503
20
15.837527
30
0.000000
0
VERTEX
8
Formers
10
258.196491
20
14.554070
30
0.000000
0
VERTEX
8
Formers
10
257.216919
20
13.340096
30
0.000000
0
VERTEX
8
Formers
10
256.164786
20
12.195604
30
0.000000
0
VERTEX
8
Formers
10
255.040092
20
11.120595
30
0.000000
0
VERTEX
8
Formers
10
254.214901
20
10.413742
30
0.000000
0
VERTEX
8
Formers
10
253.354595
20
9.740515
30
0.000000
0
VERTEX
8
Formers
10
252.459174
20
9.100912
30
0.000000
0
VERTEX
8
Formers
10
251.528639
20
8.494934
30
0.000000
0
VERTEX
8
Formers
10
250.562989
20
7.922581
30
0.000000
0
VERTEX
8
Formers
10
249.562225
20
7.383853
30
0.000000
0
VERTEX
8
Formers
10
248.526346
20
6.878750
30
0.000000
0
VERTEX
8
Formers
10
247.455352
20
6.407271
30
0.000000
0
VERTEX
8
Formers
10
246.349244
20
5.969418
30
0.000000
0
VERTEX
8
Formers
10
244.751898
20
5.416166
30
0.000000
0
VERTEX
8
Formers
10
243.086580
20
4.928002
30
0.000000
0
VERTEX
8
Formers
10
241.353289
20
4.504926
30
0.000000
0
VERTEX
8
Formers
10
239.552026
20
4.146940
30
0.000000
0
VERTEX
8
Formers
10
237.682791
20
3.854041
30
0.000000
0
VERTEX
8
Formers
10
235.745584
20
3.626232
30
0.000000
0
VERTEX
8
Formers
10
233.740404
20
3.463510
30
0.000000
0
VERTEX
8
Formers
10
231.667253
20
3.365878
30
0.000000
0
VERTEX
8
Formers
10
229.526129
20
3.333333
30
0.000000
0
VERTEX
8
Formers
10
206.330840
20
3.333333
30
0.000000
0
VERTEX
8
Formers
10
204.392203
20
3.359932
30
0.000000
0
VERTEX
8
Formers
10
202.509121
20
3.439728
30
0.000000
0
VERTEX
8
Formers
10
200.681593
20
3.572722
30
0.000000
0
VERTEX
8
Formers
10
198.909619
20
3.758914
30
0.000000
0
VERTEX
8
Formers
10
197.193200
20
3.998303
30
0.000000
0
VERTEX
8
Formers
10
195.532335
20
4.290890
30
0.000000
0
VERTEX
8
Formers
10
193.927025
20
4.636674
30
0.000000
0
VERTEX
8
Formers
10
192.377269
20
5.035656
30
0.000000
0
VERTEX
8
Formers
10
190.674146
20
5.556775
30
0.000000
0
VERTEX
8
Formers
10
189.043583
20
6.147376
30
0.000000
0
VERTEX
8
Formers
10
187.485581
20
6.807461
30
0.000000
0
VERTEX
8
Formers
10
186.000140
20
7.537027
30
0.000000
0
VERTEX
8
Formers
10
184.587260
20
8.336077
30
0.000000
0
VERTEX
8
Formers
10
183.246941
20
9.204608
30
0.000000
0
VERTEX
8
Formers
10
181.979183
20
10.142623
30
0.000000
0
VERTEX
8
Formers
10
180.783986
20
11.150120
30
0.000000
0
VERTEX
8
Formers
10
179.661349
20
12.227099
30
0.000000
0
VERTEX
8
Formers
10
178.923181
20
13.017283
30
0.000000
0
VERTEX
8
Formers
10
178.220127
20
13.841091
30
0.000000
0
VERTEX
8
Formers
10
177.552187
20
14.698524
30
0.000000
0
VERTEX
8
Formers
10
176.919362
20
15.589582
30
0.000000
0
VERTEX
8
Formers
10
176.321651
20
16.514264
30
0.000000
0
VERTEX
8
Formers
10
175.759056
20
17.472572
30
0.000000
0
VERTEX
8
Formers
10
175.231574
20
18.464504
30
0.000000
0
VERTEX
8
Formers
10
174.739207
20
19.490061
30
0.000000
0
VERTEX
8
Formers
10
174.281955
20
20.549243
30
0.000000
0
VERTEX
8
Formers
10
173.704191
20
22.078823
30
0.000000
0
VERTEX
8
Formers
10
173.194400
20
23.673491
30
0.000000
0
VERTEX
8
Formers
10
172.752581
20
25.333248
30
0.000000
0
VERTEX
8
Formers
10
172.378734
20
27.058094
30
0.000000
0
VERTEX
8
Formers
10
172.072859
20
28.848027
30
0.000000
0
VERTEX
8
Formers
10
171.834956
20
30.703050
30
0.000000
0
VERTEX
8
Formers
10
171.665026
20
32.623161
30
0.000000
0
VERTEX
8
Formers
10
171.563068
20
34.608360
30
0.000000
0
VERTEX
8
Formers
10
171.529081
20
36.658648
30
0.000000
0
VERTEX
8
Formers
10
171.529081
20
45.918313
30
0.000000
0
VERTEX
8
Formers
10
179.232052
20
45.918313
30
0.000000
0
VERTEX
8
Formers
10
179.232052
20
53.621283
30
0.000000
0
VERTEX
8
Formers
10
171.529081
20
53.621283
30
0.000000
0
VERTEX
8
Formers
10
171.529081
20
98.918313
30
0.000000
0
VERTEX
8
Formers
10
179.232052
20
98.918313
30
0.000000
0
VERTEX
8
Formers
10
179.232052
20
106.621283
30
0.000000
0
VERTEX
8
Formers
10
171.554821
20
106.621283
30
0.000000
0
VERTEX
8
Formers
10
171.566113
20
107.198625
30
0.000000
0
VERTEX
8
Formers
10
171.677207
20
109.037705
30
0.000000
0
VERTEX
8
Formers
10
171.862365
20
110.822529
30
0.000000
0
VERTEX
8
Formers
10
172.121585
20
112.553096
30
0.000000
0
VERTEX
8
Formers
10
172.454868
20
114.229407
30
0.000000
0
VERTEX
8
Formers
10
172.862214
20
115.851462
30
0.000000
0
VERTEX
8
Formers
10
173.343624
20
117.419261
30
0.000000
0
VERTEX
8
Formers
10
173.899096
20
118.932803
30
0.000000
0
VERTEX
8
Formers
10
174.624610
20
120.596129
30
0.000000
0
VERTEX
8
Formers
10
175.446860
20
122.188590
30
0.000000
0
VERTEX
8
Formers
10
176.365845
20
123.710186
30
0.000000
0
VERTEX
8
Formers
10
177.381565
20
125.160916
30
0.000000
0
VERTEX
8
Formers
10
178.494021
20
126.540781
30
0.000000
0
VERTEX
8
Formers
10
179.703212
20
127.849780
30
0.000000
0
VERTEX
8
Formers
10
181.009138
20
129.087915
30
0.000000
0
VERTEX
8
Formers
10
182.411800
20
130.255183
30
0.000000
0
VERTEX
8
Formers
10
183.911196
20
131.351587
30
0.000000
0
VERTEX
8
Formers
10
185.011309
20
132.072507
30
0.000000
0
VERTEX
8
Formers
10
186.158234
20
132.759132
30
0.000000
0
VERTEX
8
Formers
10
187.351973
20
133.411464
30
0.000000
0
VERTEX
8
Formers
10
188.592525
20
134.029502
30
0.000000
0
VERTEX
8
Formers
10
189.879891
20
134.613245
30
0.000000
0
VERTEX
8
Formers
10
191.214069
20
135.162695
30
0.000000
0
VERTEX
8
Formers
10
192.595061
20
135.677850
30
0.000000
0
VERTEX
8
Formers
10
194.022867
20
136.158712
30
0.000000
0
VERTEX
8
Formers
10
195.497485
20
136.605280
30
0.000000
0
VERTEX
8
Formers
10
197.627003
20
137.169542
30
0.000000
0
VERTEX
8
Formers
10
199.847139
20
137.667421
30
0.000000
0
VERTEX
8
Formers
10
202.157892
20
138.098916
30
0.000000
0
VERTEX
8
Formers
10
204.559264
20
138.464028
30
0.000000
0
VERTEX
8
Formers
10
207.051253
20
138.762755
30
0.000000
0
VERTEX
8
Formers
10
209.633859
20
138.995099
30
0.000000
0
VERTEX
8
Formers
10
212.307084
20
139.161058
30
0.000000
0
VERTEX
8
Formers
10
215.070926
20
139.260634
30
0.000000
0
VERTEX
8
Formers
10
217.925387
20
139.293826
30
0.000000
0
VERTEX
8
Formers
10
217.931582
20
139.293826
30
0.000000
0
VERTEX
8
Formers
10
220.516095
20
139.266698
30
0.000000
0
VERTEX
8
Formers
10
223.026545
20
139.185313
30
0.000000
0
VERTEX
8
Formers
10
225.462931
20
139.049673
30
0.000000
0
VERTEX
8
Formers
10
227.825255
20
138.859776
30
0.000000
0
VERTEX
8
Formers
10
230.113516
20
138.615622
30
0.000000
0
VERTEX
8
Formers
10
232.327714
20
138.317213
30
0.000000
0
VERTEX
8
Formers
10
234.467849
20
137.964547
30
0.000000
0
VERTEX
8
Formers
10
236.533921
20
137.557625
30
0.000000
0
VERTEX
8
Formers
10
238.804457
20
137.026135
30
0.000000
0
VERTEX
8
Formers
10
240.978258
20
136.423779
30
0.000000
0
VERTEX
8
Formers
10
243.055323
20
135.750559
30
0.000000
0
VERTEX
8
Formers
10
245.035653
20
135.006472
30
0.000000
0
VERTEX
8
Formers
10
246.919248
20
134.191521
30
0.000000
0
VERTEX
8
Formers
10
248.706108
20
133.305704
30
0.000000
0
VERTEX
8
Formers
10
250.396232
20
132.349022
30
0.000000
0
VERTEX
8
Formers
10
251.989621
20
131.321474
30
0.000000
0
VERTEX
8
Formers
10
253.486275
20
130.223061
30
0.000000
0
VERTEX
8
Formers
10
254.470372
20
129.417152
30
0.000000
0
VERTEX
8
Formers
10
255.407655
20
128.576949
30
0.000000
0
VERTEX
8
Formers
10
256.298125
20
127.702452
30
0.000000
0
VERTEX
8
Formers
10
257.141782
20
126.793661
30
0.000000
0
VERTEX
8
Formers
10
257.938626
20
125.850576
30
0.000000
0
VERTEX
8
Formers
10
258.688656
20
124.873196
30
0.000000
0
VERTEX
8
Formers
10
259.391873
20
123.861523
30
0.000000
0
VERTEX
8
Formers
10
260.048277
20
122.815556
30
0.000000
0
VERTEX
8
Formers
10
260.657867
20
121.735295
30
0.000000
0
VERTEX
8
Formers
10
261.428118
20
120.175274
30
0.000000
0
VERTEX
8
Formers
10
262.107752
20
118.548869
30
0.000000
0
VERTEX
8
Formers
10
262.696767
20
116.856081
30
0.000000
0
VERTEX
8
Formers
10
263.195165
20
115.096909
30
0.000000
0
VERTEX
8
Formers
10
263.602945
20
113.271353
30
0.000000
0
VERTEX
8
Formers
10
263.920107
20
111.379413
30
0.000000
0
VERTEX
8
Formers
10
264.146652
20
109.421089
30
0.000000
0
VERTEX
8
Formers
10
264.282578
20
107.396381
30
0.000000
0
VERTEX
8
Formers
10
264.299373
20
106.621283
30
0.000000
0
VERTEX
8
Formers
10
256.624916
20
106.621283
30
0.000000
0
VERTEX
8
Formers
10
256.624916
20
98.918313
30
0.000000
0
VERTEX
8
Formers
10
264.327887
20
98.918313
30
0.000000
0
SEQEND
8
0
0
POLYLINE
8
Formers
6
Continuous
70
0
66
 1
10
0.0
20
0.0
30
0.000000
0
VERTEX
8
Formers
10
252.476402
20
92.078004
30
0.000000
42
-0.262177
0
VERTEX
8
Formers
10
248.624916
20
98.918313
30
0.000000
0
VERTEX
8
Formers
10
248.624916
20
106.621283
30
0.000000
42
-0.177282
0
VERTEX
8
Formers
10
250.515644
20
111.786241
30
0.000000
42
0.405745
0
VERTEX
8
Formers
10
249.746309
20
122.908133
30
0.000000
0
VERTEX
8
Formers
10
249.396494
20
123.221715
30
0.000000
42
0.011165
0
VERTEX
8
Formers
10
249.125243
20
123.454160
30
0.000000
0
VERTEX
8
Formers
10
248.746036
20
123.764705
30
0.000000
42
0.013264
0
VERTEX
8
Formers
10
248.410688
20
124.024784
30
0.000000
0
VERTEX
8
Formers
10
247.645669
20
124.586241
30
0.000000
42
0.015090
0
VERTEX
8
Formers
10
247.248019
20
124.860012
30
0.000000
0
VERTEX
8
Formers
10
246.448530
20
125.375587
30
0.000000
42
0.014424
0
VERTEX
8
Formers
10
246.053653
20
125.614399
30
0.000000
0
VERTEX
8
Formers
10
245.147212
20
126.127483
30
0.000000
42
0.013712
0
VERTEX
8
Formers
10
244.759659
20
126.333033
30
0.000000
0
VERTEX
8
Formers
10
243.738034
20
126.839493
30
0.000000
42
0.012974
0
VERTEX
8
Formers
10
243.361457
20
127.014157
30
0.000000
0
VERTEX
8
Formers
10
242.218232
20
127.508781
30
0.000000
42
0.012231
0
VERTEX
8
Formers
10
241.855386
20
127.655341
30
0.000000
0
VERTEX
8
Formers
10
240.585893
20
128.132339
30
0.000000
42
0.011496
0
VERTEX
8
Formers
10
240.238696
20
128.253761
30
0.000000
0
VERTEX
8
Formers
10
238.839833
20
128.707162
30
0.000000
42
0.010781
0
VERTEX
8
Formers
10
238.509479
20
128.806419
30
0.000000
0
VERTEX
8
Formers
10
236.979481
20
129.230379
30
0.000000
42
0.010094
0
VERTEX
8
Formers
10
236.666559
20
129.310323
30
0.000000
0
VERTEX
8
Formers
10
234.986924
20
129.703495
30
0.000000
42
0.008869
0
VERTEX
8
Formers
10
234.709499
20
129.763265
30
0.000000
0
VERTEX
8
Formers
10
233.166407
20
130.067184
30
0.000000
42
0.007787
0
VERTEX
8
Formers
10
232.921222
20
130.111520
30
0.000000
0
VERTEX
8
Formers
10
231.258696
20
130.385482
30
0.000000
42
0.007339
0
VERTEX
8
Formers
10
231.026452
20
130.420259
30
0.000000
0
VERTEX
8
Formers
10
229.264381
20
130.657735
30
0.000000
42
0.006917
0
VERTEX
8
Formers
10
229.044642
20
130.684260
30
0.000000
0
VERTEX
8
Formers
10
227.183984
20
130.882789
30
0.000000
42
0.006521
0
VERTEX
8
Formers
10
226.976234
20
130.902219
30
0.000000
0
VERTEX
8
Formers
10
225.018073
20
131.059627
30
0.000000
42
0.006150
0
VERTEX
8
Formers
10
224.821749
20
131.072981
30
0.000000
0
VERTEX
8
Formers
10
222.767240
20
131.187361
30
0.000000
42
0.005802
0
VERTEX
8
Formers
10
222.581755
20
131.195530
30
0.000000
0
VERTEX
8
Formers
10
220.432087
20
131.265219
30
0.000000
42
0.005478
0
VERTEX
8
Formers
10
220.256844
20
131.268978
30
0.000000
0
VERTEX
8
Formers
10
218.024400
20
131.292411
30
0.000000
42
0.005525
0
VERTEX
8
Formers
10
217.847616
20
131.292313
30
0.000000
0
VERTEX
8
Formers
10
215.359021
20
131.263438
30
0.000000
42
0.006103
0
VERTEX
8
Formers
10
215.163800
20
131.258790
30
0.000000
0
VERTEX
8
Formers
10
212.802920
20
131.173732
30
0.000000
42
0.006498
0
VERTEX
8
Formers
10
212.595254
20
131.163546
30
0.000000
0
VERTEX
8
Formers
10
210.350915
20
131.024213
30
0.000000
42
0.006930
0
VERTEX
8
Formers
10
210.129796
20
131.007406
30
0.000000
0
VERTEX
8
Formers
10
208.003801
20
130.816141
30
0.000000
42
0.007396
0
VERTEX
8
Formers
10
207.768441
20
130.791453
30
0.000000
0
VERTEX
8
Formers
10
205.762323
20
130.550969
30
0.000000
42
0.007896
0
VERTEX
8
Formers
10
205.511984
20
130.516942
30
0.000000
0
VERTEX
8
Formers
10
203.627137
20
130.230365
30
0.000000
42
0.008430
0
VERTEX
8
Formers
10
203.361174
20
130.185327
30
0.000000
0
VERTEX
8
Formers
10
201.598752
20
129.856224
30
0.000000
42
0.009000
0
VERTEX
8
Formers
10
201.316667
20
129.798276
30
0.000000
0
VERTEX
8
Formers
10
199.677469
20
129.430676
30
0.000000
42
0.009604
0
VERTEX
8
Formers
10
199.378975
20
129.357689
30
0.000000
0
VERTEX
8
Formers
10
197.817523
20
128.943948
30
0.000000
42
0.008759
0
VERTEX
8
Formers
10
197.547890
20
128.867423
30
0.000000
0
VERTEX
8
Formers
10
196.577375
20
128.573516
30
0.000000
42
0.007699
0
VERTEX
8
Formers
10
196.342719
20
128.498490
30
0.000000
0
VERTEX
8
Formers
10
195.392505
20
128.178474
30
0.000000
42
0.008048
0
VERTEX
8
Formers
10
195.149801
20
128.092361
30
0.000000
0
VERTEX
8
Formers
10
194.262107
20
127.761222
30
0.000000
42
0.008404
0
VERTEX
8
Formers
10
194.011778
20
127.663018
30
0.000000
0
VERTEX
8
Formers
10
193.185592
20
127.322773
30
0.000000
42
0.008763
0
VERTEX
8
Formers
10
192.928228
20
127.211469
30
0.000000
0
VERTEX
8
Formers
10
192.162182
20
126.864113
30
0.000000
42
0.009123
0
VERTEX
8
Formers
10
191.898563
20
126.738729
30
0.000000
0
VERTEX
8
Formers
10
191.190896
20
126.386173
30
0.000000
42
0.009480
0
VERTEX
8
Formers
10
190.922004
20
126.245787
30
0.000000
0
VERTEX
8
Formers
10
190.270538
20
125.889786
30
0.000000
42
0.009829
0
VERTEX
8
Formers
10
189.997566
20
125.733573
30
0.000000
0
VERTEX
8
Formers
10
189.399697
20
125.375649
30
0.000000
42
0.010166
0
VERTEX
8
Formers
10
189.124054
20
125.202922
30
0.000000
0
VERTEX
8
Formers
10
188.639256
20
124.885228
30
0.000000
42
0.012820
0
VERTEX
8
Formers
10
188.302061
20
124.651687
30
0.000000
0
VERTEX
8
Formers
10
187.538763
20
124.093541
30
0.000000
42
0.015671
0
VERTEX
8
Formers
10
187.143541
20
123.785081
30
0.000000
0
VERTEX
8
Formers
10
186.524423
20
123.269863
30
0.000000
42
0.016176
0
VERTEX
8
Formers
10
186.137555
20
122.926143
30
0.000000
0
VERTEX
8
Formers
10
185.951966
20
122.750188
30
0.000000
42
0.397483
0
VERTEX
8
Formers
10
185.344090
20
111.782969
30
0.000000
42
-0.177144
0
VERTEX
8
Formers
10
187.232052
20
106.621283
30
0.000000
0
VERTEX
8
Formers
10
187.232052
20
98.918313
30
0.000000
42
-0.262177
0
VERTEX
8
Formers
10
183.380567
20
92.078004
30
0.000000
42
0.262177
0
VERTEX
8
Formers
10
179.529081
20
85.237695
30
0.000000
0
VERTEX
8
Formers
10
179.529081
20
67.301901
30
0.000000
42
0.262177
0
VERTEX
8
Formers
10
183.380567
20
60.461592
30
0.000000
42
-0.262177
0
VERTEX
8
Formers
10
187.232052
20
53.621283
30
0.000000
0
VERTEX
8
Formers
10
187.232052
20
45.918313
30
0.000000
42
-0.257815
0
VERTEX
8
Formers
10
183.491806
20
39.146718
30
0.000000
42
0.292116
0
VERTEX
8
Formers
10
179.816549
20
31.357475
30
0.000000
0
VERTEX
8
Formers
10
179.965428
20
30.196611
30
0.000000
42
0.010425
0
VERTEX
8
Formers
10
180.014749
20
29.866704
30
0.000000
0
VERTEX
8
Formers
10
180.204865
20
28.754171
30
0.000000
42
0.011048
0
VERTEX
8
Formers
10
180.272092
20
28.407134
30
0.000000
0
VERTEX
8
Formers
10
180.491856
20
27.393194
30
0.000000
42
0.011681
0
VERTEX
8
Formers
10
180.579532
20
27.029889
30
0.000000
0
VERTEX
8
Formers
10
180.823804
20
26.112246
30
0.000000
42
0.012314
0
VERTEX
8
Formers
10
180.934501
20
25.734116
30
0.000000
0
VERTEX
8
Formers
10
181.198208
20
24.909219
30
0.000000
42
0.012936
0
VERTEX
8
Formers
10
181.334395
20
24.518375
30
0.000000
0
VERTEX
8
Formers
10
181.634737
20
23.723246
30
0.000000
42
0.011594
0
VERTEX
8
Formers
10
181.773833
20
23.379341
30
0.000000
0
VERTEX
8
Formers
10
181.956962
20
22.955141
30
0.000000
42
0.010016
0
VERTEX
8
Formers
10
182.089856
20
22.663500
30
0.000000
0
VERTEX
8
Formers
10
182.301015
20
22.223674
30
0.000000
42
0.010286
0
VERTEX
8
Formers
10
182.449528
20
21.929976
30
0.000000
0
VERTEX
8
Formers
10
182.664227
20
21.526234
30
0.000000
42
0.010530
0
VERTEX
8
Formers
10
182.828649
20
21.232150
30
0.000000
0
VERTEX
8
Formers
10
183.046535
20
20.861008
30
0.000000
42
0.010745
0
VERTEX
8
Formers
10
183.226918
20
20.568341
30
0.000000
0
VERTEX
8
Formers
10
183.448148
20
20.226089
30
0.000000
42
0.010925
0
VERTEX
8
Formers
10
183.644279
20
19.936735
30
0.000000
0
VERTEX
8
Formers
10
183.869557
20
19.619529
30
0.000000
42
0.011067
0
VERTEX
8
Formers
10
184.080939
20
19.335425
30
0.000000
0
VERTEX
8
Formers
10
184.311547
20
19.039394
30
0.000000
42
0.011169
0
VERTEX
8
Formers
10
184.537394
20
18.762462
30
0.000000
0
VERTEX
8
Formers
10
184.775187
20
18.483826
30
0.000000
42
0.011226
0
VERTEX
8
Formers
10
185.014430
20
18.215913
30
0.000000
0
VERTEX
8
Formers
10
185.208135
20
18.008558
30
0.000000
42
0.013694
0
VERTEX
8
Formers
10
185.515883
20
17.696701
30
0.000000
0
VERTEX
8
Formers
10
185.951156
20
17.279130
30
0.000000
42
0.016065
0
VERTEX
8
Formers
10
186.333275
20
16.935429
30
0.000000
0
VERTEX
8
Formers
10
186.747476
20
16.586276
30
0.000000
42
0.015847
0
VERTEX
8
Formers
10
187.145272
20
16.271964
30
0.000000
0
VERTEX
8
Formers
10
187.606191
20
15.930929
30
0.000000
42
0.015510
0
VERTEX
8
Formers
10
188.014039
20
15.648305
30
0.000000
0
VERTEX
8
Formers
10
188.532987
20
15.312026
30
0.000000
42
0.015069
0
VERTEX
8
Formers
10
188.945273
20
15.062171
30
0.000000
0
VERTEX
8
Formers
10
189.533207
20
14.729667
30
0.000000
42
0.014542
0
VERTEX
8
Formers
10
189.944652
20
14.512517
30
0.000000
0
VERTEX
8
Formers
10
190.611604
20
14.184947
30
0.000000
42
0.013949
0
VERTEX
8
Formers
10
191.017507
20
13.999458
30
0.000000
0
VERTEX
8
Formers
10
191.772175
20
13.679725
30
0.000000
42
0.013310
0
VERTEX
8
Formers
10
192.168574
20
13.524091
30
0.000000
0
VERTEX
8
Formers
10
193.018093
20
13.216389
30
0.000000
42
0.012645
0
VERTEX
8
Formers
10
193.401835
20
13.088275
30
0.000000
0
VERTEX
8
Formers
10
194.374008
20
12.790811
30
0.000000
42
0.011240
0
VERTEX
8
Formers
10
194.720167
20
12.693346
30
0.000000
0
VERTEX
8
Formers
10
195.613049
20
12.463475
30
0.000000
42
0.009955
0
VERTEX
8
Formers
10
195.923031
20
12.390219
30
0.000000
0
VERTEX
8
Formers
10
196.921382
20
12.175174
30
0.000000
42
0.009446
0
VERTEX
8
Formers
10
197.217998
20
12.117123
30
0.000000
0
VERTEX
8
Formers
10
198.299064
20
11.926677
30
0.000000
42
0.008950
0
VERTEX
8
Formers
10
198.581949
20
11.882047
30
0.000000
0
VERTEX
8
Formers
10
199.746180
20
11.719672
30
0.000000
42
0.008471
0
VERTEX
8
Formers
10
200.015241
20
11.686782
30
0.000000
0
VERTEX
8
Formers
10
201.262602
20
11.555715
30
0.000000
42
0.008012
0
VERTEX
8
Formers
10
201.517960
20
11.533013
30
0.000000
0
VERTEX
8
Formers
10
202.848031
20
11.436221
30
0.000000
42
0.007574
0
VERTEX
8
Formers
10
203.089977
20
11.422294
30
0.000000
0
VERTEX
8
Formers
10
204.502047
20
11.362457
30
0.000000
42
0.007158
0
VERTEX
8
Formers
10
204.730994
20
11.356037
30
0.000000
0
VERTEX
8
Formers
10
206.330845
20
11.334086
30
0.000000
42
0.003430
0
VERTEX
8
Formers
10
206.440598
20
11.333333
30
0.000000
0
VERTEX
8
Formers
10
229.404539
20
11.333333
30
0.000000
42
0.003800
0
VERTEX
8
Formers
10
229.526122
20
11.334257
30
0.000000
0
VERTEX
8
Formers
10
231.290792
20
11.361080
30
0.000000
42
0.007965
0
VERTEX
8
Formers
10
231.545543
20
11.369012
30
0.000000
0
VERTEX
8
Formers
10
233.093033
20
11.441890
30
0.000000
42
0.008479
0
VERTEX
8
Formers
10
233.363776
20
11.459245
30
0.000000
0
VERTEX
8
Formers
10
234.810731
20
11.576666
30
0.000000
42
0.009022
0
VERTEX
8
Formers
10
235.097992
20
11.605203
30
0.000000
0
VERTEX
8
Formers
10
236.443549
20
11.763437
30
0.000000
42
0.009593
0
VERTEX
8
Formers
10
236.747653
20
11.805127
30
0.000000
0
VERTEX
8
Formers
10
237.991426
20
12.000019
30
0.000000
42
0.010189
0
VERTEX
8
Formers
10
238.312422
20
12.057042
30
0.000000
0
VERTEX
8
Formers
10
239.454664
20
12.284053
30
0.000000
42
0.010806
0
VERTEX
8
Formers
10
239.792237
20
12.358760
30
0.000000
0
VERTEX
8
Formers
10
240.834020
20
12.613047
30
0.000000
42
0.011436
0
VERTEX
8
Formers
10
241.187400
20
12.707916
30
0.000000
0
VERTEX
8
Formers
10
242.130803
20
12.984461
30
0.000000
42
0.012070
0
VERTEX
8
Formers
10
242.498671
20
13.102009
30
0.000000
0
VERTEX
8
Formers
10
243.402112
20
13.414923
30
0.000000
42
0.010875
0
VERTEX
8
Formers
10
243.728356
20
13.535928
30
0.000000
0
VERTEX
8
Formers
10
244.229860
20
13.734449
30
0.000000
42
0.009443
0
VERTEX
8
Formers
10
244.508652
20
13.850946
30
0.000000
0
VERTEX
8
Formers
10
245.017539
20
14.074971
30
0.000000
42
0.009748
0
VERTEX
8
Formers
10
245.300496
20
14.206179
30
0.000000
0
VERTEX
8
Formers
10
245.767276
20
14.433784
30
0.000000
42
0.010036
0
VERTEX
8
Formers
10
246.053035
20
14.580294
30
0.000000
0
VERTEX
8
Formers
10
246.480614
20
14.810467
30
0.000000
42
0.010304
0
VERTEX
8
Formers
10
246.767638
20
14.972692
30
0.000000
0
VERTEX
8
Formers
10
247.159253
20
15.204807
30
0.000000
42
0.010546
0
VERTEX
8
Formers
10
247.445849
20
15.382950
30
0.000000
0
VERTEX
8
Formers
10
247.805014
20
15.616843
30
0.000000
42
0.010759
0
VERTEX
8
Formers
10
248.089371
20
15.810859
30
0.000000
0
VERTEX
8
Formers
10
248.419797
20
16.046883
30
0.000000
42
0.010937
0
VERTEX
8
Formers
10
248.700025
20
16.256456
30
0.000000
0
VERTEX
8
Formers
10
249.005526
20
16.495524
30
0.000000
42
0.011076
0
VERTEX
8
Formers
10
249.279713
20
16.720055
30
0.000000
0
VERTEX
8
Formers
10
249.504444
20
16.912558
30
0.000000
42
0.013627
0
VERTEX
8
Formers
10
249.827717
20
17.205114
30
0.000000
0
VERTEX
8
Formers
10
250.263368
20
17.621519
30
0.000000
42
0.016152
0
VERTEX
8
Formers
10
250.625192
20
17.990446
30
0.000000
0
VERTEX
8
Formers
10
250.978436
20
18.374699
30
0.000000
42
0.016110
0
VERTEX
8
Formers
10
251.314838
20
18.765161
30
0.000000
0
VERTEX
8
Formers
10
251.650280
20
19.180872
30
0.000000
42
0.015936
0
VERTEX
8
Formers
10
251.957625
20
19.587629
30
0.000000
0
VERTEX
8
Formers
10
252.281388
20
20.045767
30
0.000000
42
0.015638
0
VERTEX
8
Formers
10
252.557201
20
20.463159
30
0.000000
0
VERTEX
8
Formers
10
252.872994
20
20.975171
30
0.000000
42
0.015230
0
VERTEX
8
Formers
10
253.116029
20
21.397483
30
0.000000
0
VERTEX
8
Formers
10
253.425141
20
21.974585
30
0.000000
42
0.014730
0
VERTEX
8
Formers
10
253.635321
20
22.396382
30
0.000000
0
VERTEX
8
Formers
10
253.936838
20
23.048949
30
0.000000
42
0.014158
0
VERTEX
8
Formers
10
254.115106
20
23.465345
30
0.000000
0
VERTEX
8
Formers
10
254.406274
20
24.202455
30
0.000000
42
0.013533
0
VERTEX
8
Formers
10
254.554385
20
24.609297
30
0.000000
0
VERTEX
8
Formers
10
254.839024
20
25.462301
30
0.000000
42
0.012089
0
VERTEX
8
Formers
10
254.952552
20
25.832061
30
0.000000
0
VERTEX
8
Formers
10
255.171638
20
26.612377
30
0.000000
42
0.010749
0
VERTEX
8
Formers
10
255.257464
20
26.945409
30
0.000000
0
VERTEX
8
Formers
10
255.465033
20
27.829024
30
0.000000
42
0.010230
0
VERTEX
8
Formers
10
255.533352
20
28.149136
30
0.000000
0
VERTEX
8
Formers
10
255.718467
20
29.112671
30
0.000000
42
0.009716
0
VERTEX
8
Formers
10
255.771179
20
29.419054
30
0.000000
0
VERTEX
8
Formers
10
255.930082
20
30.463766
30
0.000000
42
0.009213
0
VERTEX
8
Formers
10
255.969032
20
30.755966
30
0.000000
0
VERTEX
8
Formers
10
256.050421
20
31.466214
30
0.000000
42
0.288409
0
VERTEX
8
Formers
10
252.363676
20
39.147654
30
0.000000
42
-0.257756
0
VERTEX
8
Formers
10
248.624916
20
45.918313
30
0.000000
0
VERTEX
8
Formers
10
248.624916
20
53.621283
30
0.000000
42
-0.262177
0
VERTEX
8
Formers
10
252.476402
20
60.461592
30
0.000000
42
0.262177
0
VERTEX
8
Formers
10
256.327887
20
67.301901
30
0.000000
0
VERTEX
8
Formers
10
256.327887
20
85.237695
30
0.000000
42
0.262177
0
VERTEX
8
Formers
10
252.476402
20
92.078004
30
0.000000
0
SEQEND
8
0
0
ENDBLK
0
BLOCK
8
Formers
2
*R3
70
1
10
284.994554
20
-30.878406
3
*R3
0
POLYLINE
8
Formers
6
Continuous
70
0
66
 1
10
0.0
20
0.0
30
0.000000
0
VERTEX
8
Formers
10
366.904559
20
99.066828
30
0.000000
0
VERTEX
8
Formers
10
366.904559
20
53.472768
30
0.000000
0
VERTEX
8
Formers
10
359.498618
20
53.472768
30
0.000000
0
VERTEX
8
Formers
10
359.498618
20
46.066828
30
0.000000
0
VERTEX
8
Formers
10
366.904559
20
46.066828
30
0.000000
0
VERTEX
8
Formers
10
366.904559
20
36.765186
30
0.000000
0
VERTEX
8
Formers
10
366.876849
20
34.955610
30
0.000000
0
VERTEX
8
Formers
10
366.793717
20
33.197889
30
0.000000
0
VERTEX
8
Formers
10
366.655164
20
31.492025
30
0.000000
0
VERTEX
8
Formers
10
366.461191
20
29.838017
30
0.000000
0
VERTEX
8
Formers
10
366.211796
20
28.235864
30
0.000000
0
VERTEX
8
Formers
10
365.906980
20
26.685568
30
0.000000
0
VERTEX
8
Formers
10
365.546743
20
25.187128
30
0.000000
0
VERTEX
8
Formers
10
365.131085
20
23.740544
30
0.000000
0
VERTEX
8
Formers
10
364.588184
20
22.150802
30
0.000000
0
VERTEX
8
Formers
10
363.972897
20
20.628790
30
0.000000
0
VERTEX
8
Formers
10
363.285224
20
19.174509
30
0.000000
0
VERTEX
8
Formers
10
362.525163
20
17.787958
30
0.000000
0
VERTEX
8
Formers
10
361.692716
20
16.469137
30
0.000000
0
VERTEX
8
Formers
10
360.787882
20
15.218047
30
0.000000
0
VERTEX
8
Formers
10
359.810661
20
14.034687
30
0.000000
0
VERTEX
8
Formers
10
358.761054
20
12.919057
30
0.000000
0
VERTEX
8
Formers
10
357.639060
20
11.871157
30
0.000000
0
VERTEX
8
Formers
10
356.815849
20
11.182131
30
0.000000
0
VERTEX
8
Formers
10
355.957608
20
10.525881
30
0.000000
0
VERTEX
8
Formers
10
355.064337
20
9.902408
30
0.000000
0
VERTEX
8
Formers
10
354.136036
20
9.311712
30
0.000000
0
VERTEX
8
Formers
10
353.172704
20
8.753793
30
0.000000
0
VERTEX
8
Formers
10
352.174342
20
8.228650
30
0.000000
0
VERTEX
8
Formers
10
351.140950
20
7.736285
30
0.000000
0
VERTEX
8
Formers
10
350.072528
20
7.276696
30
0.000000
0
VERTEX
8
Formers
10
348.969075
20
6.849884
30
0.000000
0
VERTEX
8
Formers
10
347.375563
20
6.310584
30
0.000000
0
VERTEX
8
Formers
10
345.714242
20
5.834731
30
0.000000
0
VERTEX
8
Formers
10
343.985113
20
5.422325
30
0.000000
0
VERTEX
8
Formers
10
342.188174
20
5.073366
30
0.000000
0
VERTEX
8
Formers
10
340.323426
20
4.787854
30
0.000000
0
VERTEX
8
Formers
10
338.390869
20
4.565789
30
0.000000
0
VERTEX
8
Formers
10
336.390503
20
4.407171
30
0.000000
0
VERTEX
8
Formers
10
334.322328
20
4.312001
30
0.000000
0
VERTEX
8
Formers
10
332.186344
20
4.280277
30
0.000000
0
VERTEX
8
Formers
10
309.046102
20
4.280277
30
0.000000
0
VERTEX
8
Formers
10
307.112119
20
4.306205
30
0.000000
0
VERTEX
8
Formers
10
305.233557
20
4.383989
30
0.000000
0
VERTEX
8
Formers
10
303.410416
20
4.513629
30
0.000000
0
VERTEX
8
Formers
10
301.642697
20
4.695125
30
0.000000
0
VERTEX
8
Formers
10
299.930398
20
4.928477
30
0.000000
0
VERTEX
8
Formers
10
298.273520
20
5.213686
30
0.000000
0
VERTEX
8
Formers
10
296.672064
20
5.550750
30
0.000000
0
VERTEX
8
Formers
10
295.126028
20
5.939670
30
0.000000
0
VERTEX
8
Formers
10
293.426993
20
6.447647
30
0.000000
0
VERTEX
8
Formers
10
291.800344
20
7.023355
30
0.000000
0
VERTEX
8
Formers
10
290.246083
20
7.666793
30
0.000000
0
VERTEX
8
Formers
10
288.764208
20
8.377961
30
0.000000
0
VERTEX
8
Formers
10
287.354719
20
9.156860
30
0.000000
0
VERTEX
8
Formers
10
286.017618
20
10.003489
30
0.000000
0
VERTEX
8
Formers
10
284.752903
20
10.917848
30
0.000000
0
VERTEX
8
Formers
10
283.560575
20
11.899938
30
0.000000
0
VERTEX
8
Formers
10
282.440633
20
12.949758
30
0.000000
0
VERTEX
8
Formers
10
281.704237
20
13.720014
30
0.000000
0
VERTEX
8
Formers
10
281.002870
20
14.523047
30
0.000000
0
VERTEX
8
Formers
10
280.336534
20
15.358857
30
0.000000
0
VERTEX
8
Formers
10
279.705228
20
16.227444
30
0.000000
0
VERTEX
8
Formers
10
279.108953
20
17.128808
30
0.000000
0
VERTEX
8
Formers
10
278.547707
20
18.062949
30
0.000000
0
VERTEX
8
Formers
10
278.021492
20
19.029866
30
0.000000
0
VERTEX
8
Formers
10
277.530307
20
20.029561
30
0.000000
0
VERTEX
8
Formers
10
277.074152
20
21.062032
30
0.000000
0
VERTEX
8
Formers
10
276.497776
20
22.553038
30
0.000000
0
VERTEX
8
Formers
10
275.989208
20
24.107492
30
0.000000
0
VERTEX
8
Formers
10
275.548450
20
25.725393
30
0.000000
0
VERTEX
8
Formers
10
275.175500
20
27.406741
30
0.000000
0
VERTEX
8
Formers
10
274.870359
20
29.151536
30
0.000000
0
VERTEX
8
Formers
10
274.633028
20
30.959778
30
0.000000
0
VERTEX
8
Formers
10
274.463505
20
32.831467
30
0.000000
0
VERTEX
8
Formers
10
274.361792
20
34.766603
30
0.000000
0
VERTEX
8
Formers
10
274.327887
20
36.765186
30
0.000000
0
VERTEX
8
Formers
10
274.327887
20
46.066828
30
0.000000
0
VERTEX
8
Formers
10
281.733828
20
46.066828
30
0.000000
0
VERTEX
8
Formers
10
281.733828
20
53.472768
30
0.000000
0
VERTEX
8
Formers
10
274.327887
20
53.472768
30
0.000000
0
VERTEX
8
Formers
10
274.327887
20
99.066828
30
0.000000
0
VERTEX
8
Formers
10
281.733828
20
99.066828
30
0.000000
0
VERTEX
8
Formers
10
281.733828
20
106.472768
30
0.000000
0
VERTEX
8
Formers
10
274.343080
20
106.472768
30
0.000000
0
VERTEX
8
Formers
10
274.364830
20
107.581422
30
0.000000
0
VERTEX
8
Formers
10
274.475660
20
109.410525
30
0.000000
0
VERTEX
8
Formers
10
274.660375
20
111.185666
30
0.000000
0
VERTEX
8
Formers
10
274.918977
20
112.906845
30
0.000000
0
VERTEX
8
Formers
10
275.251465
20
114.574062
30
0.000000
0
VERTEX
8
Formers
10
275.657839
20
116.187318
30
0.000000
0
VERTEX
8
Formers
10
276.138099
20
117.746611
30
0.000000
0
VERTEX
8
Formers
10
276.692245
20
119.251942
30
0.000000
0
VERTEX
8
Formers
10
277.416028
20
120.906245
30
0.000000
0
VERTEX
8
Formers
10
278.236316
20
122.490067
30
0.000000
0
VERTEX
8
Formers
10
279.153108
20
124.003408
30
0.000000
0
VERTEX
8
Formers
10
280.166404
20
125.446268
30
0.000000
0
VERTEX
8
Formers
10
281.276205
20
126.818647
30
0.000000
0
VERTEX
8
Formers
10
282.482510
20
128.120546
30
0.000000
0
VERTEX
8
Formers
10
283.785320
20
129.351963
30
0.000000
0
VERTEX
8
Formers
10
285.184634
20
130.512899
30
0.000000
0
VERTEX
8
Formers
10
286.680452
20
131.603355
30
0.000000
0
VERTEX
8
Formers
10
287.777939
20
132.320364
30
0.000000
0
VERTEX
8
Formers
10
288.922127
20
133.003264
30
0.000000
0
VERTEX
8
Formers
10
290.113017
20
133.652057
30
0.000000
0
VERTEX
8
Formers
10
291.350609
20
134.266742
30
0.000000
0
VERTEX
8
Formers
10
292.634902
20
134.847319
30
0.000000
0
VERTEX
8
Formers
10
293.965897
20
135.393788
30
0.000000
0
VERTEX
8
Formers
10
295.343593
20
135.906149
30
0.000000
0
VERTEX
8
Formers
10
296.767991
20
136.384401
30
0.000000
0
VERTEX
8
Formers
10
298.239090
20
136.828546
30
0.000000
0
VERTEX
8
Formers
10
300.363526
20
137.389748
30
0.000000
0
VERTEX
8
Formers
10
302.578363
20
137.884926
30
0.000000
0
VERTEX
8
Formers
10
304.883602
20
138.314080
30
0.000000
0
VERTEX
8
Formers
10
307.279242
20
138.677211
30
0.000000
0
VERTEX
8
Formers
10
309.765284
20
138.974318
30
0.000000
0
VERTEX
8
Formers
10
312.341728
20
139.205401
30
0.000000
0
VERTEX
8
Formers
10
315.008573
20
139.370460
30
0.000000
0
VERTEX
8
Formers
10
317.765819
20
139.469496
30
0.000000
0
VERTEX
8
Formers
10
320.613467
20
139.502508
30
0.000000
0
VERTEX
8
Formers
10
320.618979
20
139.502508
30
0.000000
0
VERTEX
8
Formers
10
323.197324
20
139.475527
30
0.000000
0
VERTEX
8
Formers
10
325.701783
20
139.394584
30
0.000000
0
VERTEX
8
Formers
10
328.132355
20
139.259679
30
0.000000
0
VERTEX
8
Formers
10
330.489041
20
139.070812
30
0.000000
0
VERTEX
8
Formers
10
332.771841
20
138.827983
30
0.000000
0
VERTEX
8
Formers
10
334.980755
20
138.531193
30
0.000000
0
VERTEX
8
Formers
10
337.115782
20
138.180440
30
0.000000
0
VERTEX
8
Formers
10
339.176924
20
137.775725
30
0.000000
0
VERTEX
8
Formers
10
341.442041
20
137.247119
30
0.000000
0
VERTEX
8
Formers
10
343.610654
20
136.648031
30
0.000000
0
VERTEX
8
Formers
10
345.682762
20
135.978462
30
0.000000
0
VERTEX
8
Formers
10
347.658366
20
135.238413
30
0.000000
0
VERTEX
8
Formers
10
349.537466
20
134.427882
30
0.000000
0
VERTEX
8
Formers
10
351.320061
20
133.546871
30
0.000000
0
VERTEX
8
Formers
10
353.006152
20
132.595379
30
0.000000
0
VERTEX
8
Formers
10
354.595738
20
131.573406
30
0.000000
0
VERTEX
8
Formers
10
356.088820
20
130.480951
30
0.000000
0
VERTEX
8
Formers
10
357.070568
20
129.679414
30
0.000000
0
VERTEX
8
Formers
10
358.005615
20
128.843769
30
0.000000
0
VERTEX
8
Formers
10
358.893960
20
127.974016
30
0.000000
0
VERTEX
8
Formers
10
359.735604
20
127.070155
30
0.000000
0
VERTEX
8
Formers
10
360.530546
20
126.132186
30
0.000000
0
VERTEX
8
Formers
10
361.278786
20
125.160109
30
0.000000
0
VERTEX
8
Formers
10
361.980325
20
124.153924
30
0.000000
0
VERTEX
8
Formers
10
362.635162
20
123.113632
30
0.000000
0
VERTEX
8
Formers
10
363.243297
20
122.039231
30
0.000000
0
VERTEX
8
Formers
10
364.011710
20
120.487673
30
0.000000
0
VERTEX
8
Formers
10
364.689722
20
118.870092
30
0.000000
0
VERTEX
8
Formers
10
365.277332
20
117.186486
30
0.000000
0
VERTEX
8
Formers
10
365.774540
20
115.436858
30
0.000000
0
VERTEX
8
Formers
10
366.181347
20
113.621205
30
0.000000
0
VERTEX
8
Formers
10
366.497752
20
111.739529
30
0.000000
0
VERTEX
8
Formers
10
366.723756
20
109.791829
30
0.000000
0
VERTEX
8
Formers
10
366.859358
20
107.778105
30
0.000000
0
VERTEX
8
Formers
10
366.887728
20
106.472768
30
0.000000
0
VERTEX
8
Formers
10
359.498618
20
106.472768
30
0.000000
0
VERTEX
8
Formers
10
359.498618
20
99.066828
30
0.000000
0
VERTEX
8
Formers
10
366.904559
20
99.066828
30
0.000000
0
SEQEND
8
0
0
POLYLINE
8
Formers
6
Continuous
70
0
66
 1
10
0.0
20
0.0
30
0.000000
0
VERTEX
8
Formers
10
355.201589
20
92.318825
30
0.000000
42
-0.256345
0
VERTEX
8
Formers
10
351.498618
20
99.066828
30
0.000000
0
VERTEX
8
Formers
10
351.498618
20
106.472768
30
0.000000
42
-0.179017
0
VERTEX
8
Formers
10
353.424229
20
111.678707
30
0.000000
42
0.394936
0
VERTEX
8
Formers
10
352.946559
20
122.601002
30
0.000000
0
VERTEX
8
Formers
10
352.669055
20
122.872698
30
0.000000
42
0.011376
0
VERTEX
8
Formers
10
352.403237
20
123.121364
30
0.000000
0
VERTEX
8
Formers
10
352.005963
20
123.476405
30
0.000000
42
0.011159
0
VERTEX
8
Formers
10
351.734490
20
123.708333
30
0.000000
0
VERTEX
8
Formers
10
351.357990
20
124.015722
30
0.000000
42
0.013254
0
VERTEX
8
Formers
10
351.022515
20
124.275108
30
0.000000
0
VERTEX
8
Formers
10
350.261160
20
124.832173
30
0.000000
42
0.015074
0
VERTEX
8
Formers
10
349.863556
20
125.105081
30
0.000000
0
VERTEX
8
Formers
10
349.067585
20
125.616824
30
0.000000
42
0.014404
0
VERTEX
8
Formers
10
348.672947
20
125.854765
30
0.000000
0
VERTEX
8
Formers
10
347.769893
20
126.364375
30
0.000000
42
0.013688
0
VERTEX
8
Formers
10
347.382745
20
126.569086
30
0.000000
0
VERTEX
8
Formers
10
346.364436
20
127.072365
30
0.000000
42
0.012949
0
VERTEX
8
Formers
10
345.988399
20
127.246247
30
0.000000
0
VERTEX
8
Formers
10
344.848485
20
127.737938
30
0.000000
42
0.012204
0
VERTEX
8
Formers
10
344.486280
20
127.883793
30
0.000000
0
VERTEX
8
Formers
10
343.220154
20
128.358077
30
0.000000
42
0.011468
0
VERTEX
8
Formers
10
342.873670
20
128.478881
30
0.000000
0
VERTEX
8
Formers
10
341.478291
20
128.929776
30
0.000000
42
0.010753
0
VERTEX
8
Formers
10
341.148693
20
129.028504
30
0.000000
0
VERTEX
8
Formers
10
339.622344
20
129.450164
30
0.000000
42
0.010067
0
VERTEX
8
Formers
10
339.310201
20
129.529667
30
0.000000
0
VERTEX
8
Formers
10
337.634469
20
129.920730
30
0.000000
42
0.008845
0
VERTEX
8
Formers
10
337.357776
20
129.980161
30
0.000000
0
VERTEX
8
Formers
10
335.818204
20
130.282463
30
0.000000
42
0.007765
0
VERTEX
8
Formers
10
335.573695
20
130.326542
30
0.000000
0
VERTEX
8
Formers
10
333.914938
20
130.599051
30
0.000000
42
0.007318
0
VERTEX
8
Formers
10
333.683355
20
130.633624
30
0.000000
0
VERTEX
8
Formers
10
331.925266
20
130.869842
30
0.000000
42
0.006897
0
VERTEX
8
Formers
10
331.706166
20
130.896209
30
0.000000
0
VERTEX
8
Formers
10
329.849712
20
131.093686
30
0.000000
42
0.006501
0
VERTEX
8
Formers
10
329.642578
20
131.112999
30
0.000000
0
VERTEX
8
Formers
10
327.688848
20
131.269573
30
0.000000
42
0.006131
0
VERTEX
8
Formers
10
327.493115
20
131.282846
30
0.000000
0
VERTEX
8
Formers
10
325.443267
20
131.396619
30
0.000000
42
0.005785
0
VERTEX
8
Formers
10
325.258344
20
131.404738
30
0.000000
0
VERTEX
8
Formers
10
323.113572
20
131.474056
30
0.000000
42
0.005461
0
VERTEX
8
Formers
10
322.938862
20
131.477793
30
0.000000
0
VERTEX
8
Formers
10
320.711537
20
131.501101
30
0.000000
42
0.005509
0
VERTEX
8
Formers
10
320.535269
20
131.501004
30
0.000000
0
VERTEX
8
Formers
10
318.053036
20
131.472283
30
0.000000
42
0.006083
0
VERTEX
8
Formers
10
317.858431
20
131.467663
30
0.000000
0
VERTEX
8
Formers
10
315.502903
20
131.383057
30
0.000000
42
0.006478
0
VERTEX
8
Formers
10
315.295865
20
131.372933
30
0.000000
0
VERTEX
8
Formers
10
313.056616
20
131.234339
30
0.000000
42
0.006909
0
VERTEX
8
Formers
10
312.836158
20
131.217633
30
0.000000
0
VERTEX
8
Formers
10
310.714971
20
131.027383
30
0.000000
42
0.007374
0
VERTEX
8
Formers
10
310.480303
20
131.002842
30
0.000000
0
VERTEX
8
Formers
10
308.478717
20
130.763632
30
0.000000
42
0.007872
0
VERTEX
8
Formers
10
308.229099
20
130.729806
30
0.000000
0
VERTEX
8
Formers
10
306.348517
20
130.444748
30
0.000000
42
0.008406
0
VERTEX
8
Formers
10
306.083297
20
130.399973
30
0.000000
0
VERTEX
8
Formers
10
304.324890
20
130.072619
30
0.000000
42
0.008975
0
VERTEX
8
Formers
10
304.043560
20
130.015003
30
0.000000
0
VERTEX
8
Formers
10
302.408147
20
129.649369
30
0.000000
42
0.009578
0
VERTEX
8
Formers
10
302.110409
20
129.576788
30
0.000000
0
VERTEX
8
Formers
10
300.552645
20
129.165281
30
0.000000
42
0.008737
0
VERTEX
8
Formers
10
300.283651
20
129.089170
30
0.000000
0
VERTEX
8
Formers
10
299.315503
20
128.796873
30
0.000000
42
0.007680
0
VERTEX
8
Formers
10
299.081362
20
128.722240
30
0.000000
0
VERTEX
8
Formers
10
298.133546
20
128.404003
30
0.000000
42
0.008029
0
VERTEX
8
Formers
10
297.891335
20
128.318327
30
0.000000
0
VERTEX
8
Formers
10
297.005984
20
127.989068
30
0.000000
42
0.008385
0
VERTEX
8
Formers
10
296.756113
20
127.891342
30
0.000000
0
VERTEX
8
Formers
10
295.932237
20
127.553081
30
0.000000
42
0.008745
0
VERTEX
8
Formers
10
295.675288
20
127.442295
30
0.000000
0
VERTEX
8
Formers
10
294.911538
20
127.097035
30
0.000000
42
0.009106
0
VERTEX
8
Formers
10
294.648280
20
126.972204
30
0.000000
0
VERTEX
8
Formers
10
293.942918
20
126.621866
30
0.000000
42
0.009463
0
VERTEX
8
Formers
10
293.674320
20
126.482061
30
0.000000
0
VERTEX
8
Formers
10
293.025190
20
126.128417
30
0.000000
42
0.009814
0
VERTEX
8
Formers
10
292.752436
20
125.972803
30
0.000000
0
VERTEX
8
Formers
10
292.156954
20
125.617394
30
0.000000
42
0.010153
0
VERTEX
8
Formers
10
291.881442
20
125.445276
30
0.000000
0
VERTEX
8
Formers
10
291.399101
20
125.130153
30
0.000000
42
0.012806
0
VERTEX
8
Formers
10
291.061936
20
124.897343
30
0.000000
0
VERTEX
8
Formers
10
290.302339
20
124.343595
30
0.000000
42
0.015659
0
VERTEX
8
Formers
10
289.906956
20
124.035948
30
0.000000
0
VERTEX
8
Formers
10
289.291729
20
123.525528
30
0.000000
42
0.016170
0
VERTEX
8
Formers
10
288.904484
20
123.182518
30
0.000000
0
VERTEX
8
Formers
10
288.389606
20
122.695854
30
0.000000
42
0.399964
0
VERTEX
8
Formers
10
287.809374
20
111.677357
30
0.000000
42
-0.178959
0
VERTEX
8
Formers
10
289.733828
20
106.472768
30
0.000000
0
VERTEX
8
Formers
10
289.733828
20
99.066828
30
0.000000
42
-0.256345
0
VERTEX
8
Formers
10
286.030858
20
92.318825
30
0.000000
42
0.256345
0
VERTEX
8
Formers
10
282.327887
20
85.570823
30
0.000000
0
VERTEX
8
Formers
10
282.327887
20
66.968773
30
0.000000
42
0.256345
0
VERTEX
8
Formers
10
286.030858
20
60.220771
30
0.000000
42
-0.256345
0
VERTEX
8
Formers
10
289.733828
20
53.472768
30
0.000000
0
VERTEX
8
Formers
10
289.733828
20
46.066828
30
0.000000
42
-0.252127
0
VERTEX
8
Formers
10
286.137266
20
39.387776
30
0.000000
42
0.287127
0
VERTEX
8
Formers
10
282.608731
20
31.667653
30
0.000000
0
VERTEX
8
Formers
10
282.757942
20
30.530808
30
0.000000
42
0.010658
0
VERTEX
8
Formers
10
282.809518
20
30.193705
30
0.000000
0
VERTEX
8
Formers
10
282.993666
20
29.140745
30
0.000000
42
0.011287
0
VERTEX
8
Formers
10
283.063894
20
28.786499
30
0.000000
0
VERTEX
8
Formers
10
283.275983
20
27.830351
30
0.000000
42
0.011923
0
VERTEX
8
Formers
10
283.367450
20
27.459993
30
0.000000
0
VERTEX
8
Formers
10
283.602285
20
26.597981
30
0.000000
42
0.012556
0
VERTEX
8
Formers
10
283.717573
20
26.213164
30
0.000000
0
VERTEX
8
Formers
10
283.970104
20
25.441294
30
0.000000
42
0.013171
0
VERTEX
8
Formers
10
284.111646
20
25.044361
30
0.000000
0
VERTEX
8
Formers
10
284.400002
20
24.298426
30
0.000000
42
0.011787
0
VERTEX
8
Formers
10
284.544239
20
23.949959
30
0.000000
0
VERTEX
8
Formers
10
284.716434
20
23.560207
30
0.000000
42
0.010168
0
VERTEX
8
Formers
10
284.853937
20
23.265350
30
0.000000
0
VERTEX
8
Formers
10
285.054481
20
22.857189
30
0.000000
42
0.010426
0
VERTEX
8
Formers
10
285.207801
20
22.560914
30
0.000000
0
VERTEX
8
Formers
10
285.411493
20
22.186631
30
0.000000
42
0.010656
0
VERTEX
8
Formers
10
285.580826
20
21.890684
30
0.000000
0
VERTEX
8
Formers
10
285.787521
20
21.546659
30
0.000000
42
0.010855
0
VERTEX
8
Formers
10
285.972808
20
21.252904
30
0.000000
0
VERTEX
8
Formers
10
286.182894
20
20.935326
30
0.000000
42
0.011017
0
VERTEX
8
Formers
10
286.383801
20
20.645699
30
0.000000
0
VERTEX
8
Formers
10
286.598233
20
20.350670
30
0.000000
42
0.011139
0
VERTEX
8
Formers
10
286.814135
20
20.067123
30
0.000000
0
VERTEX
8
Formers
10
287.034452
20
19.790770
30
0.000000
42
0.011218
0
VERTEX
8
Formers
10
287.264435
20
19.515211
30
0.000000
0
VERTEX
8
Formers
10
287.492742
20
19.253810
30
0.000000
42
0.011252
0
VERTEX
8
Formers
10
287.735617
20
18.988043
30
0.000000
0
VERTEX
8
Formers
10
287.920261
20
18.794910
30
0.000000
42
0.013695
0
VERTEX
8
Formers
10
288.231602
20
18.486616
30
0.000000
0
VERTEX
8
Formers
10
288.657610
20
18.087282
30
0.000000
42
0.016022
0
VERTEX
8
Formers
10
289.042602
20
17.748901
30
0.000000
0
VERTEX
8
Formers
10
289.449754
20
17.413540
30
0.000000
42
0.015759
0
VERTEX
8
Formers
10
289.848806
20
17.105433
30
0.000000
0
VERTEX
8
Formers
10
290.305795
20
16.775040
30
0.000000
42
0.015381
0
VERTEX
8
Formers
10
290.713245
20
16.499138
30
0.000000
0
VERTEX
8
Formers
10
291.231342
20
16.171088
30
0.000000
42
0.014905
0
VERTEX
8
Formers
10
291.641652
20
15.928108
30
0.000000
0
VERTEX
8
Formers
10
292.231576
20
15.602110
30
0.000000
42
0.014350
0
VERTEX
8
Formers
10
292.639627
20
15.391669
30
0.000000
0
VERTEX
8
Formers
10
293.311020
20
15.069460
30
0.000000
42
0.013737
0
VERTEX
8
Formers
10
293.712335
20
14.890255
30
0.000000
0
VERTEX
8
Formers
10
294.473411
20
14.575183
30
0.000000
42
0.013085
0
VERTEX
8
Formers
10
294.864283
20
14.425224
30
0.000000
0
VERTEX
8
Formers
10
295.721660
20
14.121779
30
0.000000
42
0.012412
0
VERTEX
8
Formers
10
296.099193
20
13.998617
30
0.000000
0
VERTEX
8
Formers
10
297.079761
20
13.705447
30
0.000000
42
0.011019
0
VERTEX
8
Formers
10
297.419698
20
13.611921
30
0.000000
0
VERTEX
8
Formers
10
298.321121
20
13.385160
30
0.000000
42
0.009750
0
VERTEX
8
Formers
10
298.625104
20
13.314963
30
0.000000
0
VERTEX
8
Formers
10
299.631675
20
13.103106
30
0.000000
42
0.009245
0
VERTEX
8
Formers
10
299.922236
20
13.047540
30
0.000000
0
VERTEX
8
Formers
10
301.011400
20
12.860056
30
0.000000
42
0.008755
0
VERTEX
8
Formers
10
301.288273
20
12.817373
30
0.000000
0
VERTEX
8
Formers
10
302.460301
20
12.657649
30
0.000000
42
0.008283
0
VERTEX
8
Formers
10
302.723472
20
12.626215
30
0.000000
0
VERTEX
8
Formers
10
303.978188
20
12.497391
30
0.000000
42
0.007831
0
VERTEX
8
Formers
10
304.227840
20
12.475704
30
0.000000
0
VERTEX
8
Formers
10
305.564720
20
12.380641
30
0.000000
42
0.007402
0
VERTEX
8
Formers
10
305.801186
20
12.367341
30
0.000000
0
VERTEX
8
Formers
10
307.219448
20
12.308616
30
0.000000
42
0.006994
0
VERTEX
8
Formers
10
307.443171
20
12.302486
30
0.000000
0
VERTEX
8
Formers
10
309.046107
20
12.280996
30
0.000000
42
0.003351
0
VERTEX
8
Formers
10
309.153350
20
12.280277
30
0.000000
0
VERTEX
8
Formers
10
332.067535
20
12.280277
30
0.000000
42
0.003713
0
VERTEX
8
Formers
10
332.186338
20
12.281159
30
0.000000
0
VERTEX
8
Formers
10
333.954466
20
12.307419
30
0.000000
42
0.007784
0
VERTEX
8
Formers
10
334.203408
20
12.314994
30
0.000000
0
VERTEX
8
Formers
10
335.757858
20
12.386525
30
0.000000
42
0.008286
0
VERTEX
8
Formers
10
336.022484
20
12.403100
30
0.000000
0
VERTEX
8
Formers
10
337.477139
20
12.518446
30
0.000000
42
0.008819
0
VERTEX
8
Formers
10
337.758018
20
12.545711
30
0.000000
0
VERTEX
8
Formers
10
339.111906
20
12.701283
30
0.000000
42
0.009381
0
VERTEX
8
Formers
10
339.409429
20
12.741139
30
0.000000
0
VERTEX
8
Formers
10
340.662006
20
12.932922
30
0.000000
42
0.009970
0
VERTEX
8
Formers
10
340.976314
20
12.987480
30
0.000000
0
VERTEX
8
Formers
10
342.127617
20
13.211059
30
0.000000
42
0.010581
0
VERTEX
8
Formers
10
342.458518
20
13.282616
30
0.000000
0
VERTEX
8
Formers
10
343.509340
20
13.533242
30
0.000000
42
0.011208
0
VERTEX
8
Formers
10
343.856221
20
13.624238
30
0.000000
0
VERTEX
8
Formers
10
344.808298
20
13.896942
30
0.000000
42
0.011844
0
VERTEX
8
Formers
10
345.170025
20
14.009888
30
0.000000
0
VERTEX
8
Formers
10
346.080580
20
14.318052
30
0.000000
42
0.010685
0
VERTEX
8
Formers
10
346.401996
20
14.434542
30
0.000000
0
VERTEX
8
Formers
10
346.909248
20
14.630746
30
0.000000
42
0.009290
0
VERTEX
8
Formers
10
347.184435
20
14.743108
30
0.000000
0
VERTEX
8
Formers
10
347.697485
20
14.963800
30
0.000000
42
0.009602
0
VERTEX
8
Formers
10
347.977323
20
15.090595
30
0.000000
0
VERTEX
8
Formers
10
348.447290
20
15.314514
30
0.000000
42
0.009900
0
VERTEX
8
Formers
10
348.730503
20
15.456399
30
0.000000
0
VERTEX
8
Formers
10
349.160126
20
15.682382
30
0.000000
42
0.010180
0
VERTEX
8
Formers
10
349.445255
20
15.839854
30
0.000000
0
VERTEX
8
Formers
10
349.837626
20
16.067098
30
0.000000
42
0.010437
0
VERTEX
8
Formers
10
350.123045
20
16.240454
30
0.000000
0
VERTEX
8
Formers
10
350.481559
20
16.468583
30
0.000000
42
0.010666
0
VERTEX
8
Formers
10
350.765508
20
16.657893
30
0.000000
0
VERTEX
8
Formers
10
351.093795
20
16.887027
30
0.000000
42
0.010863
0
VERTEX
8
Formers
10
351.374413
20
17.092096
30
0.000000
0
VERTEX
8
Formers
10
351.676255
20
17.322898
30
0.000000
42
0.011023
0
VERTEX
8
Formers
10
351.951633
20
17.543251
30
0.000000
0
VERTEX
8
Formers
10
352.170718
20
17.726625
30
0.000000
42
0.013593
0
VERTEX
8
Formers
10
352.496491
20
18.014711
30
0.000000
0
VERTEX
8
Formers
10
352.922629
20
18.412707
30
0.000000
42
0.016155
0
VERTEX
8
Formers
10
353.288755
20
18.777499
30
0.000000
0
VERTEX
8
Formers
10
353.629565
20
19.139746
30
0.000000
42
0.016161
0
VERTEX
8
Formers
10
353.971488
20
19.527559
30
0.000000
0
VERTEX
8
Formers
10
354.292555
20
19.916353
30
0.000000
42
0.016033
0
VERTEX
8
Formers
10
354.606309
20
20.322115
30
0.000000
0
VERTEX
8
Formers
10
354.914469
20
20.748199
30
0.000000
42
0.015777
0
VERTEX
8
Formers
10
355.197208
20
21.166304
30
0.000000
0
VERTEX
8
Formers
10
355.496924
20
21.641135
30
0.000000
42
0.015405
0
VERTEX
8
Formers
10
355.747025
20
22.065804
30
0.000000
0
VERTEX
8
Formers
10
356.040305
20
22.600824
30
0.000000
42
0.014934
0
VERTEX
8
Formers
10
356.257355
20
23.026463
30
0.000000
0
VERTEX
8
Formers
10
356.543899
20
23.632441
30
0.000000
42
0.014383
0
VERTEX
8
Formers
10
356.728567
20
24.053934
30
0.000000
0
VERTEX
8
Formers
10
357.006099
20
24.740454
30
0.000000
42
0.013773
0
VERTEX
8
Formers
10
357.159937
20
25.153378
30
0.000000
0
VERTEX
8
Formers
10
357.432929
20
25.952762
30
0.000000
42
0.012322
0
VERTEX
8
Formers
10
357.551106
20
26.328870
30
0.000000
0
VERTEX
8
Formers
10
357.760921
20
27.059075
30
0.000000
42
0.010968
0
VERTEX
8
Formers
10
357.850413
20
27.398397
30
0.000000
0
VERTEX
8
Formers
10
358.050445
20
28.230452
30
0.000000
42
0.010448
0
VERTEX
8
Formers
10
358.121777
20
28.557043
30
0.000000
0
VERTEX
8
Formers
10
358.300777
20
29.467439
30
0.000000
42
0.009930
0
VERTEX
8
Formers
10
358.355871
20
29.780352
30
0.000000
0
VERTEX
8
Formers
10
358.510015
20
30.770598
30
0.000000
42
0.009421
0
VERTEX
8
Formers
10
358.550759
20
31.069265
30
0.000000
0
VERTEX
8
Formers
10
358.634003
20
31.779078
30
0.000000
42
0.283340
0
VERTEX
8
Formers
10
355.093537
20
39.388860
30
0.000000
42
-0.252061
0
VERTEX
8
Formers
10
351.498618
20
46.066828
30
0.000000
0
VERTEX
8
Formers
10
351.498618
20
53.472768
30
0.000000
42
-0.256345
0
VERTEX
8
Formers
10
355.201589
20
60.220771
30
0.000000
42
0.256345
0
VERTEX
8
Formers
10
358.904559
20
66.968773
30
0.000000
0
VERTEX
8
Formers
10
358.904559
20
85.570823
30
0.000000
42
0.256345
0
VERTEX
8
Formers
10
355.201589
20
92.318825
30
0.000000
0
SEQEND
8
0
0
ENDBLK
0
BLOCK
8
Formers
2
*R4
70
1
10
387.571226
20
-30.137332
3
*R4
0
POLYLINE
8
Formers
6
Continuous
70
0
66
 1
10
0.0
20
0.0
30
0.000000
0
VERTEX
8
Formers
10
469.258418
20
99.215343
30
0.000000
0
VERTEX
8
Formers
10
469.258418
20
53.324254
30
0.000000
0
VERTEX
8
Formers
10
462.149506
20
53.324254
30
0.000000
0
VERTEX
8
Formers
10
462.149506
20
46.215343
30
0.000000
0
VERTEX
8
Formers
10
469.258418
20
46.215343
30
0.000000
0
VERTEX
8
Formers
10
469.258418
20
37.332719
30
0.000000
0
VERTEX
8
Formers
10
469.230774
20
35.583950
30
0.000000
0
VERTEX
8
Formers
10
469.147843
20
33.885294
30
0.000000
0
VERTEX
8
Formers
10
469.009625
20
32.236752
30
0.000000
0
VERTEX
8
Formers
10
468.816119
20
30.638323
30
0.000000
0
VERTEX
8
Formers
10
468.567326
20
29.090007
30
0.000000
0
VERTEX
8
Formers
10
468.263246
20
27.591806
30
0.000000
0
VERTEX
8
Formers
10
467.903879
20
26.143717
30
0.000000
0
VERTEX
8
Formers
10
467.489224
20
24.745742
30
0.000000
0
VERTEX
8
Formers
10
466.947634
20
23.209420
30
0.000000
0
VERTEX
8
Formers
10
466.333832
20
21.738553
30
0.000000
0
VERTEX
8
Formers
10
465.647818
20
20.333140
30
0.000000
0
VERTEX
8
Formers
10
464.889592
20
18.993181
30
0.000000
0
VERTEX
8
Formers
10
464.059154
20
17.718676
30
0.000000
0
VERTEX
8
Formers
10
463.156504
20
16.509626
30
0.000000
0
VERTEX
8
Formers
10
462.181642
20
15.366030
30
0.000000
0
VERTEX
8
Formers
10
461.134568
20
14.287889
30
0.000000
0
VERTEX
8
Formers
10
460.015282
20
13.275202
30
0.000000
0
VERTEX
8
Formers
10
459.194058
20
12.609329
30
0.000000
0
VERTEX
8
Formers
10
458.337889
20
11.975131
30
0.000000
0
VERTEX
8
Formers
10
457.446774
20
11.372608
30
0.000000
0
VERTEX
8
Formers
10
456.520713
20
10.801761
30
0.000000
0
VERTEX
8
Formers
10
455.559706
20
10.262590
30
0.000000
0
VERTEX
8
Formers
10
454.563754
20
9.755094
30
0.000000
0
VERTEX
8
Formers
10
453.532856
20
9.279273
30
0.000000
0
VERTEX
8
Formers
10
452.467013
20
8.835128
30
0.000000
0
VERTEX
8
Formers
10
451.366223
20
8.422658
30
0.000000
0
VERTEX
8
Formers
10
449.776558
20
7.901480
30
0.000000
0
VERTEX
8
Formers
10
448.119247
20
7.441617
30
0.000000
0
VERTEX
8
Formers
10
446.394290
20
7.043069
30
0.000000
0
VERTEX
8
Formers
10
444.601689
20
6.705836
30
0.000000
0
VERTEX
8
Formers
10
442.741442
20
6.429918
30
0.000000
0
VERTEX
8
Formers
10
440.813549
20
6.215315
30
0.000000
0
VERTEX
8
Formers
10
438.818011
20
6.062027
30
0.000000
0
VERTEX
8
Formers
10
436.754828
20
5.970055
30
0.000000
0
VERTEX
8
Formers
10
434.624000
20
5.939397
30
0.000000
0
VERTEX
8
Formers
10
411.538977
20
5.939397
30
0.000000
0
VERTEX
8
Formers
10
409.609662
20
5.964454
30
0.000000
0
VERTEX
8
Formers
10
407.735634
20
6.039624
30
0.000000
0
VERTEX
8
Formers
10
405.916894
20
6.164908
30
0.000000
0
VERTEX
8
Formers
10
404.153441
20
6.340305
30
0.000000
0
VERTEX
8
Formers
10
402.445275
20
6.565816
30
0.000000
0
VERTEX
8
Formers
10
400.792396
20
6.841440
30
0.000000
0
VERTEX
8
Formers
10
399.194805
20
7.167178
30
0.000000
0
VERTEX
8
Formers
10
397.652501
20
7.543030
30
0.000000
0
VERTEX
8
Formers
10
395.957567
20
8.033938
30
0.000000
0
VERTEX
8
Formers
10
394.334844
20
8.590300
30
0.000000
0
VERTEX
8
Formers
10
392.784334
20
9.212116
30
0.000000
0
VERTEX
8
Formers
10
391.306036
20
9.899387
30
0.000000
0
VERTEX
8
Formers
10
389.899949
20
10.652113
30
0.000000
0
VERTEX
8
Formers
10
388.566075
20
11.470293
30
0.000000
0
VERTEX
8
Formers
10
387.304413
20
12.353927
30
0.000000
0
VERTEX
8
Formers
10
386.114962
20
13.303015
30
0.000000
0
VERTEX
8
Formers
10
384.997724
20
14.317558
30
0.000000
0
VERTEX
8
Formers
10
384.263105
20
15.061932
30
0.000000
0
VERTEX
8
Formers
10
383.563431
20
15.837981
30
0.000000
0
VERTEX
8
Formers
10
382.898703
20
16.645705
30
0.000000
0
VERTEX
8
Formers
10
382.268921
20
17.485105
30
0.000000
0
VERTEX
8
Formers
10
381.674085
20
18.356180
30
0.000000
0
VERTEX
8
Formers
10
381.114194
20
19.258931
30
0.000000
0
VERTEX
8
Formers
10
380.589249
20
20.193358
30
0.000000
0
VERTEX
8
Formers
10
380.099249
20
21.159459
30
0.000000
0
VERTEX
8
Formers
10
379.644196
20
22.157237
30
0.000000
0
VERTEX
8
Formers
10
379.069210
20
23.598141
30
0.000000
0
VERTEX
8
Formers
10
378.561870
20
25.100360
30
0.000000
0
VERTEX
8
Formers
10
378.122175
20
26.663895
30
0.000000
0
VERTEX
8
Formers
10
377.750126
20
28.288745
30
0.000000
0
VERTEX
8
Formers
10
377.445722
20
29.974910
30
0.000000
0
VERTEX
8
Formers
10
377.208963
20
31.722389
30
0.000000
0
VERTEX
8
Formers
10
377.039850
20
33.531184
30
0.000000
0
VERTEX
8
Formers
10
376.938382
20
35.401294
30
0.000000
0
VERTEX
8
Formers
10
376.904559
20
37.332719
30
0.000000
0
VERTEX
8
Formers
10
376.904559
20
46.215343
30
0.000000
0
VERTEX
8
Formers
10
384.013471
20
46.215343
30
0.000000
0
VERTEX
8
Formers
10
384.013471
20
53.324254
30
0.000000
0
VERTEX
8
Formers
10
376.904559
20
53.324254
30
0.000000
0
VERTEX
8
Formers
10
376.904559
20
99.215343
30
0.000000
0
VERTEX
8
Formers
10
384.013471
20
99.215343
30
0.000000
0
VERTEX
8
Formers
10
384.013471
20
106.324254
30
0.000000
0
VERTEX
8
Formers
10
376.911385
20
106.324254
30
0.000000
0
VERTEX
8
Formers
10
376.941414
20
107.837726
30
0.000000
0
VERTEX
8
Formers
10
377.051977
20
109.642001
30
0.000000
0
VERTEX
8
Formers
10
377.236249
20
111.393048
30
0.000000
0
VERTEX
8
Formers
10
377.494230
20
113.090865
30
0.000000
0
VERTEX
8
Formers
10
377.825920
20
114.735452
30
0.000000
0
VERTEX
8
Formers
10
378.231319
20
116.326810
30
0.000000
0
VERTEX
8
Formers
10
378.710427
20
117.864939
30
0.000000
0
VERTEX
8
Formers
10
379.263244
20
119.349837
30
0.000000
0
VERTEX
8
Formers
10
379.985290
20
120.981686
30
0.000000
0
VERTEX
8
Formers
10
380.803609
20
122.544010
30
0.000000
0
VERTEX
8
Formers
10
381.718201
20
124.036810
30
0.000000
0
VERTEX
8
Formers
10
382.729066
20
125.460085
30
0.000000
0
VERTEX
8
Formers
10
383.836204
20
126.813837
30
0.000000
0
VERTEX
8
Formers
10
385.039614
20
128.098064
30
0.000000
0
VERTEX
8
Formers
10
386.339297
20
129.312767
30
0.000000
0
VERTEX
8
Formers
10
387.735254
20
130.457946
30
0.000000
0
VERTEX
8
Formers
10
389.227483
20
131.533600
30
0.000000
0
VERTEX
8
Formers
10
390.322336
20
132.240876
30
0.000000
0
VERTEX
8
Formers
10
391.463779
20
132.914508
30
0.000000
0
VERTEX
8
Formers
10
392.651811
20
133.554494
30
0.000000
0
VERTEX
8
Formers
10
393.886433
20
134.160836
30
0.000000
0
VERTEX
8
Formers
10
395.167644
20
134.733532
30
0.000000
0
VERTEX
8
Formers
10
396.495445
20
135.272584
30
0.000000
0
VERTEX
8
Formers
10
397.869836
20
135.777990
30
0.000000
0
VERTEX
8
Formers
10
399.290815
20
136.249752
30
0.000000
0
VERTEX
8
Formers
10
400.758385
20
136.687868
30
0.000000
0
VERTEX
8
Formers
10
402.877723
20
137.241452
30
0.000000
0
VERTEX
8
Formers
10
405.087245
20
137.729909
30
0.000000
0
VERTEX
8
Formers
10
407.386953
20
138.153238
30
0.000000
0
VERTEX
8
Formers
10
409.776844
20
138.511440
30
0.000000
0
VERTEX
8
Formers
10
412.256921
20
138.804514
30
0.000000
0
VERTEX
8
Formers
10
414.827182
20
139.032461
30
0.000000
0
VERTEX
8
Formers
10
417.487627
20
139.195279
30
0.000000
0
VERTEX
8
Formers
10
420.238257
20
139.292971
30
0.000000
0
VERTEX
8
Formers
10
423.079072
20
139.325535
30
0.000000
0
VERTEX
8
Formers
10
423.083905
20
139.325535
30
0.000000
0
VERTEX
8
Formers
10
425.656063
20
139.298920
30
0.000000
0
VERTEX
8
Formers
10
428.154511
20
139.219076
30
0.000000
0
VERTEX
8
Formers
10
430.579251
20
139.086002
30
0.000000
0
VERTEX
8
Formers
10
432.930282
20
138.899699
30
0.000000
0
VERTEX
8
Formers
10
435.207604
20
138.660166
30
0.000000
0
VERTEX
8
Formers
10
437.411218
20
138.367404
30
0.000000
0
VERTEX
8
Formers
10
439.541122
20
138.021412
30
0.000000
0
VERTEX
8
Formers
10
441.597318
20
137.622191
30
0.000000
0
VERTEX
8
Formers
10
443.856999
20
137.100759
30
0.000000
0
VERTEX
8
Formers
10
446.020409
20
136.509803
30
0.000000
0
VERTEX
8
Formers
10
448.087545
20
135.849322
30
0.000000
0
VERTEX
8
Formers
10
450.058408
20
135.119318
30
0.000000
0
VERTEX
8
Formers
10
451.932999
20
134.319789
30
0.000000
0
VERTEX
8
Formers
10
453.711316
20
133.450736
30
0.000000
0
VERTEX
8
Formers
10
455.393361
20
132.512159
30
0.000000
0
VERTEX
8
Formers
10
456.979133
20
131.504057
30
0.000000
0
VERTEX
8
Formers
10
458.468632
20
130.426431
30
0.000000
0
VERTEX
8
Formers
10
459.448025
20
129.635774
30
0.000000
0
VERTEX
8
Formers
10
460.380828
20
128.811471
30
0.000000
0
VERTEX
8
Formers
10
461.267041
20
127.953524
30
0.000000
0
VERTEX
8
Formers
10
462.106665
20
127.061931
30
0.000000
0
VERTEX
8
Formers
10
462.899699
20
126.136693
30
0.000000
0
VERTEX
8
Formers
10
463.646144
20
125.177811
30
0.000000
0
VERTEX
8
Formers
10
464.345999
20
124.185283
30
0.000000
0
VERTEX
8
Formers
10
464.999265
20
123.159111
30
0.000000
0
VERTEX
8
Formers
10
465.605942
20
122.099293
30
0.000000
0
VERTEX
8
Formers
10
466.372511
20
120.568795
30
0.000000
0
VERTEX
8
Formers
10
467.048895
20
118.973170
30
0.000000
0
VERTEX
8
Formers
10
467.635095
20
117.312417
30
0.000000
0
VERTEX
8
Formers
10
468.131110
20
115.586536
30
0.000000
0
VERTEX
8
Formers
10
468.536941
20
113.795528
30
0.000000
0
VERTEX
8
Formers
10
468.852587
20
111.939393
30
0.000000
0
VERTEX
8
Formers
10
469.078049
20
110.018129
30
0.000000
0
VERTEX
8
Formers
10
469.213326
20
108.031739
30
0.000000
0
VERTEX
8
Formers
10
469.250856
20
106.324254
30
0.000000
0
VERTEX
8
Formers
10
462.149506
20
106.324254
30
0.000000
0
VERTEX
8
Formers
10
462.149506
20
99.215343
30
0.000000
0
VERTEX
8
Formers
10
469.258418
20
99.215343
30
0.000000
0
SEQEND
8
0
0
POLYLINE
8
Formers
6
Continuous
70
0
66
 1
10
0.0
20
0.0
30
0.000000
0
VERTEX
8
Formers
10
457.703962
20
92.564242
30
0.000000
42
-0.250448
0
VERTEX
8
Formers
10
454.149506
20
99.215343
30
0.000000
0
VERTEX
8
Formers
10
454.149506
20
106.324254
30
0.000000
42
-0.177269
0
VERTEX
8
Formers
10
456.039987
20
111.488920
30
0.000000
42
0.381313
0
VERTEX
8
Formers
10
455.754510
20
122.138159
30
0.000000
0
VERTEX
8
Formers
10
455.696509
20
122.199750
30
0.000000
42
0.011554
0
VERTEX
8
Formers
10
455.436916
20
122.462951
30
0.000000
0
VERTEX
8
Formers
10
455.077756
20
122.810657
30
0.000000
42
0.011367
0
VERTEX
8
Formers
10
454.810763
20
123.057626
30
0.000000
0
VERTEX
8
Formers
10
454.417704
20
123.404966
30
0.000000
42
0.011139
0
VERTEX
8
Formers
10
454.145444
20
123.634964
30
0.000000
0
VERTEX
8
Formers
10
453.772554
20
123.935995
30
0.000000
42
0.013216
0
VERTEX
8
Formers
10
453.436647
20
124.192810
30
0.000000
0
VERTEX
8
Formers
10
452.679139
20
124.740853
30
0.000000
42
0.015012
0
VERTEX
8
Formers
10
452.281744
20
125.010567
30
0.000000
0
VERTEX
8
Formers
10
451.488459
20
125.514871
30
0.000000
42
0.014327
0
VERTEX
8
Formers
10
451.094739
20
125.749604
30
0.000000
0
VERTEX
8
Formers
10
450.193281
20
126.252616
30
0.000000
42
0.013601
0
VERTEX
8
Formers
10
449.807657
20
126.454241
30
0.000000
0
VERTEX
8
Formers
10
448.790076
20
126.951526
30
0.000000
42
0.012854
0
VERTEX
8
Formers
10
448.416051
20
127.122544
30
0.000000
0
VERTEX
8
Formers
10
447.276239
20
127.608683
30
0.000000
42
0.012105
0
VERTEX
8
Formers
10
446.916414
20
127.751960
30
0.000000
0
VERTEX
8
Formers
10
445.649999
20
128.221038
30
0.000000
42
0.011367
0
VERTEX
8
Formers
10
445.306150
20
128.339582
30
0.000000
0
VERTEX
8
Formers
10
443.910301
20
128.785576
30
0.000000
42
0.010652
0
VERTEX
8
Formers
10
443.583495
20
128.882373
30
0.000000
0
VERTEX
8
Formers
10
442.056679
20
129.299438
30
0.000000
42
0.009968
0
VERTEX
8
Formers
10
441.747402
20
129.377330
30
0.000000
0
VERTEX
8
Formers
10
440.071529
20
129.764045
30
0.000000
42
0.008754
0
VERTEX
8
Formers
10
439.797531
20
129.822238
30
0.000000
0
VERTEX
8
Formers
10
438.257716
20
130.121202
30
0.000000
42
0.007683
0
VERTEX
8
Formers
10
438.015690
20
130.164344
30
0.000000
0
VERTEX
8
Formers
10
436.357141
20
130.433767
30
0.000000
42
0.007239
0
VERTEX
8
Formers
10
436.127985
20
130.467595
30
0.000000
0
VERTEX
8
Formers
10
434.370415
20
130.701098
30
0.000000
42
0.006822
0
VERTEX
8
Formers
10
434.153666
20
130.726890
30
0.000000
0
VERTEX
8
Formers
10
432.298075
20
130.922064
30
0.000000
42
0.006430
0
VERTEX
8
Formers
10
432.093202
20
130.940953
30
0.000000
0
VERTEX
8
Formers
10
430.140700
20
131.095675
30
0.000000
42
0.006063
0
VERTEX
8
Formers
10
429.947129
20
131.108655
30
0.000000
0
VERTEX
8
Formers
10
427.898891
20
131.221066
30
0.000000
42
0.005720
0
VERTEX
8
Formers
10
427.716027
20
131.229004
30
0.000000
0
VERTEX
8
Formers
10
425.573250
20
131.297482
30
0.000000
42
0.005400
0
VERTEX
8
Formers
10
425.400493
20
131.301136
30
0.000000
0
VERTEX
8
Formers
10
423.175447
20
131.324159
30
0.000000
42
0.005447
0
VERTEX
8
Formers
10
423.001132
20
131.324064
30
0.000000
0
VERTEX
8
Formers
10
420.522261
20
131.295697
30
0.000000
42
0.006015
0
VERTEX
8
Formers
10
420.329853
20
131.291180
30
0.000000
0
VERTEX
8
Formers
10
417.976439
20
131.207596
30
0.000000
42
0.006406
0
VERTEX
8
Formers
10
417.771703
20
131.197697
30
0.000000
0
VERTEX
8
Formers
10
415.534120
20
131.060757
30
0.000000
42
0.006833
0
VERTEX
8
Formers
10
415.316090
20
131.044421
30
0.000000
0
VERTEX
8
Formers
10
413.196109
20
130.856408
30
0.000000
42
0.007293
0
VERTEX
8
Formers
10
412.963986
20
130.832405
30
0.000000
0
VERTEX
8
Formers
10
410.963170
20
130.595965
30
0.000000
42
0.007787
0
VERTEX
8
Formers
10
410.716198
20
130.562873
30
0.000000
0
VERTEX
8
Formers
10
408.835985
20
130.281063
30
0.000000
42
0.008317
0
VERTEX
8
Formers
10
408.573492
20
130.237244
30
0.000000
0
VERTEX
8
Formers
10
406.815105
20
129.913561
30
0.000000
42
0.008882
0
VERTEX
8
Formers
10
406.536551
20
129.857151
30
0.000000
0
VERTEX
8
Formers
10
404.900886
20
129.495557
30
0.000000
42
0.009482
0
VERTEX
8
Formers
10
404.605929
20
129.424459
30
0.000000
0
VERTEX
8
Formers
10
403.048133
20
129.017553
30
0.000000
42
0.008653
0
VERTEX
8
Formers
10
402.781491
20
128.942952
30
0.000000
0
VERTEX
8
Formers
10
401.812620
20
128.653713
30
0.000000
42
0.007610
0
VERTEX
8
Formers
10
401.580387
20
128.580516
30
0.000000
0
VERTEX
8
Formers
10
400.632257
20
128.265740
30
0.000000
42
0.007959
0
VERTEX
8
Formers
10
400.391865
20
128.181659
30
0.000000
0
VERTEX
8
Formers
10
399.506296
20
127.856008
30
0.000000
42
0.008316
0
VERTEX
8
Formers
10
399.258124
20
127.760033
30
0.000000
0
VERTEX
8
Formers
10
398.434197
20
127.425540
30
0.000000
42
0.008677
0
VERTEX
8
Formers
10
398.178789
20
127.316651
30
0.000000
0
VERTEX
8
Formers
10
397.415231
20
126.975344
30
0.000000
42
0.009041
0
VERTEX
8
Formers
10
397.153316
20
126.852540
30
0.000000
0
VERTEX
8
Formers
10
396.448471
20
126.506380
30
0.000000
42
0.009402
0
VERTEX
8
Formers
10
396.180978
20
126.368708
30
0.000000
0
VERTEX
8
Formers
10
395.532771
20
126.019523
30
0.000000
42
0.009758
0
VERTEX
8
Formers
10
395.260843
20
125.866117
30
0.000000
0
VERTEX
8
Formers
10
394.666768
20
125.515518
30
0.000000
42
0.010102
0
VERTEX
8
Formers
10
394.391766
20
125.345642
30
0.000000
0
VERTEX
8
Formers
10
393.911369
20
125.035305
30
0.000000
42
0.012755
0
VERTEX
8
Formers
10
393.574352
20
124.805200
30
0.000000
0
VERTEX
8
Formers
10
392.818716
20
124.260510
30
0.000000
42
0.015615
0
VERTEX
8
Formers
10
392.422786
20
123.955881
30
0.000000
0
VERTEX
8
Formers
10
391.812839
20
123.455508
30
0.000000
42
0.016147
0
VERTEX
8
Formers
10
391.424239
20
123.115146
30
0.000000
0
VERTEX
8
Formers
10
390.889577
20
122.615443
30
0.000000
42
0.016567
0
VERTEX
8
Formers
10
390.514573
20
122.240930
30
0.000000
0
VERTEX
8
Formers
10
390.399622
20
122.118259
30
0.000000
42
0.380478
0
VERTEX
8
Formers
10
390.125322
20
111.486160
30
0.000000
42
-0.177153
0
VERTEX
8
Formers
10
392.013471
20
106.324254
30
0.000000
0
VERTEX
8
Formers
10
392.013471
20
99.215343
30
0.000000
42
-0.250448
0
VERTEX
8
Formers
10
388.459015
20
92.564242
30
0.000000
42
0.250448
0
VERTEX
8
Formers
10
384.904559
20
85.913142
30
0.000000
0
VERTEX
8
Formers
10
384.904559
20
66.626454
30
0.000000
42
0.250448
0
VERTEX
8
Formers
10
388.459015
20
59.975354
30
0.000000
42
-0.250448
0
VERTEX
8
Formers
10
392.013471
20
53.324254
30
0.000000
0
VERTEX
8
Formers
10
392.013471
20
46.215343
30
0.000000
42
-0.245130
0
VERTEX
8
Formers
10
388.591394
20
39.654655
30
0.000000
42
0.281131
0
VERTEX
8
Formers
10
385.241747
20
32.019895
30
0.000000
0
VERTEX
8
Formers
10
385.326089
20
31.397383
30
0.000000
42
0.010986
0
VERTEX
8
Formers
10
385.380921
20
31.050188
30
0.000000
0
VERTEX
8
Formers
10
385.556780
20
30.076065
30
0.000000
42
0.011622
0
VERTEX
8
Formers
10
385.631333
20
29.711747
30
0.000000
0
VERTEX
8
Formers
10
385.832770
20
28.832011
30
0.000000
42
0.012262
0
VERTEX
8
Formers
10
385.929684
20
28.451859
30
0.000000
0
VERTEX
8
Formers
10
386.151448
20
27.663276
30
0.000000
42
0.012891
0
VERTEX
8
Formers
10
386.273302
20
27.269242
30
0.000000
0
VERTEX
8
Formers
10
386.510409
20
26.567174
30
0.000000
42
0.013497
0
VERTEX
8
Formers
10
386.659568
20
26.161942
30
0.000000
0
VERTEX
8
Formers
10
386.931497
20
25.480491
30
0.000000
42
0.012052
0
VERTEX
8
Formers
10
387.083002
20
25.125895
30
0.000000
0
VERTEX
8
Formers
10
387.240230
20
24.781149
30
0.000000
42
0.010375
0
VERTEX
8
Formers
10
387.384209
20
24.482049
30
0.000000
0
VERTEX
8
Formers
10
387.570349
20
24.115048
30
0.000000
42
0.010615
0
VERTEX
8
Formers
10
387.730384
20
23.815458
30
0.000000
0
VERTEX
8
Formers
10
387.919248
20
23.479270
30
0.000000
42
0.010825
0
VERTEX
8
Formers
10
388.095391
20
23.181037
30
0.000000
0
VERTEX
8
Formers
10
388.287138
20
22.871870
30
0.000000
42
0.011000
0
VERTEX
8
Formers
10
388.479170
20
22.576931
30
0.000000
0
VERTEX
8
Formers
10
388.674523
20
22.290858
30
0.000000
42
0.011135
0
VERTEX
8
Formers
10
388.881937
20
22.001189
30
0.000000
0
VERTEX
8
Formers
10
389.082203
20
21.734266
30
0.000000
42
0.011228
0
VERTEX
8
Formers
10
389.304196
20
21.451824
30
0.000000
0
VERTEX
8
Formers
10
389.511267
20
21.200209
30
0.000000
42
0.011276
0
VERTEX
8
Formers
10
389.746753
20
20.926868
30
0.000000
0
VERTEX
8
Formers
10
389.963065
20
20.686942
30
0.000000
42
0.011279
0
VERTEX
8
Formers
10
390.210697
20
20.424435
30
0.000000
0
VERTEX
8
Formers
10
390.384127
20
20.248703
30
0.000000
42
0.013684
0
VERTEX
8
Formers
10
390.700058
20
19.945630
30
0.000000
0
VERTEX
8
Formers
10
391.115149
20
19.568694
30
0.000000
42
0.015949
0
VERTEX
8
Formers
10
391.503623
20
19.237907
30
0.000000
0
VERTEX
8
Formers
10
391.903111
20
18.919146
30
0.000000
42
0.015625
0
VERTEX
8
Formers
10
392.303405
20
18.619724
30
0.000000
0
VERTEX
8
Formers
10
392.757069
20
18.301990
30
0.000000
42
0.015194
0
VERTEX
8
Formers
10
393.163518
20
18.035354
30
0.000000
0
VERTEX
8
Formers
10
393.682492
20
17.717023
30
0.000000
42
0.014674
0
VERTEX
8
Formers
10
394.089696
20
17.483409
30
0.000000
0
VERTEX
8
Formers
10
394.684306
20
17.165094
30
0.000000
42
0.014084
0
VERTEX
8
Formers
10
395.087395
20
16.963701
30
0.000000
0
VERTEX
8
Formers
10
395.766709
20
16.647883
30
0.000000
42
0.013445
0
VERTEX
8
Formers
10
396.161525
20
16.477085
30
0.000000
0
VERTEX
8
Formers
10
396.933080
20
16.167660
30
0.000000
42
0.012777
0
VERTEX
8
Formers
10
397.316265
20
16.025241
30
0.000000
0
VERTEX
8
Formers
10
398.185978
20
15.727054
30
0.000000
42
0.012095
0
VERTEX
8
Formers
10
398.554984
20
15.610433
30
0.000000
0
VERTEX
8
Formers
10
399.548521
20
15.322672
30
0.000000
42
0.010721
0
VERTEX
8
Formers
10
399.879985
20
15.234326
30
0.000000
0
VERTEX
8
Formers
10
400.794321
20
15.011507
30
0.000000
42
0.009475
0
VERTEX
8
Formers
10
401.090185
20
14.945320
30
0.000000
0
VERTEX
8
Formers
10
402.109199
20
14.737550
30
0.000000
42
0.008976
0
VERTEX
8
Formers
10
402.391597
20
14.685232
30
0.000000
0
VERTEX
8
Formers
10
403.493025
20
14.501564
30
0.000000
42
0.008494
0
VERTEX
8
Formers
10
403.761820
20
14.461422
30
0.000000
0
VERTEX
8
Formers
10
404.945707
20
14.305126
30
0.000000
42
0.008031
0
VERTEX
8
Formers
10
405.200984
20
14.275588
30
0.000000
0
VERTEX
8
Formers
10
406.466979
20
14.149669
30
0.000000
42
0.007590
0
VERTEX
8
Formers
10
406.708995
20
14.129302
30
0.000000
0
VERTEX
8
Formers
10
408.056448
20
14.036483
30
0.000000
42
0.007172
0
VERTEX
8
Formers
10
408.285590
20
14.023998
30
0.000000
0
VERTEX
8
Formers
10
409.713630
20
13.966717
30
0.000000
42
0.006776
0
VERTEX
8
Formers
10
409.930375
20
13.960963
30
0.000000
0
VERTEX
8
Formers
10
411.538981
20
13.940072
30
0.000000
42
0.003247
0
VERTEX
8
Formers
10
411.642872
20
13.939397
30
0.000000
0
VERTEX
8
Formers
10
434.508905
20
13.939397
30
0.000000
42
0.003597
0
VERTEX
8
Formers
10
434.623994
20
13.940225
30
0.000000
0
VERTEX
8
Formers
10
436.398451
20
13.965755
30
0.000000
42
0.007541
0
VERTEX
8
Formers
10
436.639632
20
13.972864
30
0.000000
0
VERTEX
8
Formers
10
438.205045
20
14.042647
30
0.000000
42
0.008029
0
VERTEX
8
Formers
10
438.461491
20
14.058209
30
0.000000
0
VERTEX
8
Formers
10
439.928060
20
14.170864
30
0.000000
42
0.008549
0
VERTEX
8
Formers
10
440.200394
20
14.196473
30
0.000000
0
VERTEX
8
Formers
10
441.567015
20
14.348598
30
0.000000
42
0.009098
0
VERTEX
8
Formers
10
441.855709
20
14.386064
30
0.000000
0
VERTEX
8
Formers
10
443.121641
20
14.573831
30
0.000000
42
0.009676
0
VERTEX
8
Formers
10
443.426950
20
14.625171
30
0.000000
0
VERTEX
8
Formers
10
444.591964
20
14.844339
30
0.000000
42
0.010278
0
VERTEX
8
Formers
10
444.913850
20
14.911773
30
0.000000
0
VERTEX
8
Formers
10
445.978386
20
15.157732
30
0.000000
42
0.010901
0
VERTEX
8
Formers
10
446.316433
20
15.243641
30
0.000000
0
VERTEX
8
Formers
10
447.281788
20
15.511503
30
0.000000
42
0.011537
0
VERTEX
8
Formers
10
447.635104
20
15.618377
30
0.000000
0
VERTEX
8
Formers
10
448.556879
20
15.920585
30
0.000000
42
0.010425
0
VERTEX
8
Formers
10
448.871616
20
16.031091
30
0.000000
0
VERTEX
8
Formers
10
449.387892
20
16.224541
30
0.000000
42
0.009079
0
VERTEX
8
Formers
10
449.658032
20
16.331397
30
0.000000
0
VERTEX
8
Formers
10
450.177993
20
16.548068
30
0.000000
42
0.009400
0
VERTEX
8
Formers
10
450.453403
20
16.668959
30
0.000000
0
VERTEX
8
Formers
10
450.929007
20
16.888479
30
0.000000
42
0.009710
0
VERTEX
8
Formers
10
451.208529
20
17.024140
30
0.000000
0
VERTEX
8
Formers
10
451.642288
20
17.245166
30
0.000000
42
0.010006
0
VERTEX
8
Formers
10
451.924572
20
17.396195
30
0.000000
0
VERTEX
8
Formers
10
452.319365
20
17.617694
30
0.000000
42
0.010281
0
VERTEX
8
Formers
10
452.602886
20
17.784518
30
0.000000
0
VERTEX
8
Formers
10
452.961931
20
18.005842
30
0.000000
42
0.010532
0
VERTEX
8
Formers
10
453.245005
20
18.188674
30
0.000000
0
VERTEX
8
Formers
10
453.571800
20
18.409634
30
0.000000
42
0.010753
0
VERTEX
8
Formers
10
453.852621
20
18.608441
30
0.000000
0
VERTEX
8
Formers
10
454.150875
20
18.829369
30
0.000000
42
0.010941
0
VERTEX
8
Formers
10
454.427552
20
19.043847
30
0.000000
0
VERTEX
8
Formers
10
454.640351
20
19.216391
30
0.000000
42
0.013533
0
VERTEX
8
Formers
10
454.969166
20
19.498089
30
0.000000
0
VERTEX
8
Formers
10
455.384046
20
19.873456
30
0.000000
42
0.016145
0
VERTEX
8
Formers
10
455.755676
20
20.232179
30
0.000000
0
VERTEX
8
Formers
10
456.081055
20
20.567213
30
0.000000
42
0.016217
0
VERTEX
8
Formers
10
456.430258
20
20.950924
30
0.000000
0
VERTEX
8
Formers
10
456.732937
20
21.305992
30
0.000000
42
0.016154
0
VERTEX
8
Formers
10
457.055314
20
21.709897
30
0.000000
0
VERTEX
8
Formers
10
457.343076
20
22.095339
30
0.000000
42
0.015957
0
VERTEX
8
Formers
10
457.635276
20
22.513952
30
0.000000
0
VERTEX
8
Formers
10
457.913626
20
22.941147
30
0.000000
42
0.015638
0
VERTEX
8
Formers
10
458.173504
20
23.368646
30
0.000000
0
VERTEX
8
Formers
10
458.445469
20
23.849270
30
0.000000
42
0.015210
0
VERTEX
8
Formers
10
458.672124
20
24.279872
30
0.000000
0
VERTEX
8
Formers
10
458.938306
20
24.825190
30
0.000000
42
0.014692
0
VERTEX
8
Formers
10
459.131997
20
25.253480
30
0.000000
0
VERTEX
8
Formers
10
459.390840
20
25.873750
30
0.000000
42
0.014105
0
VERTEX
8
Formers
10
459.552812
20
26.294935
30
0.000000
0
VERTEX
8
Formers
10
459.809763
20
27.023826
30
0.000000
42
0.012645
0
VERTEX
8
Formers
10
459.934579
20
27.408660
30
0.000000
0
VERTEX
8
Formers
10
460.131553
20
28.072740
30
0.000000
42
0.011274
0
VERTEX
8
Formers
10
460.226303
20
28.420780
30
0.000000
0
VERTEX
8
Formers
10
460.415882
20
29.184696
30
0.000000
42
0.010753
0
VERTEX
8
Formers
10
460.491550
20
29.520319
30
0.000000
0
VERTEX
8
Formers
10
460.662059
20
30.360414
30
0.000000
42
0.010230
0
VERTEX
8
Formers
10
460.720591
20
30.682468
30
0.000000
0
VERTEX
8
Formers
10
460.868126
20
31.600624
30
0.000000
42
0.009713
0
VERTEX
8
Formers
10
460.911463
20
31.908373
30
0.000000
0
VERTEX
8
Formers
10
460.938369
20
32.130629
30
0.000000
42
0.277361
0
VERTEX
8
Formers
10
457.572930
20
39.653715
30
0.000000
42
-0.245185
0
VERTEX
8
Formers
10
454.149506
20
46.215343
30
0.000000
0
VERTEX
8
Formers
10
454.149506
20
53.324254
30
0.000000
42
-0.250448
0
VERTEX
8
Formers
10
457.703962
20
59.975354
30
0.000000
42
0.250448
0
VERTEX
8
Formers
10
461.258418
20
66.626454
30
0.000000
0
VERTEX
8
Formers
10
461.258418
20
85.913142
30
0.000000
42
0.250448
0
VERTEX
8
Formers
10
457.703962
20
92.564242
30
0.000000
0
SEQEND
8
0
0
ENDBLK
0
BLOCK
8
Formers
2
*R5
70
1
10
489.925084
20
-29.206134
3
*R5
0
POLYLINE
8
Formers
6
Continuous
70
0
66
 1
10
0.0
20
0.0
30
0.000000
0
VERTEX
8
Formers
10
571.433680
20
99.363858
30
0.000000
0
VERTEX
8
Formers
10
571.433680
20
53.175739
30
0.000000
0
VERTEX
8
Formers
10
564.621797
20
53.175739
30
0.000000
0
VERTEX
8
Formers
10
564.621797
20
46.363858
30
0.000000
0
VERTEX
8
Formers
10
571.433680
20
46.363858
30
0.000000
0
VERTEX
8
Formers
10
571.433680
20
38.299973
30
0.000000
0
VERTEX
8
Formers
10
571.406090
20
36.620144
30
0.000000
0
VERTEX
8
Formers
10
571.323320
20
34.988454
30
0.000000
0
VERTEX
8
Formers
10
571.185370
20
33.404901
30
0.000000
0
VERTEX
8
Formers
10
570.992240
20
31.869486
30
0.000000
0
VERTEX
8
Formers
10
570.743930
20
30.382209
30
0.000000
0
VERTEX
8
Formers
10
570.440440
20
28.943070
30
0.000000
0
VERTEX
8
Formers
10
570.081770
20
27.552068
30
0.000000
0
VERTEX
8
Formers
10
569.667920
20
26.209205
30
0.000000
0
VERTEX
8
Formers
10
569.127381
20
24.733448
30
0.000000
0
VERTEX
8
Formers
10
568.514770
20
23.320566
30
0.000000
0
VERTEX
8
Formers
10
567.830088
20
21.970557
30
0.000000
0
VERTEX
8
Formers
10
567.073333
20
20.683423
30
0.000000
0
VERTEX
8
Formers
10
566.244507
20
19.459163
30
0.000000
0
VERTEX
8
Formers
10
565.343608
20
18.297776
30
0.000000
0
VERTEX
8
Formers
10
564.370638
20
17.199264
30
0.000000
0
VERTEX
8
Formers
10
563.325596
20
16.163625
30
0.000000
0
VERTEX
8
Formers
10
562.208483
20
15.190861
30
0.000000
0
VERTEX
8
Formers
10
561.388853
20
14.551238
30
0.000000
0
VERTEX
8
Formers
10
560.534345
20
13.942041
30
0.000000
0
VERTEX
8
Formers
10
559.644959
20
13.363272
30
0.000000
0
VERTEX
8
Formers
10
558.720695
20
12.814929
30
0.000000
0
VERTEX
8
Formers
10
557.761554
20
12.297013
30
0.000000
0
VERTEX
8
Formers
10
556.767534
20
11.809523
30
0.000000
0
VERTEX
8
Formers
10
555.738637
20
11.352461
30
0.000000
0
VERTEX
8
Formers
10
554.674862
20
10.925825
30
0.000000
0
VERTEX
8
Formers
10
553.576209
20
10.529616
30
0.000000
0
VERTEX
8
Formers
10
551.989628
20
10.028984
30
0.000000
0
VERTEX
8
Formers
10
550.335533
20
9.587250
30
0.000000
0
VERTEX
8
Formers
10
548.613925
20
9.204413
30
0.000000
0
VERTEX
8
Formers
10
546.824802
20
8.880475
30
0.000000
0
VERTEX
8
Formers
10
544.968165
20
8.615434
30
0.000000
0
VERTEX
8
Formers
10
543.044014
20
8.409292
30
0.000000
0
VERTEX
8
Formers
10
541.052349
20
8.262047
30
0.000000
0
VERTEX
8
Formers
10
538.993169
20
8.173700
30
0.000000
0
VERTEX
8
Formers
10
536.866476
20
8.144251
30
0.000000
0
VERTEX
8
Formers
10
513.825622
20
8.144251
30
0.000000
0
VERTEX
8
Formers
10
511.900051
20
8.168320
30
0.000000
0
VERTEX
8
Formers
10
510.029660
20
8.240527
30
0.000000
0
VERTEX
8
Formers
10
508.214449
20
8.360872
30
0.000000
0
VERTEX
8
Formers
10
506.454418
20
8.529354
30
0.000000
0
VERTEX
8
Formers
10
504.749567
20
8.745975
30
0.000000
0
VERTEX
8
Formers
10
503.099896
20
9.010734
30
0.000000
0
VERTEX
8
Formers
10
501.505406
20
9.323630
30
0.000000
0
VERTEX
8
Formers
10
499.966095
20
9.684664
30
0.000000
0
VERTEX
8
Formers
10
498.274450
20
10.156220
30
0.000000
0
VERTEX
8
Formers
10
496.654877
20
10.690649
30
0.000000
0
VERTEX
8
Formers
10
495.107375
20
11.287952
30
0.000000
0
VERTEX
8
Formers
10
493.631946
20
11.948129
30
0.000000
0
VERTEX
8
Formers
10
492.228588
20
12.671180
30
0.000000
0
VERTEX
8
Formers
10
490.897302
20
13.457105
30
0.000000
0
VERTEX
8
Formers
10
489.638089
20
14.305905
30
0.000000
0
VERTEX
8
Formers
10
488.450947
20
15.217578
30
0.000000
0
VERTEX
8
Formers
10
487.335876
20
16.192125
30
0.000000
0
VERTEX
8
Formers
10
486.602683
20
16.907153
30
0.000000
0
VERTEX
8
Formers
10
485.904367
20
17.652609
30
0.000000
0
VERTEX
8
Formers
10
485.240929
20
18.428491
30
0.000000
0
VERTEX
8
Formers
10
484.612369
20
19.234799
30
0.000000
0
VERTEX
8
Formers
10
484.018687
20
20.071535
30
0.000000
0
VERTEX
8
Formers
10
483.459883
20
20.938697
30
0.000000
0
VERTEX
8
Formers
10
482.935957
20
21.836286
30
0.000000
0
VERTEX
8
Formers
10
482.446908
20
22.764302
30
0.000000
0
VERTEX
8
Formers
10
481.992738
20
23.722744
30
0.000000
0
VERTEX
8
Formers
10
481.418868
20
25.106845
30
0.000000
0
VERTEX
8
Formers
10
480.912513
20
26.549843
30
0.000000
0
VERTEX
8
Formers
10
480.473671
20
28.051739
30
0.000000
0
VERTEX
8
Formers
10
480.102344
20
29.612534
30
0.000000
0
VERTEX
8
Formers
10
479.798530
20
31.232226
30
0.000000
0
VERTEX
8
Formers
10
479.562231
20
32.910816
30
0.000000
0
VERTEX
8
Formers
10
479.393446
20
34.648304
30
0.000000
0
VERTEX
8
Formers
10
479.292175
20
36.444689
30
0.000000
0
VERTEX
8
Formers
10
479.258418
20
38.299973
30
0.000000
0
VERTEX
8
Formers
10
479.258418
20
46.363858
30
0.000000
0
VERTEX
8
Formers
10
486.070301
20
46.363858
30
0.000000
0
VERTEX
8
Formers
10
486.070301
20
53.175739
30
0.000000
0
VERTEX
8
Formers
10
479.258418
20
53.175739
30
0.000000
0
VERTEX
8
Formers
10
479.258418
20
99.363858
30
0.000000
0
VERTEX
8
Formers
10
486.070301
20
99.363858
30
0.000000
0
VERTEX
8
Formers
10
486.070301
20
106.175739
30
0.000000
0
VERTEX
8
Formers
10
479.258418
20
106.175739
30
0.000000
0
VERTEX
8
Formers
10
479.258418
20
106.274402
30
0.000000
0
VERTEX
8
Formers
10
479.295201
20
108.096443
30
0.000000
0
VERTEX
8
Formers
10
479.405552
20
109.866271
30
0.000000
0
VERTEX
8
Formers
10
479.589469
20
111.583886
30
0.000000
0
VERTEX
8
Formers
10
479.846953
20
113.249287
30
0.000000
0
VERTEX
8
Formers
10
480.178004
20
114.862476
30
0.000000
0
VERTEX
8
Formers
10
480.582622
20
116.423451
30
0.000000
0
VERTEX
8
Formers
10
481.060806
20
117.932213
30
0.000000
0
VERTEX
8
Formers
10
481.612558
20
119.388762
30
0.000000
0
VERTEX
8
Formers
10
482.333213
20
120.989454
30
0.000000
0
VERTEX
8
Formers
10
483.149956
20
122.521950
30
0.000000
0
VERTEX
8
Formers
10
484.062786
20
123.986249
30
0.000000
0
VERTEX
8
Formers
10
485.071703
20
125.382351
30
0.000000
0
VERTEX
8
Formers
10
486.176708
20
126.710256
30
0.000000
0
VERTEX
8
Formers
10
487.377800
20
127.969964
30
0.000000
0
VERTEX
8
Formers
10
488.674979
20
129.161476
30
0.000000
0
VERTEX
8
Formers
10
490.068246
20
130.284790
30
0.000000
0
VERTEX
8
Formers
10
491.557600
20
131.339908
30
0.000000
0
VERTEX
8
Formers
10
492.650344
20
132.033681
30
0.000000
0
VERTEX
8
Formers
10
493.789587
20
132.694451
30
0.000000
0
VERTEX
8
Formers
10
494.975331
20
133.322219
30
0.000000
0
VERTEX
8
Formers
10
496.207574
20
133.916984
30
0.000000
0
VERTEX
8
Formers
10
497.486317
20
134.478746
30
0.000000
0
VERTEX
8
Formers
10
498.811560
20
135.007506
30
0.000000
0
VERTEX
8
Formers
10
500.183302
20
135.503263
30
0.000000
0
VERTEX
8
Formers
10
501.601544
20
135.966017
30
0.000000
0
VERTEX
8
Formers
10
503.066286
20
136.395769
30
0.000000
0
VERTEX
8
Formers
10
505.181541
20
136.938784
30
0.000000
0
VERTEX
8
Formers
10
507.386807
20
137.417915
30
0.000000
0
VERTEX
8
Formers
10
509.682083
20
137.833162
30
0.000000
0
VERTEX
8
Formers
10
512.067371
20
138.184525
30
0.000000
0
VERTEX
8
Formers
10
514.542669
20
138.472003
30
0.000000
0
VERTEX
8
Formers
10
517.107978
20
138.695598
30
0.000000
0
VERTEX
8
Formers
10
519.763298
20
138.855308
30
0.000000
0
VERTEX
8
Formers
10
522.508629
20
138.951134
30
0.000000
0
VERTEX
8
Formers
10
525.343970
20
138.983076
30
0.000000
0
VERTEX
8
Formers
10
525.348128
20
138.983076
30
0.000000
0
VERTEX
8
Formers
10
527.915330
20
138.956970
30
0.000000
0
VERTEX
8
Formers
10
530.408966
20
138.878650
30
0.000000
0
VERTEX
8
Formers
10
532.829034
20
138.748117
30
0.000000
0
VERTEX
8
Formers
10
535.175535
20
138.565371
30
0.000000
0
VERTEX
8
Formers
10
537.448470
20
138.330411
30
0.000000
0
VERTEX
8
Formers
10
539.647838
20
138.043238
30
0.000000
0
VERTEX
8
Formers
10
541.773639
20
137.703852
30
0.000000
0
VERTEX
8
Formers
10
543.825873
20
137.312253
30
0.000000
0
VERTEX
8
Formers
10
546.081201
20
136.800777
30
0.000000
0
VERTEX
8
Formers
10
548.240442
20
136.221103
30
0.000000
0
VERTEX
8
Formers
10
550.303596
20
135.573233
30
0.000000
0
VERTEX
8
Formers
10
552.270662
20
134.857166
30
0.000000
0
VERTEX
8
Formers
10
554.141641
20
134.072902
30
0.000000
0
VERTEX
8
Formers
10
555.916532
20
133.220441
30
0.000000
0
VERTEX
8
Formers
10
557.595337
20
132.299784
30
0.000000
0
VERTEX
8
Formers
10
559.178053
20
131.310929
30
0.000000
0
VERTEX
8
Formers
10
560.664683
20
130.253878
30
0.000000
0
VERTEX
8
Formers
10
561.642188
20
129.478316
30
0.000000
0
VERTEX
8
Formers
10
562.573194
20
128.669751
30
0.000000
0
VERTEX
8
Formers
10
563.457700
20
127.828183
30
0.000000
0
VERTEX
8
Formers
10
564.295706
20
126.953613
30
0.000000
0
VERTEX
8
Formers
10
565.087213
20
126.046041
30
0.000000
0
VERTEX
8
Formers
10
565.832219
20
125.105466
30
0.000000
0
VERTEX
8
Formers
10
566.530726
20
124.131888
30
0.000000
0
VERTEX
8
Formers
10
567.182734
20
123.125307
30
0.000000
0
VERTEX
8
Formers
10
567.788241
20
122.085724
30
0.000000
0
VERTEX
8
Formers
10
568.553333
20
120.584447
30
0.000000
0
VERTEX
8
Formers
10
569.228415
20
119.019286
30
0.000000
0
VERTEX
8
Formers
10
569.813485
20
117.390240
30
0.000000
0
VERTEX
8
Formers
10
570.308545
20
115.697311
30
0.000000
0
VERTEX
8
Formers
10
570.713594
20
113.940497
30
0.000000
0
VERTEX
8
Formers
10
571.028632
20
112.119799
30
0.000000
0
VERTEX
8
Formers
10
571.253659
20
110.235218
30
0.000000
0
VERTEX
8
Formers
10
571.388675
20
108.286752
30
0.000000
0
VERTEX
8
Formers
10
571.433680
20
106.274402
30
0.000000
0
VERTEX
8
Formers
10
571.433680
20
106.175739
30
0.000000
0
VERTEX
8
Formers
10
564.621797
20
106.175739
30
0.000000
0
VERTEX
8
Formers
10
564.621797
20
99.363858
30
0.000000
0
VERTEX
8
Formers
10
571.433680
20
99.363858
30
0.000000
0
SEQEND
8
0
0
POLYLINE
8
Formers
6
Continuous
70
0
66
 1
10
0.0
20
0.0
30
0.000000
0
VERTEX
8
Formers
10
560.027739
20
92.814458
30
0.000000
42
-0.244478
0
VERTEX
8
Formers
10
556.621797
20
99.363858
30
0.000000
0
VERTEX
8
Formers
10
556.621797
20
106.175739
30
0.000000
42
-0.174288
0
VERTEX
8
Formers
10
558.452935
20
111.269376
30
0.000000
42
0.380481
0
VERTEX
8
Formers
10
558.060385
20
121.897831
30
0.000000
0
VERTEX
8
Formers
10
557.937243
20
122.026347
30
0.000000
42
0.011555
0
VERTEX
8
Formers
10
557.675356
20
122.287312
30
0.000000
0
VERTEX
8
Formers
10
557.321934
20
122.623577
30
0.000000
42
0.011350
0
VERTEX
8
Formers
10
557.053222
20
122.867866
30
0.000000
0
VERTEX
8
Formers
10
556.664812
20
123.205195
30
0.000000
42
0.011105
0
VERTEX
8
Formers
10
556.391432
20
123.432170
30
0.000000
0
VERTEX
8
Formers
10
556.022153
20
123.725160
30
0.000000
42
0.013154
0
VERTEX
8
Formers
10
555.685696
20
123.977977
30
0.000000
0
VERTEX
8
Formers
10
554.931221
20
124.514438
30
0.000000
42
0.014914
0
VERTEX
8
Formers
10
554.534276
20
124.779221
30
0.000000
0
VERTEX
8
Formers
10
553.742070
20
125.274178
30
0.000000
42
0.014208
0
VERTEX
8
Formers
10
553.349872
20
125.503988
30
0.000000
0
VERTEX
8
Formers
10
552.447686
20
125.998748
30
0.000000
42
0.013466
0
VERTEX
8
Formers
10
552.064493
20
126.195661
30
0.000000
0
VERTEX
8
Formers
10
551.044731
20
126.685441
30
0.000000
42
0.012708
0
VERTEX
8
Formers
10
550.673862
20
126.852103
30
0.000000
0
VERTEX
8
Formers
10
549.530786
20
127.331250
30
0.000000
42
0.011953
0
VERTEX
8
Formers
10
549.174657
20
127.470618
30
0.000000
0
VERTEX
8
Formers
10
547.904251
20
127.933082
30
0.000000
42
0.011213
0
VERTEX
8
Formers
10
547.564469
20
128.048211
30
0.000000
0
VERTEX
8
Formers
10
546.164224
20
128.487915
30
0.000000
42
0.010498
0
VERTEX
8
Formers
10
545.841708
20
128.581800
30
0.000000
0
VERTEX
8
Formers
10
544.310363
20
128.992907
30
0.000000
42
0.009816
0
VERTEX
8
Formers
10
544.005473
20
129.068374
30
0.000000
0
VERTEX
8
Formers
10
542.325428
20
129.449385
30
0.000000
42
0.008616
0
VERTEX
8
Formers
10
542.055545
20
129.505719
30
0.000000
0
VERTEX
8
Formers
10
540.511773
20
129.800296
30
0.000000
42
0.007559
0
VERTEX
8
Formers
10
540.273534
20
129.842033
30
0.000000
0
VERTEX
8
Formers
10
538.611599
20
130.107363
30
0.000000
42
0.007120
0
VERTEX
8
Formers
10
538.386137
20
130.140073
30
0.000000
0
VERTEX
8
Formers
10
536.625537
20
130.369955
30
0.000000
42
0.006707
0
VERTEX
8
Formers
10
536.412363
20
130.394886
30
0.000000
0
VERTEX
8
Formers
10
534.554143
20
130.586975
30
0.000000
42
0.006321
0
VERTEX
8
Formers
10
534.352706
20
130.605228
30
0.000000
0
VERTEX
8
Formers
10
532.398009
20
130.757460
30
0.000000
42
0.005960
0
VERTEX
8
Formers
10
532.207723
20
130.770000
30
0.000000
0
VERTEX
8
Formers
10
530.157740
20
130.880572
30
0.000000
42
0.005622
0
VERTEX
8
Formers
10
529.978004
20
130.888241
30
0.000000
0
VERTEX
8
Formers
10
527.833943
20
130.955581
30
0.000000
42
0.005307
0
VERTEX
8
Formers
10
527.664153
20
130.959110
30
0.000000
0
VERTEX
8
Formers
10
525.438117
20
130.981748
30
0.000000
42
0.005354
0
VERTEX
8
Formers
10
525.266779
20
130.981655
30
0.000000
0
VERTEX
8
Formers
10
522.787751
20
130.953768
30
0.000000
42
0.005911
0
VERTEX
8
Formers
10
522.598668
20
130.949405
30
0.000000
0
VERTEX
8
Formers
10
520.243729
20
130.867206
30
0.000000
42
0.006296
0
VERTEX
8
Formers
10
520.042489
20
130.857643
30
0.000000
0
VERTEX
8
Formers
10
517.802843
20
130.722934
30
0.000000
42
0.006717
0
VERTEX
8
Formers
10
517.588500
20
130.707150
30
0.000000
0
VERTEX
8
Formers
10
515.465910
20
130.522143
30
0.000000
42
0.007170
0
VERTEX
8
Formers
10
515.237654
20
130.498946
30
0.000000
0
VERTEX
8
Formers
10
513.233713
20
130.266210
30
0.000000
42
0.007658
0
VERTEX
8
Formers
10
512.990769
20
130.234217
30
0.000000
0
VERTEX
8
Formers
10
511.106967
20
129.956725
30
0.000000
42
0.008182
0
VERTEX
8
Formers
10
510.848629
20
129.914341
30
0.000000
0
VERTEX
8
Formers
10
509.086269
20
129.595506
30
0.000000
42
0.008741
0
VERTEX
8
Formers
10
508.811951
20
129.540910
30
0.000000
0
VERTEX
8
Formers
10
507.172037
20
129.184611
30
0.000000
42
0.009337
0
VERTEX
8
Formers
10
506.881335
20
129.115742
30
0.000000
0
VERTEX
8
Formers
10
505.319762
20
128.714865
30
0.000000
42
0.008525
0
VERTEX
8
Formers
10
505.056729
20
128.642539
30
0.000000
0
VERTEX
8
Formers
10
504.084152
20
128.357187
30
0.000000
42
0.007502
0
VERTEX
8
Formers
10
503.854853
20
128.286158
30
0.000000
0
VERTEX
8
Formers
10
502.903708
20
127.975812
30
0.000000
42
0.007851
0
VERTEX
8
Formers
10
502.666127
20
127.894142
30
0.000000
0
VERTEX
8
Formers
10
501.777752
20
127.573078
30
0.000000
42
0.008209
0
VERTEX
8
Formers
10
501.532216
20
127.479754
30
0.000000
0
VERTEX
8
Formers
10
500.705798
20
127.150021
30
0.000000
42
0.008573
0
VERTEX
8
Formers
10
500.452795
20
127.044011
30
0.000000
0
VERTEX
8
Formers
10
499.687181
20
126.707671
30
0.000000
42
0.008940
0
VERTEX
8
Formers
10
499.427379
20
126.587951
30
0.000000
0
VERTEX
8
Formers
10
498.721033
20
126.247021
30
0.000000
42
0.009307
0
VERTEX
8
Formers
10
498.455299
20
126.112605
30
0.000000
0
VERTEX
8
Formers
10
497.806274
20
125.768992
30
0.000000
42
0.009669
0
VERTEX
8
Formers
10
497.535689
20
125.618966
30
0.000000
0
VERTEX
8
Formers
10
496.941601
20
125.274391
30
0.000000
42
0.010023
0
VERTEX
8
Formers
10
496.667466
20
125.107959
30
0.000000
0
VERTEX
8
Formers
10
496.187928
20
124.803505
30
0.000000
42
0.012673
0
VERTEX
8
Formers
10
495.851248
20
124.577579
30
0.000000
0
VERTEX
8
Formers
10
495.098813
20
124.044524
30
0.000000
42
0.015544
0
VERTEX
8
Formers
10
494.702174
20
123.744589
30
0.000000
0
VERTEX
8
Formers
10
494.097605
20
123.257159
30
0.000000
42
0.016108
0
VERTEX
8
Formers
10
493.707053
20
122.920958
30
0.000000
0
VERTEX
8
Formers
10
493.180058
20
122.436891
30
0.000000
42
0.016564
0
VERTEX
8
Formers
10
492.801892
20
122.065701
30
0.000000
0
VERTEX
8
Formers
10
492.622779
20
121.877847
30
0.000000
42
0.379642
0
VERTEX
8
Formers
10
492.241519
20
111.266522
30
0.000000
42
-0.174168
0
VERTEX
8
Formers
10
494.070301
20
106.175739
30
0.000000
0
VERTEX
8
Formers
10
494.070301
20
99.363858
30
0.000000
42
-0.244478
0
VERTEX
8
Formers
10
490.664360
20
92.814458
30
0.000000
42
0.244478
0
VERTEX
8
Formers
10
487.258418
20
86.265059
30
0.000000
0
VERTEX
8
Formers
10
487.258418
20
66.274537
30
0.000000
42
0.244478
0
VERTEX
8
Formers
10
490.664360
20
59.725138
30
0.000000
42
-0.244478
0
VERTEX
8
Formers
10
494.070301
20
53.175739
30
0.000000
0
VERTEX
8
Formers
10
494.070301
20
46.363858
30
0.000000
42
-0.236612
0
VERTEX
8
Formers
10
490.857111
20
39.953986
30
0.000000
42
0.286141
0
VERTEX
8
Formers
10
487.781049
20
32.069238
30
0.000000
0
VERTEX
8
Formers
10
487.894190
20
31.466057
30
0.000000
42
0.012037
0
VERTEX
8
Formers
10
487.974285
20
31.089338
30
0.000000
0
VERTEX
8
Formers
10
488.162531
20
30.298088
30
0.000000
42
0.012678
0
VERTEX
8
Formers
10
488.266391
20
29.905968
30
0.000000
0
VERTEX
8
Formers
10
488.472027
20
29.202196
30
0.000000
42
0.013302
0
VERTEX
8
Formers
10
488.602209
20
28.797022
30
0.000000
0
VERTEX
8
Formers
10
488.820389
20
28.175259
30
0.000000
42
0.013891
0
VERTEX
8
Formers
10
488.979137
20
27.760145
30
0.000000
0
VERTEX
8
Formers
10
489.231091
20
27.152465
30
0.000000
42
0.012370
0
VERTEX
8
Formers
10
489.391674
20
26.790721
30
0.000000
0
VERTEX
8
Formers
10
489.530763
20
26.497199
30
0.000000
42
0.010620
0
VERTEX
8
Formers
10
489.682767
20
26.193278
30
0.000000
0
VERTEX
8
Formers
10
489.851646
20
25.872813
30
0.000000
42
0.010838
0
VERTEX
8
Formers
10
490.019929
20
25.569603
30
0.000000
0
VERTEX
8
Formers
10
490.191196
20
25.276189
30
0.000000
42
0.011021
0
VERTEX
8
Formers
10
490.375624
20
24.975642
30
0.000000
0
VERTEX
8
Formers
10
490.549831
20
24.705305
30
0.000000
42
0.011164
0
VERTEX
8
Formers
10
490.749982
20
24.409431
30
0.000000
0
VERTEX
8
Formers
10
490.928274
20
24.158146
30
0.000000
42
0.011265
0
VERTEX
8
Formers
10
491.143422
20
23.868948
30
0.000000
0
VERTEX
8
Formers
10
491.327543
20
23.632761
30
0.000000
42
0.011322
0
VERTEX
8
Formers
10
491.556671
20
23.352178
30
0.000000
0
VERTEX
8
Formers
10
491.748932
20
23.127332
30
0.000000
42
0.011332
0
VERTEX
8
Formers
10
491.990750
20
22.857172
30
0.000000
0
VERTEX
8
Formers
10
492.193976
20
22.640227
30
0.000000
42
0.011296
0
VERTEX
8
Formers
10
492.446956
20
22.382111
30
0.000000
0
VERTEX
8
Formers
10
492.608519
20
22.224551
30
0.000000
42
0.013652
0
VERTEX
8
Formers
10
492.929429
20
21.928247
30
0.000000
0
VERTEX
8
Formers
10
493.333730
20
21.574896
30
0.000000
42
0.015840
0
VERTEX
8
Formers
10
493.725677
20
21.253660
30
0.000000
0
VERTEX
8
Formers
10
494.118558
20
20.951944
30
0.000000
42
0.015447
0
VERTEX
8
Formers
10
494.519616
20
20.663196
30
0.000000
0
VERTEX
8
Formers
10
494.971927
20
20.358306
30
0.000000
42
0.014955
0
VERTEX
8
Formers
10
495.376492
20
20.102856
30
0.000000
0
VERTEX
8
Formers
10
495.899081
20
19.794345
30
0.000000
42
0.014385
0
VERTEX
8
Formers
10
496.301972
20
19.571871
30
0.000000
0
VERTEX
8
Formers
10
496.904605
20
19.261377
30
0.000000
42
0.013758
0
VERTEX
8
Formers
10
497.301286
20
19.070617
30
0.000000
0
VERTEX
8
Formers
10
497.992289
20
18.761429
30
0.000000
42
0.013093
0
VERTEX
8
Formers
10
498.379002
20
18.600411
30
0.000000
0
VERTEX
8
Formers
10
499.165088
20
18.296998
30
0.000000
42
0.012408
0
VERTEX
8
Formers
10
499.538892
20
18.163276
30
0.000000
0
VERTEX
8
Formers
10
500.425152
20
17.870827
30
0.000000
42
0.011720
0
VERTEX
8
Formers
10
500.783901
20
17.761701
30
0.000000
0
VERTEX
8
Formers
10
501.794575
20
17.479970
30
0.000000
42
0.010369
0
VERTEX
8
Formers
10
502.115948
20
17.397527
30
0.000000
0
VERTEX
8
Formers
10
503.047040
20
17.179146
30
0.000000
42
0.009152
0
VERTEX
8
Formers
10
503.333304
20
17.117510
30
0.000000
0
VERTEX
8
Formers
10
504.368450
20
16.914377
30
0.000000
42
0.008660
0
VERTEX
8
Formers
10
504.641246
20
16.865735
30
0.000000
0
VERTEX
8
Formers
10
505.758561
20
16.686415
30
0.000000
42
0.008188
0
VERTEX
8
Formers
10
506.017889
20
16.649140
30
0.000000
0
VERTEX
8
Formers
10
507.217174
20
16.496757
30
0.000000
42
0.007737
0
VERTEX
8
Formers
10
507.463226
20
16.469355
30
0.000000
0
VERTEX
8
Formers
10
508.743947
20
16.346756
30
0.000000
42
0.007309
0
VERTEX
8
Formers
10
508.977057
20
16.327875
30
0.000000
0
VERTEX
8
Formers
10
510.338432
20
16.237618
30
0.000000
42
0.006904
0
VERTEX
8
Formers
10
510.559042
20
16.226049
30
0.000000
0
VERTEX
8
Formers
10
512.000110
20
16.170416
30
0.000000
42
0.006522
0
VERTEX
8
Formers
10
512.208733
20
16.165087
30
0.000000
0
VERTEX
8
Formers
10
513.825626
20
16.144876
30
0.000000
42
0.003125
0
VERTEX
8
Formers
10
513.925615
20
16.144251
30
0.000000
0
VERTEX
8
Formers
10
536.755703
20
16.144251
30
0.000000
42
0.003462
0
VERTEX
8
Formers
10
536.866471
20
16.145018
30
0.000000
0
VERTEX
8
Formers
10
538.650158
20
16.169717
30
0.000000
42
0.007258
0
VERTEX
8
Formers
10
538.882306
20
16.176303
30
0.000000
0
VERTEX
8
Formers
10
540.462292
20
16.244091
30
0.000000
42
0.007730
0
VERTEX
8
Formers
10
540.709210
20
16.258512
30
0.000000
0
VERTEX
8
Formers
10
542.191425
20
16.368092
30
0.000000
42
0.008233
0
VERTEX
8
Formers
10
542.453789
20
16.391838
30
0.000000
0
VERTEX
8
Formers
10
543.836992
20
16.540027
30
0.000000
42
0.008767
0
VERTEX
8
Formers
10
544.115357
20
16.574796
30
0.000000
0
VERTEX
8
Formers
10
545.398606
20
16.757984
30
0.000000
42
0.009331
0
VERTEX
8
Formers
10
545.693349
20
16.805687
30
0.000000
0
VERTEX
8
Formers
10
546.876126
20
17.019841
30
0.000000
42
0.009923
0
VERTEX
8
Formers
10
547.187374
20
17.082599
30
0.000000
0
VERTEX
8
Formers
10
548.269741
20
17.323286
30
0.000000
42
0.010539
0
VERTEX
8
Formers
10
548.597292
20
17.403404
30
0.000000
0
VERTEX
8
Formers
10
549.580064
20
17.665858
30
0.000000
42
0.011173
0
VERTEX
8
Formers
10
549.923292
20
17.765786
30
0.000000
0
VERTEX
8
Formers
10
550.860148
20
18.061403
30
0.000000
42
0.010116
0
VERTEX
8
Formers
10
551.166781
20
18.165024
30
0.000000
0
VERTEX
8
Formers
10
551.695190
20
18.355585
30
0.000000
42
0.008826
0
VERTEX
8
Formers
10
551.959124
20
18.456067
30
0.000000
0
VERTEX
8
Formers
10
552.488777
20
18.668489
30
0.000000
42
0.009156
0
VERTEX
8
Formers
10
552.758651
20
18.782504
30
0.000000
0
VERTEX
8
Formers
10
553.242532
20
18.997457
30
0.000000
42
0.009479
0
VERTEX
8
Formers
10
553.517328
20
19.125819
30
0.000000
0
VERTEX
8
Formers
10
553.957669
20
19.341772
30
0.000000
42
0.009790
0
VERTEX
8
Formers
10
554.236177
20
19.485190
30
0.000000
0
VERTEX
8
Formers
10
554.635592
20
19.700865
30
0.000000
42
0.010086
0
VERTEX
8
Formers
10
554.916411
20
19.859900
30
0.000000
0
VERTEX
8
Formers
10
555.277881
20
20.074351
30
0.000000
42
0.010361
0
VERTEX
8
Formers
10
555.559436
20
20.249378
30
0.000000
0
VERTEX
8
Formers
10
555.886272
20
20.462067
30
0.000000
42
0.010611
0
VERTEX
8
Formers
10
556.166836
20
20.653240
30
0.000000
0
VERTEX
8
Formers
10
556.462619
20
20.864109
30
0.000000
42
0.010830
0
VERTEX
8
Formers
10
556.740348
20
21.071325
30
0.000000
0
VERTEX
8
Formers
10
556.947509
20
21.232989
30
0.000000
42
0.013444
0
VERTEX
8
Formers
10
557.279378
20
21.506641
30
0.000000
0
VERTEX
8
Formers
10
557.683057
20
21.858159
30
0.000000
42
0.016112
0
VERTEX
8
Formers
10
558.060674
20
22.208999
30
0.000000
0
VERTEX
8
Formers
10
558.369637
20
22.515182
30
0.000000
42
0.016264
0
VERTEX
8
Formers
10
558.727106
20
22.893257
30
0.000000
0
VERTEX
8
Formers
10
559.009402
20
23.211977
30
0.000000
42
0.016280
0
VERTEX
8
Formers
10
559.341851
20
23.612891
30
0.000000
0
VERTEX
8
Formers
10
559.606345
20
23.953861
30
0.000000
42
0.016159
0
VERTEX
8
Formers
10
559.909830
20
24.372347
30
0.000000
0
VERTEX
8
Formers
10
560.163271
20
24.746705
30
0.000000
42
0.015907
0
VERTEX
8
Formers
10
560.435008
20
25.176958
30
0.000000
0
VERTEX
8
Formers
10
560.681695
20
25.596539
30
0.000000
42
0.015535
0
VERTEX
8
Formers
10
560.920164
20
26.032603
30
0.000000
0
VERTEX
8
Formers
10
561.161870
20
26.509182
30
0.000000
42
0.015062
0
VERTEX
8
Formers
10
561.366789
20
26.945311
30
0.000000
0
VERTEX
8
Formers
10
561.602924
20
27.489917
30
0.000000
42
0.014506
0
VERTEX
8
Formers
10
561.775116
20
27.920887
30
0.000000
0
VERTEX
8
Formers
10
562.012435
20
28.568806
30
0.000000
42
0.013039
0
VERTEX
8
Formers
10
562.145657
20
28.964151
30
0.000000
0
VERTEX
8
Formers
10
562.326793
20
29.551901
30
0.000000
42
0.011649
0
VERTEX
8
Formers
10
562.428240
20
29.910559
30
0.000000
0
VERTEX
8
Formers
10
562.604887
20
30.595635
30
0.000000
42
0.011129
0
VERTEX
8
Formers
10
562.686102
20
30.942346
30
0.000000
0
VERTEX
8
Formers
10
562.846080
20
31.700958
30
0.000000
42
0.010602
0
VERTEX
8
Formers
10
562.909026
20
32.034301
30
0.000000
0
VERTEX
8
Formers
10
562.940906
20
32.225246
30
0.000000
42
0.280783
0
VERTEX
8
Formers
10
559.835961
20
39.953259
30
0.000000
42
-0.236652
0
VERTEX
8
Formers
10
556.621797
20
46.363858
30
0.000000
0
VERTEX
8
Formers
10
556.621797
20
53.175739
30
0.000000
42
-0.244478
0
VERTEX
8
Formers
10
560.027739
20
59.725138
30
0.000000
42
0.244478
0
VERTEX
8
Formers
10
563.433680
20
66.274537
30
0.000000
0
VERTEX
8
Formers
10
563.433680
20
86.265059
30
0.000000
42
0.244478
0
VERTEX
8
Formers
10
560.027739
20
92.814458
30
0.000000
0
SEQEND
8
0
0
ENDBLK
0
BLOCK
8
Formers
2
*R6
70
1
10
592.100347
20
-28.100533
3
*R6
0
POLYLINE
8
Formers
6
Continuous
70
0
66
 1
10
0.0
20
0.0
30
0.000000
0
VERTEX
8
Formers
10
669.234900
20
99.512372
30
0.000000
0
VERTEX
8
Formers
10
669.234900
20
53.027224
30
0.000000
0
VERTEX
8
Formers
10
662.715593
20
53.027224
30
0.000000
0
VERTEX
8
Formers
10
662.715593
20
46.512372
30
0.000000
0
VERTEX
8
Formers
10
669.234900
20
46.512372
30
0.000000
0
VERTEX
8
Formers
10
669.234900
20
39.633568
30
0.000000
0
VERTEX
8
Formers
10
669.208619
20
38.028948
30
0.000000
0
VERTEX
8
Formers
10
669.129778
20
36.470312
30
0.000000
0
VERTEX
8
Formers
10
668.998375
20
34.957658
30
0.000000
0
VERTEX
8
Formers
10
668.814411
20
33.490986
30
0.000000
0
VERTEX
8
Formers
10
668.577885
20
32.070298
30
0.000000
0
VERTEX
8
Formers
10
668.288799
20
30.695592
30
0.000000
0
VERTEX
8
Formers
10
667.947151
20
29.366869
30
0.000000
0
VERTEX
8
Formers
10
667.552943
20
28.084128
30
0.000000
0
VERTEX
8
Formers
10
667.038058
20
26.674444
30
0.000000
0
VERTEX
8
Formers
10
666.454521
20
25.324819
30
0.000000
0
VERTEX
8
Formers
10
665.802334
20
24.035253
30
0.000000
0
VERTEX
8
Formers
10
665.081495
20
22.805747
30
0.000000
0
VERTEX
8
Formers
10
664.292005
20
21.636299
30
0.000000
0
VERTEX
8
Formers
10
663.433863
20
20.526910
30
0.000000
0
VERTEX
8
Formers
10
662.507070
20
19.477580
30
0.000000
0
VERTEX
8
Formers
10
661.511626
20
18.488309
30
0.000000
0
VERTEX
8
Formers
10
660.447531
20
17.559098
30
0.000000
0
VERTEX
8
Formers
10
659.666800
20
16.948112
30
0.000000
0
VERTEX
8
Formers
10
658.852847
20
16.366190
30
0.000000
0
VERTEX
8
Formers
10
658.005672
20
15.813334
30
0.000000
0
VERTEX
8
Formers
10
657.125274
20
15.289541
30
0.000000
0
VERTEX
8
Formers
10
656.211653
20
14.794813
30
0.000000
0
VERTEX
8
Formers
10
655.264810
20
14.329150
30
0.000000
0
VERTEX
8
Formers
10
654.284744
20
13.892551
30
0.000000
0
VERTEX
8
Formers
10
653.271456
20
13.485016
30
0.000000
0
VERTEX
8
Formers
10
652.224945
20
13.106546
30
0.000000
0
VERTEX
8
Formers
10
650.713664
20
12.628328
30
0.000000
0
VERTEX
8
Formers
10
649.138072
20
12.206372
30
0.000000
0
VERTEX
8
Formers
10
647.498171
20
11.840676
30
0.000000
0
VERTEX
8
Formers
10
645.793960
20
11.531241
30
0.000000
0
VERTEX
8
Formers
10
644.025440
20
11.278067
30
0.000000
0
VERTEX
8
Formers
10
642.192609
20
11.081153
30
0.000000
0
VERTEX
8
Formers
10
640.295468
20
10.940501
30
0.000000
0
VERTEX
8
Formers
10
638.334018
20
10.856110
30
0.000000
0
VERTEX
8
Formers
10
636.308258
20
10.827979
30
0.000000
0
VERTEX
8
Formers
10
614.360323
20
10.827979
30
0.000000
0
VERTEX
8
Formers
10
612.526139
20
10.850971
30
0.000000
0
VERTEX
8
Formers
10
610.744517
20
10.919945
30
0.000000
0
VERTEX
8
Formers
10
609.015456
20
11.034901
30
0.000000
0
VERTEX
8
Formers
10
607.338957
20
11.195841
30
0.000000
0
VERTEX
8
Formers
10
605.715018
20
11.402763
30
0.000000
0
VERTEX
8
Formers
10
604.143641
20
11.655668
30
0.000000
0
VERTEX
8
Formers
10
602.624825
20
11.954555
30
0.000000
0
VERTEX
8
Formers
10
601.158569
20
12.299425
30
0.000000
0
VERTEX
8
Formers
10
599.547210
20
12.749868
30
0.000000
0
VERTEX
8
Formers
10
598.004502
20
13.260369
30
0.000000
0
VERTEX
8
Formers
10
596.530445
20
13.830930
30
0.000000
0
VERTEX
8
Formers
10
595.125040
20
14.461550
30
0.000000
0
VERTEX
8
Formers
10
593.788286
20
15.152228
30
0.000000
0
VERTEX
8
Formers
10
592.520183
20
15.902966
30
0.000000
0
VERTEX
8
Formers
10
591.320731
20
16.713763
30
0.000000
0
VERTEX
8
Formers
10
590.189931
20
17.584618
30
0.000000
0
VERTEX
8
Formers
10
589.127782
20
18.515533
30
0.000000
0
VERTEX
8
Formers
10
588.429386
20
19.198548
30
0.000000
0
VERTEX
8
Formers
10
587.764212
20
19.910628
30
0.000000
0
VERTEX
8
Formers
10
587.132261
20
20.651772
30
0.000000
0
VERTEX
8
Formers
10
586.533533
20
21.421981
30
0.000000
0
VERTEX
8
Formers
10
585.968027
20
22.221254
30
0.000000
0
VERTEX
8
Formers
10
585.435744
20
23.049592
30
0.000000
0
VERTEX
8
Formers
10
584.936683
20
23.906994
30
0.000000
0
VERTEX
8
Formers
10
584.470845
20
24.793460
30
0.000000
0
VERTEX
8
Formers
10
584.038229
20
25.708991
30
0.000000
0
VERTEX
8
Formers
10
583.491596
20
27.031123
30
0.000000
0
VERTEX
8
Formers
10
583.009272
20
28.409515
30
0.000000
0
VERTEX
8
Formers
10
582.591258
20
29.844168
30
0.000000
0
VERTEX
8
Formers
10
582.237554
20
31.335083
30
0.000000
0
VERTEX
8
Formers
10
581.948159
20
32.882258
30
0.000000
0
VERTEX
8
Formers
10
581.723075
20
34.485694
30
0.000000
0
VERTEX
8
Formers
10
581.562300
20
36.145391
30
0.000000
0
VERTEX
8
Formers
10
581.465835
20
37.861349
30
0.000000
0
VERTEX
8
Formers
10
581.433680
20
39.633568
30
0.000000
0
VERTEX
8
Formers
10
581.433680
20
46.512372
30
0.000000
0
VERTEX
8
Formers
10
587.952987
20
46.512372
30
0.000000
0
VERTEX
8
Formers
10
587.952987
20
53.027224
30
0.000000
0
VERTEX
8
Formers
10
581.433680
20
53.027224
30
0.000000
0
VERTEX
8
Formers
10
581.433680
20
99.512372
30
0.000000
0
VERTEX
8
Formers
10
587.952987
20
99.512372
30
0.000000
0
VERTEX
8
Formers
10
587.952987
20
106.027224
30
0.000000
0
VERTEX
8
Formers
10
581.433680
20
106.027224
30
0.000000
0
VERTEX
8
Formers
10
581.433680
20
106.590754
30
0.000000
0
VERTEX
8
Formers
10
581.468719
20
108.368851
30
0.000000
0
VERTEX
8
Formers
10
581.573833
20
110.095994
30
0.000000
0
VERTEX
8
Formers
10
581.749024
20
111.772183
30
0.000000
0
VERTEX
8
Formers
10
581.994291
20
113.397418
30
0.000000
0
VERTEX
8
Formers
10
582.309635
20
114.971699
30
0.000000
0
VERTEX
8
Formers
10
582.695055
20
116.495026
30
0.000000
0
VERTEX
8
Formers
10
583.150552
20
117.967399
30
0.000000
0
VERTEX
8
Formers
10
583.676125
20
119.388818
30
0.000000
0
VERTEX
8
Formers
10
584.362587
20
120.950905
30
0.000000
0
VERTEX
8
Formers
10
585.140578
20
122.446440
30
0.000000
0
VERTEX
8
Formers
10
586.010097
20
123.875422
30
0.000000
0
VERTEX
8
Formers
10
586.971145
20
125.237852
30
0.000000
0
VERTEX
8
Formers
10
588.023720
20
126.533731
30
0.000000
0
VERTEX
8
Formers
10
589.167825
20
127.763057
30
0.000000
0
VERTEX
8
Formers
10
590.403457
20
128.925831
30
0.000000
0
VERTEX
8
Formers
10
591.730618
20
130.022053
30
0.000000
0
VERTEX
8
Formers
10
593.149307
20
131.051723
30
0.000000
0
VERTEX
8
Formers
10
594.190204
20
131.728764
30
0.000000
0
VERTEX
8
Formers
10
595.275394
20
132.373597
30
0.000000
0
VERTEX
8
Formers
10
596.404878
20
132.986224
30
0.000000
0
VERTEX
8
Formers
10
597.578656
20
133.566645
30
0.000000
0
VERTEX
8
Formers
10
598.796726
20
134.114858
30
0.000000
0
VERTEX
8
Formers
10
600.059091
20
134.630865
30
0.000000
0
VERTEX
8
Formers
10
601.365749
20
135.114665
30
0.000000
0
VERTEX
8
Formers
10
602.716700
20
135.566259
30
0.000000
0
VERTEX
8
Formers
10
604.111945
20
135.985646
30
0.000000
0
VERTEX
8
Formers
10
606.126838
20
136.515564
30
0.000000
0
VERTEX
8
Formers
10
608.227471
20
136.983139
30
0.000000
0
VERTEX
8
Formers
10
610.413844
20
137.388371
30
0.000000
0
VERTEX
8
Formers
10
612.685958
20
137.731260
30
0.000000
0
VERTEX
8
Formers
10
615.043811
20
138.011805
30
0.000000
0
VERTEX
8
Formers
10
617.487405
20
138.230007
30
0.000000
0
VERTEX
8
Formers
10
620.016739
20
138.385865
30
0.000000
0
VERTEX
8
Formers
10
622.631813
20
138.479380
30
0.000000
0
VERTEX
8
Formers
10
625.332627
20
138.510552
30
0.000000
0
VERTEX
8
Formers
10
625.335954
20
138.510552
30
0.000000
0
VERTEX
8
Formers
10
627.781351
20
138.485075
30
0.000000
0
VERTEX
8
Formers
10
630.156671
20
138.408644
30
0.000000
0
VERTEX
8
Formers
10
632.461915
20
138.281259
30
0.000000
0
VERTEX
8
Formers
10
634.697083
20
138.102920
30
0.000000
0
VERTEX
8
Formers
10
636.862175
20
137.873628
30
0.000000
0
VERTEX
8
Formers
10
638.957190
20
137.593381
30
0.000000
0
VERTEX
8
Formers
10
640.982128
20
137.262180
30
0.000000
0
VERTEX
8
Formers
10
642.936991
20
136.880026
30
0.000000
0
VERTEX
8
Formers
10
645.085311
20
136.380885
30
0.000000
0
VERTEX
8
Formers
10
647.142103
20
135.815193
30
0.000000
0
VERTEX
8
Formers
10
649.107367
20
135.182948
30
0.000000
0
VERTEX
8
Formers
10
650.981103
20
134.484151
30
0.000000
0
VERTEX
8
Formers
10
652.763310
20
133.718802
30
0.000000
0
VERTEX
8
Formers
10
654.453989
20
132.886901
30
0.000000
0
VERTEX
8
Formers
10
656.053139
20
131.988448
30
0.000000
0
VERTEX
8
Formers
10
657.560762
20
131.023443
30
0.000000
0
VERTEX
8
Formers
10
658.976855
20
129.991886
30
0.000000
0
VERTEX
8
Formers
10
659.907981
20
129.235029
30
0.000000
0
VERTEX
8
Formers
10
660.794814
20
128.445966
30
0.000000
0
VERTEX
8
Formers
10
661.637353
20
127.624696
30
0.000000
0
VERTEX
8
Formers
10
662.435599
20
126.771219
30
0.000000
0
VERTEX
8
Formers
10
663.189551
20
125.885535
30
0.000000
0
VERTEX
8
Formers
10
663.899210
20
124.967645
30
0.000000
0
VERTEX
8
Formers
10
664.564575
20
124.017548
30
0.000000
0
VERTEX
8
Formers
10
665.185646
20
123.035245
30
0.000000
0
VERTEX
8
Formers
10
665.762425
20
122.020734
30
0.000000
0
VERTEX
8
Formers
10
666.491216
20
120.555666
30
0.000000
0
VERTEX
8
Formers
10
667.134267
20
119.028253
30
0.000000
0
VERTEX
8
Formers
10
667.691578
20
117.438498
30
0.000000
0
VERTEX
8
Formers
10
668.163148
20
115.786399
30
0.000000
0
VERTEX
8
Formers
10
668.548979
20
114.071957
30
0.000000
0
VERTEX
8
Formers
10
668.849069
20
112.295171
30
0.000000
0
VERTEX
8
Formers
10
669.063420
20
110.456042
30
0.000000
0
VERTEX
8
Formers
10
669.192030
20
108.554570
30
0.000000
0
VERTEX
8
Formers
10
669.234900
20
106.590754
30
0.000000
0
VERTEX
8
Formers
10
669.234900
20
106.027224
30
0.000000
0
VERTEX
8
Formers
10
662.715593
20
106.027224
30
0.000000
0
VERTEX
8
Formers
10
662.715593
20
99.512372
30
0.000000
0
VERTEX
8
Formers
10
669.234900
20
99.512372
30
0.000000
0
SEQEND
8
0
0
POLYLINE
8
Formers
6
Continuous
70
0
66
 1
10
0.0
20
0.0
30
0.000000
0
VERTEX
8
Formers
10
657.975246
20
93.068064
30
0.000000
42
-0.238521
0
VERTEX
8
Formers
10
654.715593
20
99.512372
30
0.000000
0
VERTEX
8
Formers
10
654.715593
20
106.027224
30
0.000000
42
-0.174570
0
VERTEX
8
Formers
10
656.552310
20
111.127610
30
0.000000
42
0.377340
0
VERTEX
8
Formers
10
656.231773
20
121.692640
30
0.000000
0
VERTEX
8
Formers
10
656.047166
20
121.890019
30
0.000000
42
0.011553
0
VERTEX
8
Formers
10
655.788505
20
122.154076
30
0.000000
0
VERTEX
8
Formers
10
655.471371
20
122.463204
30
0.000000
42
0.011373
0
VERTEX
8
Formers
10
655.205087
20
122.711209
30
0.000000
0
VERTEX
8
Formers
10
654.856811
20
123.021089
30
0.000000
42
0.011152
0
VERTEX
8
Formers
10
654.585024
20
123.252263
30
0.000000
0
VERTEX
8
Formers
10
654.259651
20
123.516739
30
0.000000
42
0.013239
0
VERTEX
8
Formers
10
653.923999
20
123.775119
30
0.000000
0
VERTEX
8
Formers
10
653.239751
20
124.273561
30
0.000000
42
0.015050
0
VERTEX
8
Formers
10
652.842221
20
124.545217
30
0.000000
0
VERTEX
8
Formers
10
652.127787
20
125.002515
30
0.000000
42
0.014374
0
VERTEX
8
Formers
10
651.733502
20
125.239198
30
0.000000
0
VERTEX
8
Formers
10
650.916439
20
125.698249
30
0.000000
42
0.013654
0
VERTEX
8
Formers
10
650.529884
20
125.901747
30
0.000000
0
VERTEX
8
Formers
10
649.602108
20
126.358261
30
0.000000
42
0.012912
0
VERTEX
8
Formers
10
649.226857
20
126.531016
30
0.000000
0
VERTEX
8
Formers
10
648.182112
20
126.979670
30
0.000000
42
0.012165
0
VERTEX
8
Formers
10
647.820838
20
127.124510
30
0.000000
0
VERTEX
8
Formers
10
646.654611
20
127.559447
30
0.000000
42
0.011429
0
VERTEX
8
Formers
10
646.309160
20
127.679361
30
0.000000
0
VERTEX
8
Formers
10
645.018491
20
128.094581
30
0.000000
42
0.010714
0
VERTEX
8
Formers
10
644.689989
20
128.192549
30
0.000000
0
VERTEX
8
Formers
10
643.273235
20
128.582208
30
0.000000
42
0.010028
0
VERTEX
8
Formers
10
642.962217
20
128.661076
30
0.000000
0
VERTEX
8
Formers
10
641.401092
20
129.023787
30
0.000000
42
0.008809
0
VERTEX
8
Formers
10
641.125458
20
129.082730
30
0.000000
0
VERTEX
8
Formers
10
639.690125
20
129.363322
30
0.000000
42
0.007732
0
VERTEX
8
Formers
10
639.446592
20
129.407032
30
0.000000
0
VERTEX
8
Formers
10
637.895992
20
129.660649
30
0.000000
42
0.007287
0
VERTEX
8
Formers
10
637.665363
20
129.694928
30
0.000000
0
VERTEX
8
Formers
10
636.019292
20
129.915120
30
0.000000
42
0.006867
0
VERTEX
8
Formers
10
635.801117
20
129.941260
30
0.000000
0
VERTEX
8
Formers
10
634.060556
20
130.125593
30
0.000000
42
0.006473
0
VERTEX
8
Formers
10
633.854312
20
130.144739
30
0.000000
0
VERTEX
8
Formers
10
632.020358
20
130.291066
30
0.000000
42
0.006104
0
VERTEX
8
Formers
10
631.825476
20
130.304223
30
0.000000
0
VERTEX
8
Formers
10
629.899295
20
130.410661
30
0.000000
42
0.005759
0
VERTEX
8
Formers
10
629.715182
20
130.418709
30
0.000000
0
VERTEX
8
Formers
10
627.697968
20
130.483617
30
0.000000
42
0.005437
0
VERTEX
8
Formers
10
627.524027
20
130.487321
30
0.000000
0
VERTEX
8
Formers
10
625.428168
20
130.509157
30
0.000000
42
0.005486
0
VERTEX
8
Formers
10
625.252613
20
130.509059
30
0.000000
0
VERTEX
8
Formers
10
622.917765
20
130.482145
30
0.000000
42
0.006055
0
VERTEX
8
Formers
10
622.724081
20
130.477566
30
0.000000
0
VERTEX
8
Formers
10
620.508897
20
130.398351
30
0.000000
42
0.006450
0
VERTEX
8
Formers
10
620.302765
20
130.388316
30
0.000000
0
VERTEX
8
Formers
10
618.199165
20
130.258692
30
0.000000
42
0.006879
0
VERTEX
8
Formers
10
617.979662
20
130.242132
30
0.000000
0
VERTEX
8
Formers
10
615.989367
20
130.064407
30
0.000000
42
0.007342
0
VERTEX
8
Formers
10
615.755701
20
130.040079
30
0.000000
0
VERTEX
8
Formers
10
613.880260
20
129.816933
30
0.000000
42
0.007839
0
VERTEX
8
Formers
10
613.631682
20
129.783396
30
0.000000
0
VERTEX
8
Formers
10
611.872512
20
129.517917
30
0.000000
42
0.008371
0
VERTEX
8
Formers
10
611.608364
20
129.473519
30
0.000000
0
VERTEX
8
Formers
10
609.966656
20
129.169238
30
0.000000
42
0.008938
0
VERTEX
8
Formers
10
609.686417
20
129.112097
30
0.000000
0
VERTEX
8
Formers
10
608.163021
20
128.773008
30
0.000000
42
0.009540
0
VERTEX
8
Formers
10
607.866375
20
128.701012
30
0.000000
0
VERTEX
8
Formers
10
606.416140
20
128.319599
30
0.000000
42
0.008704
0
VERTEX
8
Formers
10
606.148069
20
128.244084
30
0.000000
0
VERTEX
8
Formers
10
605.254107
20
127.975374
30
0.000000
42
0.007652
0
VERTEX
8
Formers
10
605.020714
20
127.901307
30
0.000000
0
VERTEX
8
Formers
10
604.144882
20
127.608535
30
0.000000
42
0.008002
0
VERTEX
8
Formers
10
603.903383
20
127.523487
30
0.000000
0
VERTEX
8
Formers
10
603.087691
20
127.221471
30
0.000000
42
0.008358
0
VERTEX
8
Formers
10
602.838485
20
127.124434
30
0.000000
0
VERTEX
8
Formers
10
602.081970
20
126.815199
30
0.000000
42
0.008718
0
VERTEX
8
Formers
10
601.825623
20
126.705160
30
0.000000
0
VERTEX
8
Formers
10
601.126967
20
126.390718
30
0.000000
42
0.009080
0
VERTEX
8
Formers
10
600.864233
20
126.266684
30
0.000000
0
VERTEX
8
Formers
10
600.221729
20
125.948973
30
0.000000
42
0.009439
0
VERTEX
8
Formers
10
599.953561
20
125.810006
30
0.000000
0
VERTEX
8
Formers
10
599.365087
20
125.490820
30
0.000000
42
0.009792
0
VERTEX
8
Formers
10
599.092653
20
125.336073
30
0.000000
0
VERTEX
8
Formers
10
598.555653
20
125.016981
30
0.000000
42
0.010133
0
VERTEX
8
Formers
10
598.280336
20
124.845742
30
0.000000
0
VERTEX
8
Formers
10
597.854326
20
124.568648
30
0.000000
42
0.012786
0
VERTEX
8
Formers
10
597.517212
20
124.336899
30
0.000000
0
VERTEX
8
Formers
10
596.834905
20
123.841688
30
0.000000
42
0.015642
0
VERTEX
8
Formers
10
596.439299
20
123.535221
30
0.000000
0
VERTEX
8
Formers
10
595.896996
20
123.087284
30
0.000000
42
0.016162
0
VERTEX
8
Formers
10
595.509211
20
122.745307
30
0.000000
0
VERTEX
8
Formers
10
595.036478
20
122.300448
30
0.000000
42
0.016566
0
VERTEX
8
Formers
10
594.662761
20
121.924662
30
0.000000
0
VERTEX
8
Formers
10
594.428083
20
121.672503
30
0.000000
42
0.376504
0
VERTEX
8
Formers
10
594.118635
20
111.124752
30
0.000000
42
-0.174450
0
VERTEX
8
Formers
10
595.952987
20
106.027224
30
0.000000
0
VERTEX
8
Formers
10
595.952987
20
99.512372
30
0.000000
42
-0.238521
0
VERTEX
8
Formers
10
592.693334
20
93.068064
30
0.000000
42
0.238521
0
VERTEX
8
Formers
10
589.433680
20
86.623755
30
0.000000
0
VERTEX
8
Formers
10
589.433680
20
65.915841
30
0.000000
42
0.238521
0
VERTEX
8
Formers
10
592.693334
20
59.471533
30
0.000000
42
-0.238521
0
VERTEX
8
Formers
10
595.952987
20
53.027224
30
0.000000
0
VERTEX
8
Formers
10
595.952987
20
46.512372
30
0.000000
42
-0.226121
0
VERTEX
8
Formers
10
592.991241
20
40.298195
30
0.000000
42
0.288220
0
VERTEX
8
Formers
10
590.245548
20
32.237356
30
0.000000
0
VERTEX
8
Formers
10
590.281769
20
32.084678
30
0.000000
42
0.012647
0
VERTEX
8
Formers
10
590.385103
20
31.693445
30
0.000000
0
VERTEX
8
Formers
10
590.571067
20
31.055204
30
0.000000
42
0.013271
0
VERTEX
8
Formers
10
590.700620
20
30.650850
30
0.000000
0
VERTEX
8
Formers
10
590.896120
20
30.092146
30
0.000000
42
0.013862
0
VERTEX
8
Formers
10
591.054147
20
29.677754
30
0.000000
0
VERTEX
8
Formers
10
591.280281
20
29.130809
30
0.000000
42
0.012347
0
VERTEX
8
Formers
10
591.440184
20
28.769581
30
0.000000
0
VERTEX
8
Formers
10
591.559008
20
28.518118
30
0.000000
42
0.010602
0
VERTEX
8
Formers
10
591.710413
20
28.214540
30
0.000000
0
VERTEX
8
Formers
10
591.857296
20
27.935029
30
0.000000
42
0.010822
0
VERTEX
8
Formers
10
592.024966
20
27.632070
30
0.000000
0
VERTEX
8
Formers
10
592.172596
20
27.378438
30
0.000000
42
0.011007
0
VERTEX
8
Formers
10
592.356413
20
27.078044
30
0.000000
0
VERTEX
8
Formers
10
592.505311
20
26.846329
30
0.000000
42
0.011153
0
VERTEX
8
Formers
10
592.704865
20
26.550505
30
0.000000
0
VERTEX
8
Formers
10
592.856146
20
26.336688
30
0.000000
42
0.011256
0
VERTEX
8
Formers
10
593.070730
20
26.047436
30
0.000000
0
VERTEX
8
Formers
10
593.226104
20
25.847562
30
0.000000
42
0.011315
0
VERTEX
8
Formers
10
593.454716
20
25.566822
30
0.000000
0
VERTEX
8
Formers
10
593.616464
20
25.377126
30
0.000000
42
0.011328
0
VERTEX
8
Formers
10
593.857828
20
25.106713
30
0.000000
0
VERTEX
8
Formers
10
594.028748
20
24.923740
30
0.000000
42
0.011295
0
VERTEX
8
Formers
10
594.281350
20
24.665284
30
0.000000
0
VERTEX
8
Formers
10
594.408848
20
24.540594
30
0.000000
42
0.013655
0
VERTEX
8
Formers
10
594.729413
20
24.243774
30
0.000000
0
VERTEX
8
Formers
10
595.081379
20
23.935295
30
0.000000
42
0.015849
0
VERTEX
8
Formers
10
595.473097
20
23.613343
30
0.000000
0
VERTEX
8
Formers
10
595.809898
20
23.353964
30
0.000000
42
0.015461
0
VERTEX
8
Formers
10
596.210926
20
23.064423
30
0.000000
0
VERTEX
8
Formers
10
596.603342
20
22.799160
30
0.000000
42
0.014973
0
VERTEX
8
Formers
10
597.008071
20
22.542887
30
0.000000
0
VERTEX
8
Formers
10
597.466975
20
22.271208
30
0.000000
42
0.014407
0
VERTEX
8
Formers
10
597.870204
20
22.047920
30
0.000000
0
VERTEX
8
Formers
10
598.405406
20
21.771390
30
0.000000
42
0.013782
0
VERTEX
8
Formers
10
598.802574
20
21.579858
30
0.000000
0
VERTEX
8
Formers
10
599.422457
20
21.301710
30
0.000000
42
0.013119
0
VERTEX
8
Formers
10
599.809775
20
21.139985
30
0.000000
0
VERTEX
8
Formers
10
600.521113
20
20.864649
30
0.000000
42
0.012435
0
VERTEX
8
Formers
10
600.895612
20
20.730301
30
0.000000
0
VERTEX
8
Formers
10
601.703554
20
20.462943
30
0.000000
42
0.011747
0
VERTEX
8
Formers
10
602.063057
20
20.353279
30
0.000000
0
VERTEX
8
Formers
10
602.991948
20
20.093615
30
0.000000
42
0.010395
0
VERTEX
8
Formers
10
603.314059
20
20.010750
30
0.000000
0
VERTEX
8
Formers
10
604.170654
20
19.809275
30
0.000000
42
0.009175
0
VERTEX
8
Formers
10
604.457617
20
19.747314
30
0.000000
0
VERTEX
8
Formers
10
605.415688
20
19.558775
30
0.000000
42
0.008683
0
VERTEX
8
Formers
10
605.689182
20
19.509871
30
0.000000
0
VERTEX
8
Formers
10
606.726817
20
19.342869
30
0.000000
42
0.008210
0
VERTEX
8
Formers
10
606.986832
20
19.305390
30
0.000000
0
VERTEX
8
Formers
10
608.103848
20
19.163060
30
0.000000
42
0.007758
0
VERTEX
8
Formers
10
608.350568
20
19.135506
30
0.000000
0
VERTEX
8
Formers
10
609.546444
20
19.020705
30
0.000000
42
0.007329
0
VERTEX
8
Formers
10
609.780198
20
19.001719
30
0.000000
0
VERTEX
8
Formers
10
611.054160
20
18.917020
30
0.000000
42
0.006923
0
VERTEX
8
Formers
10
611.275387
20
18.905385
30
0.000000
0
VERTEX
8
Formers
10
612.626481
20
18.853079
30
0.000000
42
0.006540
0
VERTEX
8
Formers
10
612.835691
20
18.847719
30
0.000000
0
VERTEX
8
Formers
10
614.360326
20
18.828608
30
0.000000
42
0.003134
0
VERTEX
8
Formers
10
614.460598
20
18.827979
30
0.000000
0
VERTEX
8
Formers
10
636.197172
20
18.827979
30
0.000000
42
0.003471
0
VERTEX
8
Formers
10
636.308252
20
18.828750
30
0.000000
0
VERTEX
8
Formers
10
637.990040
20
18.852104
30
0.000000
42
0.007278
0
VERTEX
8
Formers
10
638.222841
20
18.858727
30
0.000000
0
VERTEX
8
Formers
10
639.703754
20
18.922444
30
0.000000
42
0.007751
0
VERTEX
8
Formers
10
639.951362
20
18.936946
30
0.000000
0
VERTEX
8
Formers
10
641.337639
20
19.039723
30
0.000000
42
0.008256
0
VERTEX
8
Formers
10
641.600725
20
19.063601
30
0.000000
0
VERTEX
8
Formers
10
642.891136
20
19.202239
30
0.000000
42
0.008791
0
VERTEX
8
Formers
10
643.170249
20
19.237200
30
0.000000
0
VERTEX
8
Formers
10
644.363864
20
19.408073
30
0.000000
42
0.009356
0
VERTEX
8
Formers
10
644.659374
20
19.456035
30
0.000000
0
VERTEX
8
Formers
10
645.755694
20
19.655095
30
0.000000
42
0.009949
0
VERTEX
8
Formers
10
646.067717
20
19.718187
30
0.000000
0
VERTEX
8
Formers
10
647.066832
20
19.940988
30
0.000000
42
0.010565
0
VERTEX
8
Formers
10
647.395149
20
20.021520
30
0.000000
0
VERTEX
8
Formers
10
648.297907
20
20.263287
30
0.000000
42
0.011199
0
VERTEX
8
Formers
10
648.641876
20
20.363712
30
0.000000
0
VERTEX
8
Formers
10
649.502096
20
20.635913
30
0.000000
42
0.010138
0
VERTEX
8
Formers
10
649.809327
20
20.740029
30
0.000000
0
VERTEX
8
Formers
10
650.147665
20
20.862389
30
0.000000
42
0.013391
0
VERTEX
8
Formers
10
650.546527
20
21.018838
30
0.000000
0
VERTEX
8
Formers
10
651.728926
20
21.519553
30
0.000000
42
0.014124
0
VERTEX
8
Formers
10
652.139901
20
21.707450
30
0.000000
0
VERTEX
8
Formers
10
652.399457
20
21.835101
30
0.000000
42
0.009806
0
VERTEX
8
Formers
10
652.678254
20
21.979073
30
0.000000
0
VERTEX
8
Formers
10
653.031643
20
22.170434
30
0.000000
42
0.010101
0
VERTEX
8
Formers
10
653.312677
20
22.330038
30
0.000000
0
VERTEX
8
Formers
10
653.629938
20
22.518793
30
0.000000
42
0.010374
0
VERTEX
8
Formers
10
653.911622
20
22.694394
30
0.000000
0
VERTEX
8
Formers
10
654.196082
20
22.880028
30
0.000000
42
0.010622
0
VERTEX
8
Formers
10
654.476684
20
23.071766
30
0.000000
0
VERTEX
8
Formers
10
654.731933
20
23.254252
30
0.000000
42
0.010838
0
VERTEX
8
Formers
10
655.009604
20
23.462008
30
0.000000
0
VERTEX
8
Formers
10
655.178120
20
23.593886
30
0.000000
42
0.013452
0
VERTEX
8
Formers
10
655.509788
20
23.868143
30
0.000000
0
VERTEX
8
Formers
10
655.861065
20
24.174892
30
0.000000
42
0.016115
0
VERTEX
8
Formers
10
656.238265
20
24.526333
30
0.000000
0
VERTEX
8
Formers
10
656.498645
20
24.785098
30
0.000000
42
0.016261
0
VERTEX
8
Formers
10
656.855525
20
25.163612
30
0.000000
0
VERTEX
8
Formers
10
657.092972
20
25.432454
30
0.000000
42
0.016271
0
VERTEX
8
Formers
10
657.424693
20
25.833616
30
0.000000
0
VERTEX
8
Formers
10
657.647995
20
26.122297
30
0.000000
42
0.016145
0
VERTEX
8
Formers
10
657.950655
20
26.540820
30
0.000000
0
VERTEX
8
Formers
10
658.166471
20
26.860502
30
0.000000
42
0.015887
0
VERTEX
8
Formers
10
658.437334
20
27.290578
30
0.000000
0
VERTEX
8
Formers
10
658.649868
20
27.653090
30
0.000000
42
0.015512
0
VERTEX
8
Formers
10
658.887459
20
28.088773
30
0.000000
0
VERTEX
8
Formers
10
659.098396
20
28.505855
30
0.000000
42
0.015035
0
VERTEX
8
Formers
10
659.302475
20
28.941422
30
0.000000
0
VERTEX
8
Formers
10
659.511149
20
29.424050
30
0.000000
42
0.014476
0
VERTEX
8
Formers
10
659.682572
20
29.854306
30
0.000000
0
VERTEX
8
Formers
10
659.895637
20
30.437648
30
0.000000
42
0.013010
0
VERTEX
8
Formers
10
660.028225
20
30.832220
30
0.000000
0
VERTEX
8
Formers
10
660.190855
20
31.361412
30
0.000000
42
0.011621
0
VERTEX
8
Formers
10
660.291795
20
31.719284
30
0.000000
0
VERTEX
8
Formers
10
660.387494
20
32.091472
30
0.000000
42
0.293310
0
VERTEX
8
Formers
10
657.677555
20
40.298020
30
0.000000
42
-0.226130
0
VERTEX
8
Formers
10
654.715593
20
46.512372
30
0.000000
0
VERTEX
8
Formers
10
654.715593
20
53.027224
30
0.000000
42
-0.238521
0
VERTEX
8
Formers
10
657.975246
20
59.471533
30
0.000000
42
0.238521
0
VERTEX
8
Formers
10
661.234900
20
65.915841
30
0.000000
0
VERTEX
8
Formers
10
661.234900
20
86.623755
30
0.000000
42
0.238521
0
VERTEX
8
Formers
10
657.975246
20
93.068064
30
0.000000
0
SEQEND
8
0
0
ENDBLK
0
BLOCK
8
Formers
2
*R7
70
1
10
689.901567
20
-26.834921
3
*R7
0
POLYLINE
8
Formers
6
Continuous
70
0
66
 1
10
0.0
20
0.0
30
0.000000
0
VERTEX
8
Formers
10
756.737935
20
99.660887
30
0.000000
0
VERTEX
8
Formers
10
756.737935
20
52.878709
30
0.000000
0
VERTEX
8
Formers
10
750.509447
20
52.878709
30
0.000000
0
VERTEX
8
Formers
10
750.509447
20
46.660887
30
0.000000
0
VERTEX
8
Formers
10
756.737935
20
46.660887
30
0.000000
0
VERTEX
8
Formers
10
756.737935
20
41.305312
30
0.000000
0
VERTEX
8
Formers
10
756.693030
20
39.195970
30
0.000000
0
VERTEX
8
Formers
10
756.558316
20
37.171202
30
0.000000
0
VERTEX
8
Formers
10
756.333791
20
35.231008
30
0.000000
0
VERTEX
8
Formers
10
756.019456
20
33.375386
30
0.000000
0
VERTEX
8
Formers
10
755.615311
20
31.604338
30
0.000000
0
VERTEX
8
Formers
10
755.121356
20
29.917863
30
0.000000
0
VERTEX
8
Formers
10
754.537592
20
28.315961
30
0.000000
0
VERTEX
8
Formers
10
753.864017
20
26.798633
30
0.000000
0
VERTEX
8
Formers
10
752.984246
20
25.168102
30
0.000000
0
VERTEX
8
Formers
10
751.987172
20
23.648035
30
0.000000
0
VERTEX
8
Formers
10
750.872795
20
22.238430
30
0.000000
0
VERTEX
8
Formers
10
749.641116
20
20.939289
30
0.000000
0
VERTEX
8
Formers
10
748.292134
20
19.750610
30
0.000000
0
VERTEX
8
Formers
10
746.825849
20
18.672395
30
0.000000
0
VERTEX
8
Formers
10
745.242261
20
17.704643
30
0.000000
0
VERTEX
8
Formers
10
743.541370
20
16.847354
30
0.000000
0
VERTEX
8
Formers
10
741.723177
20
16.100527
30
0.000000
0
VERTEX
8
Formers
10
740.389163
20
15.646146
30
0.000000
0
VERTEX
8
Formers
10
738.998382
20
15.245222
30
0.000000
0
VERTEX
8
Formers
10
737.550834
20
14.897754
30
0.000000
0
VERTEX
8
Formers
10
736.046520
20
14.603743
30
0.000000
0
VERTEX
8
Formers
10
734.485439
20
14.363188
30
0.000000
0
VERTEX
8
Formers
10
732.867592
20
14.176090
30
0.000000
0
VERTEX
8
Formers
10
731.192978
20
14.042448
30
0.000000
0
VERTEX
8
Formers
10
729.461598
20
13.962264
30
0.000000
0
VERTEX
8
Formers
10
727.673450
20
13.935535
30
0.000000
0
VERTEX
8
Formers
10
708.299385
20
13.935535
30
0.000000
0
VERTEX
8
Formers
10
706.059435
20
13.977822
30
0.000000
0
VERTEX
8
Formers
10
703.909296
20
14.104682
30
0.000000
0
VERTEX
8
Formers
10
701.848966
20
14.316115
30
0.000000
0
VERTEX
8
Formers
10
699.878446
20
14.612121
30
0.000000
0
VERTEX
8
Formers
10
697.997737
20
14.992701
30
0.000000
0
VERTEX
8
Formers
10
696.206837
20
15.457854
30
0.000000
0
VERTEX
8
Formers
10
694.505747
20
16.007580
30
0.000000
0
VERTEX
8
Formers
10
692.894467
20
16.641880
30
0.000000
0
VERTEX
8
Formers
10
691.162976
20
17.470353
30
0.000000
0
VERTEX
8
Formers
10
689.548787
20
18.409288
30
0.000000
0
VERTEX
8
Formers
10
688.051902
20
19.458687
30
0.000000
0
VERTEX
8
Formers
10
686.672319
20
20.618549
30
0.000000
0
VERTEX
8
Formers
10
685.410039
20
21.888874
30
0.000000
0
VERTEX
8
Formers
10
684.265061
20
23.269662
30
0.000000
0
VERTEX
8
Formers
10
683.237387
20
24.760913
30
0.000000
0
VERTEX
8
Formers
10
682.327015
20
26.362627
30
0.000000
0
VERTEX
8
Formers
10
681.533946
20
28.074805
30
0.000000
0
VERTEX
8
Formers
10
681.051430
20
29.331035
30
0.000000
0
VERTEX
8
Formers
10
680.625681
20
30.640721
30
0.000000
0
VERTEX
8
Formers
10
680.256698
20
32.003864
30
0.000000
0
VERTEX
8
Formers
10
679.944482
20
33.420464
30
0.000000
0
VERTEX
8
Formers
10
679.689032
20
34.890520
30
0.000000
0
VERTEX
8
Formers
10
679.490349
20
36.414033
30
0.000000
0
VERTEX
8
Formers
10
679.348433
20
37.991003
30
0.000000
0
VERTEX
8
Formers
10
679.263283
20
39.621429
30
0.000000
0
VERTEX
8
Formers
10
679.234900
20
41.305312
30
0.000000
0
VERTEX
8
Formers
10
679.234900
20
46.660887
30
0.000000
0
VERTEX
8
Formers
10
685.463389
20
46.660887
30
0.000000
0
VERTEX
8
Formers
10
685.463389
20
52.878709
30
0.000000
0
VERTEX
8
Formers
10
679.234900
20
52.878709
30
0.000000
0
VERTEX
8
Formers
10
679.234900
20
99.660887
30
0.000000
0
VERTEX
8
Formers
10
685.463389
20
99.660887
30
0.000000
0
VERTEX
8
Formers
10
685.463389
20
105.878709
30
0.000000
0
VERTEX
8
Formers
10
679.234900
20
105.878709
30
0.000000
0
VERTEX
8
Formers
10
679.234900
20
106.935213
30
0.000000
0
VERTEX
8
Formers
10
679.265829
20
108.662017
30
0.000000
0
VERTEX
8
Formers
10
679.358615
20
110.339337
30
0.000000
0
VERTEX
8
Formers
10
679.513259
20
111.967173
30
0.000000
0
VERTEX
8
Formers
10
679.729761
20
113.545525
30
0.000000
0
VERTEX
8
Formers
10
680.008120
20
115.074392
30
0.000000
0
VERTEX
8
Formers
10
680.348336
20
116.553776
30
0.000000
0
VERTEX
8
Formers
10
680.750411
20
117.983676
30
0.000000
0
VERTEX
8
Formers
10
681.214343
20
119.364091
30
0.000000
0
VERTEX
8
Formers
10
681.820294
20
120.881116
30
0.000000
0
VERTEX
8
Formers
10
682.507040
20
122.333509
30
0.000000
0
VERTEX
8
Formers
10
683.274579
20
123.721270
30
0.000000
0
VERTEX
8
Formers
10
684.122912
20
125.044398
30
0.000000
0
VERTEX
8
Formers
10
685.052038
20
126.302894
30
0.000000
0
VERTEX
8
Formers
10
686.061957
20
127.496758
30
0.000000
0
VERTEX
8
Formers
10
687.152671
20
128.625989
30
0.000000
0
VERTEX
8
Formers
10
688.324178
20
129.690589
30
0.000000
0
VERTEX
8
Formers
10
689.576478
20
130.690556
30
0.000000
0
VERTEX
8
Formers
10
690.495295
20
131.348066
30
0.000000
0
VERTEX
8
Formers
10
691.453211
20
131.974298
30
0.000000
0
VERTEX
8
Formers
10
692.450225
20
132.569252
30
0.000000
0
VERTEX
8
Formers
10
693.486338
20
133.132929
30
0.000000
0
VERTEX
8
Formers
10
694.561549
20
133.665328
30
0.000000
0
VERTEX
8
Formers
10
695.675859
20
134.166450
30
0.000000
0
VERTEX
8
Formers
10
696.829268
20
134.636294
30
0.000000
0
VERTEX
8
Formers
10
698.021775
20
135.074861
30
0.000000
0
VERTEX
8
Formers
10
699.253380
20
135.482149
30
0.000000
0
VERTEX
8
Formers
10
701.031960
20
135.996781
30
0.000000
0
VERTEX
8
Formers
10
702.886224
20
136.450868
30
0.000000
0
VERTEX
8
Formers
10
704.816172
20
136.844410
30
0.000000
0
VERTEX
8
Formers
10
706.821804
20
137.177408
30
0.000000
0
VERTEX
8
Formers
10
708.903121
20
137.449860
30
0.000000
0
VERTEX
8
Formers
10
711.060121
20
137.661767
30
0.000000
0
VERTEX
8
Formers
10
713.292806
20
137.813129
30
0.000000
0
VERTEX
8
Formers
10
715.601176
20
137.903947
30
0.000000
0
VERTEX
8
Formers
10
717.985229
20
137.934219
30
0.000000
0
VERTEX
8
Formers
10
717.987606
20
137.934219
30
0.000000
0
VERTEX
8
Formers
10
720.146199
20
137.909477
30
0.000000
0
VERTEX
8
Formers
10
722.242934
20
137.835251
30
0.000000
0
VERTEX
8
Formers
10
724.277811
20
137.711541
30
0.000000
0
VERTEX
8
Formers
10
726.250831
20
137.538347
30
0.000000
0
VERTEX
8
Formers
10
728.161993
20
137.315668
30
0.000000
0
VERTEX
8
Formers
10
730.011298
20
137.043506
30
0.000000
0
VERTEX
8
Formers
10
731.798745
20
136.721860
30
0.000000
0
VERTEX
8
Formers
10
733.524334
20
136.350729
30
0.000000
0
VERTEX
8
Formers
10
735.420692
20
135.865987
30
0.000000
0
VERTEX
8
Formers
10
737.236257
20
135.316613
30
0.000000
0
VERTEX
8
Formers
10
738.971028
20
134.702607
30
0.000000
0
VERTEX
8
Formers
10
740.625005
20
134.023969
30
0.000000
0
VERTEX
8
Formers
10
742.198189
20
133.280698
30
0.000000
0
VERTEX
8
Formers
10
743.690580
20
132.472795
30
0.000000
0
VERTEX
8
Formers
10
745.102176
20
131.600259
30
0.000000
0
VERTEX
8
Formers
10
746.432980
20
130.663092
30
0.000000
0
VERTEX
8
Formers
10
747.682989
20
129.661292
30
0.000000
0
VERTEX
8
Formers
10
748.504910
20
128.926268
30
0.000000
0
VERTEX
8
Formers
10
749.287731
20
128.159967
30
0.000000
0
VERTEX
8
Formers
10
750.031455
20
127.362388
30
0.000000
0
VERTEX
8
Formers
10
750.736079
20
126.533531
30
0.000000
0
VERTEX
8
Formers
10
751.401605
20
125.673397
30
0.000000
0
VERTEX
8
Formers
10
752.028033
20
124.781985
30
0.000000
0
VERTEX
8
Formers
10
752.615362
20
123.859296
30
0.000000
0
VERTEX
8
Formers
10
753.163592
20
122.905329
30
0.000000
0
VERTEX
8
Formers
10
753.672724
20
121.920084
30
0.000000
0
VERTEX
8
Formers
10
754.316040
20
120.497278
30
0.000000
0
VERTEX
8
Formers
10
754.883672
20
119.013927
30
0.000000
0
VERTEX
8
Formers
10
755.375619
20
117.470032
30
0.000000
0
VERTEX
8
Formers
10
755.791882
20
115.865591
30
0.000000
0
VERTEX
8
Formers
10
756.132462
20
114.200605
30
0.000000
0
VERTEX
8
Formers
10
756.397356
20
112.475075
30
0.000000
0
VERTEX
8
Formers
10
756.586567
20
110.688999
30
0.000000
0
VERTEX
8
Formers
10
756.700093
20
108.842378
30
0.000000
0
VERTEX
8
Formers
10
756.737935
20
106.935213
30
0.000000
0
VERTEX
8
Formers
10
756.737935
20
105.878709
30
0.000000
0
VERTEX
8
Formers
10
750.509447
20
105.878709
30
0.000000
0
VERTEX
8
Formers
10
750.509447
20
99.660887
30
0.000000
0
VERTEX
8
Formers
10
756.737935
20
99.660887
30
0.000000
0
SEQEND
8
0
0
POLYLINE
8
Formers
6
Continuous
70
0
66
 1
10
0.0
20
0.0
30
0.000000
0
VERTEX
8
Formers
10
745.623691
20
93.326111
30
0.000000
42
-0.232516
0
VERTEX
8
Formers
10
742.509447
20
99.660887
30
0.000000
0
VERTEX
8
Formers
10
742.509447
20
105.878709
30
0.000000
42
-0.179936
0
VERTEX
8
Formers
10
744.453642
20
111.106254
30
0.000000
42
0.356736
0
VERTEX
8
Formers
10
744.724994
20
121.229417
30
0.000000
0
VERTEX
8
Formers
10
744.634332
20
121.346591
30
0.000000
42
0.011509
0
VERTEX
8
Formers
10
744.402338
20
121.632572
30
0.000000
0
VERTEX
8
Formers
10
744.174214
20
121.900916
30
0.000000
42
0.011478
0
VERTEX
8
Formers
10
743.929994
20
122.175181
30
0.000000
0
VERTEX
8
Formers
10
743.685572
20
122.437303
30
0.000000
42
0.011398
0
VERTEX
8
Formers
10
743.430837
20
122.698294
30
0.000000
0
VERTEX
8
Formers
10
743.166520
20
122.957034
30
0.000000
42
0.011273
0
VERTEX
8
Formers
10
742.903144
20
123.203473
30
0.000000
0
VERTEX
8
Formers
10
742.672427
20
123.409798
30
0.000000
42
0.013508
0
VERTEX
8
Formers
10
742.342610
20
123.689084
30
0.000000
0
VERTEX
8
Formers
10
741.817549
20
124.109886
30
0.000000
42
0.015518
0
VERTEX
8
Formers
10
741.420703
20
124.408190
30
0.000000
0
VERTEX
8
Formers
10
740.887995
20
124.783330
30
0.000000
42
0.014979
0
VERTEX
8
Formers
10
740.488093
20
125.047390
30
0.000000
0
VERTEX
8
Formers
10
739.875427
20
125.426091
30
0.000000
42
0.014366
0
VERTEX
8
Formers
10
739.477691
20
125.656418
30
0.000000
0
VERTEX
8
Formers
10
738.775289
20
126.036663
30
0.000000
42
0.013701
0
VERTEX
8
Formers
10
738.384228
20
126.234707
30
0.000000
0
VERTEX
8
Formers
10
737.583866
20
126.612848
30
0.000000
42
0.013005
0
VERTEX
8
Formers
10
737.203165
20
126.780748
30
0.000000
0
VERTEX
8
Formers
10
736.298313
20
127.152015
30
0.000000
42
0.012295
0
VERTEX
8
Formers
10
735.930805
20
127.292351
30
0.000000
0
VERTEX
8
Formers
10
734.916598
20
127.651320
30
0.000000
42
0.011588
0
VERTEX
8
Formers
10
734.564314
20
127.766894
30
0.000000
0
VERTEX
8
Formers
10
733.437417
20
128.107884
30
0.000000
42
0.010894
0
VERTEX
8
Formers
10
733.101671
20
128.201544
30
0.000000
0
VERTEX
8
Formers
10
731.840851
20
128.523831
30
0.000000
42
0.009603
0
VERTEX
8
Formers
10
731.541748
20
128.594197
30
0.000000
0
VERTEX
8
Formers
10
730.381036
20
128.843836
30
0.000000
42
0.008452
0
VERTEX
8
Formers
10
730.115728
20
128.896222
30
0.000000
0
VERTEX
8
Formers
10
728.845826
20
129.124737
30
0.000000
42
0.007980
0
VERTEX
8
Formers
10
728.593817
20
129.165945
30
0.000000
0
VERTEX
8
Formers
10
727.235665
20
129.365824
30
0.000000
42
0.007533
0
VERTEX
8
Formers
10
726.996705
20
129.397322
30
0.000000
0
VERTEX
8
Formers
10
725.550942
20
129.565774
30
0.000000
42
0.007109
0
VERTEX
8
Formers
10
725.324649
20
129.588885
30
0.000000
0
VERTEX
8
Formers
10
723.792135
20
129.723411
30
0.000000
42
0.006709
0
VERTEX
8
Formers
10
723.578038
20
129.739313
30
0.000000
0
VERTEX
8
Formers
10
721.959781
20
129.837695
30
0.000000
42
0.006334
0
VERTEX
8
Formers
10
721.757348
20
129.847430
30
0.000000
0
VERTEX
8
Formers
10
720.054454
20
129.907714
30
0.000000
42
0.005981
0
VERTEX
8
Formers
10
719.863116
20
129.912196
30
0.000000
0
VERTEX
8
Formers
10
718.089082
20
129.932531
30
0.000000
42
0.006037
0
VERTEX
8
Formers
10
717.895917
20
129.932413
30
0.000000
0
VERTEX
8
Formers
10
715.915747
20
129.907294
30
0.000000
42
0.006660
0
VERTEX
8
Formers
10
715.702723
20
129.901753
30
0.000000
0
VERTEX
8
Formers
10
713.834087
20
129.828236
30
0.000000
42
0.007092
0
VERTEX
8
Formers
10
713.607476
20
129.816099
30
0.000000
0
VERTEX
8
Formers
10
711.842591
20
129.696451
30
0.000000
42
0.007559
0
VERTEX
8
Formers
10
711.601533
20
129.676443
30
0.000000
0
VERTEX
8
Formers
10
709.941965
20
129.513405
30
0.000000
42
0.008059
0
VERTEX
8
Formers
10
709.685761
20
129.484058
30
0.000000
0
VERTEX
8
Formers
10
708.132808
20
129.280771
30
0.000000
42
0.008592
0
VERTEX
8
Formers
10
707.860869
20
129.240409
30
0.000000
0
VERTEX
8
Formers
10
706.415561
20
129.000443
30
0.000000
42
0.009157
0
VERTEX
8
Formers
10
706.127458
20
128.947171
30
0.000000
0
VERTEX
8
Formers
10
704.790433
20
128.674533
30
0.000000
42
0.009752
0
VERTEX
8
Formers
10
704.485969
20
128.606239
30
0.000000
0
VERTEX
8
Formers
10
703.257324
20
128.305358
30
0.000000
42
0.010374
0
VERTEX
8
Formers
10
702.936614
20
128.219730
30
0.000000
0
VERTEX
8
Formers
10
701.766861
20
127.881262
30
0.000000
42
0.009430
0
VERTEX
8
Formers
10
701.478652
20
127.791945
30
0.000000
0
VERTEX
8
Formers
10
700.784542
20
127.562405
30
0.000000
42
0.008260
0
VERTEX
8
Formers
10
700.535010
20
127.475287
30
0.000000
0
VERTEX
8
Formers
10
699.849006
20
127.222996
30
0.000000
42
0.008604
0
VERTEX
8
Formers
10
699.592307
20
127.123543
30
0.000000
0
VERTEX
8
Formers
10
698.959063
20
126.865590
30
0.000000
42
0.008947
0
VERTEX
8
Formers
10
698.695904
20
126.752860
30
0.000000
0
VERTEX
8
Formers
10
698.113816
20
126.491087
30
0.000000
42
0.009288
0
VERTEX
8
Formers
10
697.845093
20
126.364186
30
0.000000
0
VERTEX
8
Formers
10
697.312170
20
126.100305
30
0.000000
42
0.009621
0
VERTEX
8
Formers
10
697.038978
20
125.958422
30
0.000000
0
VERTEX
8
Formers
10
696.552826
20
125.693941
30
0.000000
42
0.009942
0
VERTEX
8
Formers
10
696.276460
20
125.536389
30
0.000000
0
VERTEX
8
Formers
10
695.834290
20
125.272530
30
0.000000
42
0.010247
0
VERTEX
8
Formers
10
695.556240
20
125.098783
30
0.000000
0
VERTEX
8
Formers
10
695.154888
20
124.836402
30
0.000000
42
0.010530
0
VERTEX
8
Formers
10
694.876821
20
124.646140
30
0.000000
0
VERTEX
8
Formers
10
694.575037
20
124.430183
30
0.000000
42
0.013177
0
VERTEX
8
Formers
10
694.238767
20
124.175885
30
0.000000
0
VERTEX
8
Formers
10
693.714995
20
123.757651
30
0.000000
42
0.015951
0
VERTEX
8
Formers
10
693.326595
20
123.426686
30
0.000000
0
VERTEX
8
Formers
10
692.918624
20
123.055945
30
0.000000
42
0.016282
0
VERTEX
8
Formers
10
692.544741
20
122.693267
30
0.000000
0
VERTEX
8
Formers
10
692.182633
20
122.318372
30
0.000000
42
0.016483
0
VERTEX
8
Formers
10
691.828995
20
121.927231
30
0.000000
0
VERTEX
8
Formers
10
691.501791
20
121.540431
30
0.000000
42
0.016542
0
VERTEX
8
Formers
10
691.173554
20
121.125307
30
0.000000
0
VERTEX
8
Formers
10
691.141736
20
121.082209
30
0.000000
42
0.350315
0
VERTEX
8
Formers
10
691.520570
20
111.104659
30
0.000000
42
-0.179868
0
VERTEX
8
Formers
10
693.463389
20
105.878709
30
0.000000
0
VERTEX
8
Formers
10
693.463389
20
99.660887
30
0.000000
42
-0.232516
0
VERTEX
8
Formers
10
690.349144
20
93.326111
30
0.000000
42
0.232516
0
VERTEX
8
Formers
10
687.234900
20
86.991335
30
0.000000
0
VERTEX
8
Formers
10
687.234900
20
65.548262
30
0.000000
42
0.232516
0
VERTEX
8
Formers
10
690.349144
20
59.213485
30
0.000000
42
-0.232516
0
VERTEX
8
Formers
10
693.463389
20
52.878709
30
0.000000
0
VERTEX
8
Formers
10
693.463389
20
46.660887
30
0.000000
42
-0.213612
0
VERTEX
8
Formers
10
690.792375
20
40.694155
30
0.000000
42
0.297351
0
VERTEX
8
Formers
10
688.513262
20
32.254202
30
0.000000
0
VERTEX
8
Formers
10
688.529850
20
32.203175
30
0.000000
42
0.013106
0
VERTEX
8
Formers
10
688.669892
20
31.807926
30
0.000000
0
VERTEX
8
Formers
10
688.809607
20
31.444178
30
0.000000
42
0.016764
0
VERTEX
8
Formers
10
689.018567
20
30.950281
30
0.000000
0
VERTEX
8
Formers
10
689.306644
20
30.328345
30
0.000000
42
0.020770
0
VERTEX
8
Formers
10
689.610662
20
29.737627
30
0.000000
0
VERTEX
8
Formers
10
689.850085
20
29.316385
30
0.000000
42
0.021643
0
VERTEX
8
Formers
10
690.217864
20
28.729923
30
0.000000
0
VERTEX
8
Formers
10
690.448491
20
28.395261
30
0.000000
42
0.022231
0
VERTEX
8
Formers
10
690.877583
20
27.828295
30
0.000000
0
VERTEX
8
Formers
10
691.108782
20
27.549479
30
0.000000
42
0.022483
0
VERTEX
8
Formers
10
691.592197
20
27.017134
30
0.000000
0
VERTEX
8
Formers
10
691.842184
20
26.765553
30
0.000000
42
0.022375
0
VERTEX
8
Formers
10
692.368809
20
26.280984
30
0.000000
0
VERTEX
8
Formers
10
692.662971
20
26.033672
30
0.000000
42
0.021918
0
VERTEX
8
Formers
10
693.218807
20
25.606490
30
0.000000
0
VERTEX
8
Formers
10
693.586636
20
25.348621
30
0.000000
42
0.021152
0
VERTEX
8
Formers
10
694.156553
20
24.984017
30
0.000000
0
VERTEX
8
Formers
10
694.628010
20
24.709781
30
0.000000
42
0.020142
0
VERTEX
8
Formers
10
695.197535
20
24.408517
30
0.000000
0
VERTEX
8
Formers
10
695.832983
20
24.104472
30
0.000000
42
0.017814
0
VERTEX
8
Formers
10
696.355468
20
23.876977
30
0.000000
0
VERTEX
8
Formers
10
696.971033
20
23.634652
30
0.000000
42
0.015617
0
VERTEX
8
Formers
10
697.441416
20
23.466247
30
0.000000
0
VERTEX
8
Formers
10
698.221781
20
23.214064
30
0.000000
42
0.014614
0
VERTEX
8
Formers
10
698.670683
20
23.083354
30
0.000000
0
VERTEX
8
Formers
10
699.587120
20
22.845326
30
0.000000
42
0.013614
0
VERTEX
8
Formers
10
700.011528
20
22.747345
30
0.000000
0
VERTEX
8
Formers
10
701.068627
20
22.533431
30
0.000000
42
0.012641
0
VERTEX
8
Formers
10
701.466936
20
22.463260
30
0.000000
0
VERTEX
8
Formers
10
702.666746
20
22.283028
30
0.000000
42
0.011710
0
VERTEX
8
Formers
10
703.038472
20
22.236061
30
0.000000
0
VERTEX
8
Formers
10
704.381087
20
22.098280
30
0.000000
42
0.010833
0
VERTEX
8
Formers
10
704.726580
20
22.070374
30
0.000000
0
VERTEX
8
Formers
10
706.210685
20
21.982810
30
0.000000
42
0.010014
0
VERTEX
8
Formers
10
706.530872
20
21.970347
30
0.000000
0
VERTEX
8
Formers
10
708.299398
20
21.936960
30
0.000000
42
0.004719
0
VERTEX
8
Formers
10
708.450398
20
21.935535
30
0.000000
0
VERTEX
8
Formers
10
727.553877
20
21.935535
30
0.000000
42
0.003737
0
VERTEX
8
Formers
10
727.673444
20
21.936429
30
0.000000
0
VERTEX
8
Formers
10
729.091372
20
21.957623
30
0.000000
42
0.007833
0
VERTEX
8
Formers
10
729.341911
20
21.965295
30
0.000000
0
VERTEX
8
Formers
10
730.556286
20
22.021536
30
0.000000
42
0.008339
0
VERTEX
8
Formers
10
730.822593
20
22.038325
30
0.000000
0
VERTEX
8
Formers
10
731.948056
20
22.128142
30
0.000000
42
0.008875
0
VERTEX
8
Formers
10
732.230690
20
22.155753
30
0.000000
0
VERTEX
8
Formers
10
733.266298
20
22.275517
30
0.000000
42
0.009440
0
VERTEX
8
Formers
10
733.565632
20
22.315874
30
0.000000
0
VERTEX
8
Formers
10
734.510883
20
22.461533
30
0.000000
42
0.010030
0
VERTEX
8
Formers
10
734.827033
20
22.516763
30
0.000000
0
VERTEX
8
Formers
10
735.682022
20
22.683867
30
0.000000
42
0.010643
0
VERTEX
8
Formers
10
736.014763
20
22.756284
30
0.000000
0
VERTEX
8
Formers
10
736.780360
20
22.940057
30
0.000000
42
0.011271
0
VERTEX
8
Formers
10
737.129036
20
23.032112
30
0.000000
0
VERTEX
8
Formers
10
737.807068
20
23.227571
30
0.000000
42
0.011906
0
VERTEX
8
Formers
10
738.170496
20
23.341777
30
0.000000
0
VERTEX
8
Formers
10
738.678280
20
23.514734
30
0.000000
42
0.015365
0
VERTEX
8
Formers
10
739.138494
20
23.687442
30
0.000000
0
VERTEX
8
Formers
10
739.930801
20
24.012883
30
0.000000
42
0.019283
0
VERTEX
8
Formers
10
740.491899
20
24.269061
30
0.000000
0
VERTEX
8
Formers
10
741.057667
20
24.554222
30
0.000000
42
0.020425
0
VERTEX
8
Formers
10
741.628594
20
24.871858
30
0.000000
0
VERTEX
8
Formers
10
742.070236
20
25.141751
30
0.000000
42
0.021378
0
VERTEX
8
Formers
10
742.637930
20
25.522925
30
0.000000
0
VERTEX
8
Formers
10
742.983609
20
25.777116
30
0.000000
42
0.022069
0
VERTEX
8
Formers
10
743.533271
20
26.219956
30
0.000000
0
VERTEX
8
Formers
10
743.813169
20
26.466593
30
0.000000
42
0.022438
0
VERTEX
8
Formers
10
744.329782
20
26.964717
30
0.000000
0
VERTEX
8
Formers
10
744.572666
20
27.220905
30
0.000000
42
0.022451
0
VERTEX
8
Formers
10
745.042830
20
27.763661
30
0.000000
0
VERTEX
8
Formers
10
745.272467
20
28.054135
30
0.000000
42
0.022108
0
VERTEX
8
Formers
10
745.686054
20
28.627683
30
0.000000
0
VERTEX
8
Formers
10
745.918443
20
28.981968
30
0.000000
42
0.021440
0
VERTEX
8
Formers
10
746.269645
20
29.570973
30
0.000000
0
VERTEX
8
Formers
10
746.530808
20
30.055001
30
0.000000
42
0.019254
0
VERTEX
8
Formers
10
746.802184
20
30.607886
30
0.000000
0
VERTEX
8
Formers
10
747.003818
20
31.062096
30
0.000000
42
0.017083
0
VERTEX
8
Formers
10
747.208361
20
31.568866
30
0.000000
0
VERTEX
8
Formers
10
747.362855
20
31.992809
30
0.000000
42
0.306828
0
VERTEX
8
Formers
10
745.177924
20
40.696421
30
0.000000
42
-0.213501
0
VERTEX
8
Formers
10
742.509447
20
46.660887
30
0.000000
0
VERTEX
8
Formers
10
742.509447
20
52.878709
30
0.000000
42
-0.232516
0
VERTEX
8
Formers
10
745.623691
20
59.213485
30
0.000000
42
0.232516
0
VERTEX
8
Formers
10
748.737935
20
65.548262
30
0.000000
0
VERTEX
8
Formers
10
748.737935
20
86.991335
30
0.000000
42
0.232516
0
VERTEX
8
Formers
10
745.623691
20
93.326111
30
0.000000
0
SEQEND
8
0
0
ENDBLK
0
BLOCK
8
Formers
2
*R8
70
1
10
777.404602
20
-25.420754
3
*R8
0
POLYLINE
8
Formers
6
Continuous
70
0
66
 1
10
0.0
20
0.0
30
0.000000
0
VERTEX
8
Formers
10
830.709717
20
99.809402
30
0.000000
0
VERTEX
8
Formers
10
830.709717
20
52.730194
30
0.000000
0
VERTEX
8
Formers
10
824.774164
20
52.730194
30
0.000000
0
VERTEX
8
Formers
10
824.774164
20
46.809402
30
0.000000
0
VERTEX
8
Formers
10
830.709717
20
46.809402
30
0.000000
0
VERTEX
8
Formers
10
830.709717
20
43.292516
30
0.000000
0
VERTEX
8
Formers
10
830.672652
20
41.298729
30
0.000000
0
VERTEX
8
Formers
10
830.561458
20
39.384882
30
0.000000
0
VERTEX
8
Formers
10
830.376134
20
37.550975
30
0.000000
0
VERTEX
8
Formers
10
830.116681
20
35.797008
30
0.000000
0
VERTEX
8
Formers
10
829.783098
20
34.122981
30
0.000000
0
VERTEX
8
Formers
10
829.375386
20
32.528895
30
0.000000
0
VERTEX
8
Formers
10
828.893544
20
31.014749
30
0.000000
0
VERTEX
8
Formers
10
828.337572
20
29.580543
30
0.000000
0
VERTEX
8
Formers
10
827.611405
20
28.039336
30
0.000000
0
VERTEX
8
Formers
10
826.788416
20
26.602541
30
0.000000
0
VERTEX
8
Formers
10
825.868605
20
25.270157
30
0.000000
0
VERTEX
8
Formers
10
824.851971
20
24.042186
30
0.000000
0
VERTEX
8
Formers
10
823.738516
20
22.918625
30
0.000000
0
VERTEX
8
Formers
10
822.528238
20
21.899477
30
0.000000
0
VERTEX
8
Formers
10
821.221137
20
20.984740
30
0.000000
0
VERTEX
8
Formers
10
819.817215
20
20.174415
30
0.000000
0
VERTEX
8
Formers
10
818.316470
20
19.468501
30
0.000000
0
VERTEX
8
Formers
10
817.215369
20
19.039012
30
0.000000
0
VERTEX
8
Formers
10
816.067412
20
18.660051
30
0.000000
0
VERTEX
8
Formers
10
814.872600
20
18.331618
30
0.000000
0
VERTEX
8
Formers
10
813.630933
20
18.053714
30
0.000000
0
VERTEX
8
Formers
10
812.342410
20
17.826337
30
0.000000
0
VERTEX
8
Formers
10
811.007031
20
17.649489
30
0.000000
0
VERTEX
8
Formers
10
809.624798
20
17.523168
30
0.000000
0
VERTEX
8
Formers
10
808.195709
20
17.447376
30
0.000000
0
VERTEX
8
Formers
10
806.719765
20
17.422112
30
0.000000
0
VERTEX
8
Formers
10
790.727888
20
17.422112
30
0.000000
0
VERTEX
8
Formers
10
788.879024
20
17.462082
30
0.000000
0
VERTEX
8
Formers
10
787.104289
20
17.581992
30
0.000000
0
VERTEX
8
Formers
10
785.403684
20
17.781843
30
0.000000
0
VERTEX
8
Formers
10
783.777209
20
18.061633
30
0.000000
0
VERTEX
8
Formers
10
782.224863
20
18.421364
30
0.000000
0
VERTEX
8
Formers
10
780.746646
20
18.861035
30
0.000000
0
VERTEX
8
Formers
10
779.342559
20
19.380646
30
0.000000
0
VERTEX
8
Formers
10
778.012602
20
19.980197
30
0.000000
0
VERTEX
8
Formers
10
776.583421
20
20.763285
30
0.000000
0
VERTEX
8
Formers
10
775.251063
20
21.650784
30
0.000000
0
VERTEX
8
Formers
10
774.015527
20
22.642694
30
0.000000
0
VERTEX
8
Formers
10
772.876813
20
23.739017
30
0.000000
0
VERTEX
8
Formers
10
771.834922
20
24.939751
30
0.000000
0
VERTEX
8
Formers
10
770.889853
20
26.244896
30
0.000000
0
VERTEX
8
Formers
10
770.041605
20
27.654454
30
0.000000
0
VERTEX
8
Formers
10
769.290181
20
29.168423
30
0.000000
0
VERTEX
8
Formers
10
768.635578
20
30.786803
30
0.000000
0
VERTEX
8
Formers
10
768.237307
20
31.974214
30
0.000000
0
VERTEX
8
Formers
10
767.885892
20
33.212153
30
0.000000
0
VERTEX
8
Formers
10
767.581332
20
34.500621
30
0.000000
0
VERTEX
8
Formers
10
767.323628
20
35.839616
30
0.000000
0
VERTEX
8
Formers
10
767.112778
20
37.229140
30
0.000000
0
VERTEX
8
Formers
10
766.948785
20
38.669192
30
0.000000
0
VERTEX
8
Formers
10
766.831646
20
40.159772
30
0.000000
0
VERTEX
8
Formers
10
766.761363
20
41.700880
30
0.000000
0
VERTEX
8
Formers
10
766.737935
20
43.292516
30
0.000000
0
VERTEX
8
Formers
10
766.737935
20
46.809402
30
0.000000
0
VERTEX
8
Formers
10
772.673489
20
46.809402
30
0.000000
0
VERTEX
8
Formers
10
772.673489
20
52.730194
30
0.000000
0
VERTEX
8
Formers
10
766.737935
20
52.730194
30
0.000000
0
VERTEX
8
Formers
10
766.737935
20
99.809402
30
0.000000
0
VERTEX
8
Formers
10
772.673489
20
99.809402
30
0.000000
0
VERTEX
8
Formers
10
772.673489
20
105.730194
30
0.000000
0
VERTEX
8
Formers
10
766.737935
20
105.730194
30
0.000000
0
VERTEX
8
Formers
10
766.737935
20
107.313002
30
0.000000
0
VERTEX
8
Formers
10
766.763465
20
108.982094
30
0.000000
0
VERTEX
8
Formers
10
766.840052
20
110.603356
30
0.000000
0
VERTEX
8
Formers
10
766.967697
20
112.176787
30
0.000000
0
VERTEX
8
Formers
10
767.146401
20
113.702388
30
0.000000
0
VERTEX
8
Formers
10
767.376163
20
115.180159
30
0.000000
0
VERTEX
8
Formers
10
767.656984
20
116.610099
30
0.000000
0
VERTEX
8
Formers
10
767.988862
20
117.992210
30
0.000000
0
VERTEX
8
Formers
10
768.371799
20
119.326490
30
0.000000
0
VERTEX
8
Formers
10
768.871961
20
120.792814
30
0.000000
0
VERTEX
8
Formers
10
769.438812
20
122.196665
30
0.000000
0
VERTEX
8
Formers
10
770.072351
20
123.538045
30
0.000000
0
VERTEX
8
Formers
10
770.772578
20
124.816952
30
0.000000
0
VERTEX
8
Formers
10
771.539494
20
126.033388
30
0.000000
0
VERTEX
8
Formers
10
772.373098
20
127.187351
30
0.000000
0
VERTEX
8
Formers
10
773.273390
20
128.278842
30
0.000000
0
VERTEX
8
Formers
10
774.240371
20
129.307861
30
0.000000
0
VERTEX
8
Formers
10
775.274039
20
130.274408
30
0.000000
0
VERTEX
8
Formers
10
776.032446
20
130.909942
30
0.000000
0
VERTEX
8
Formers
10
776.823124
20
131.515245
30
0.000000
0
VERTEX
8
Formers
10
777.646076
20
132.090315
30
0.000000
0
VERTEX
8
Formers
10
778.501300
20
132.635153
30
0.000000
0
VERTEX
8
Formers
10
779.388796
20
133.149759
30
0.000000
0
VERTEX
8
Formers
10
780.308566
20
133.634132
30
0.000000
0
VERTEX
8
Formers
10
781.260608
20
134.088274
30
0.000000
0
VERTEX
8
Formers
10
782.244922
20
134.512183
30
0.000000
0
VERTEX
8
Formers
10
783.261509
20
134.905859
30
0.000000
0
VERTEX
8
Formers
10
784.729577
20
135.403291
30
0.000000
0
VERTEX
8
Formers
10
786.260116
20
135.842202
30
0.000000
0
VERTEX
8
Formers
10
787.853126
20
136.222591
30
0.000000
0
VERTEX
8
Formers
10
789.508607
20
136.544459
30
0.000000
0
VERTEX
8
Formers
10
791.226559
20
136.807806
30
0.000000
0
VERTEX
8
Formers
10
793.006981
20
137.012631
30
0.000000
0
VERTEX
8
Formers
10
794.849875
20
137.158934
30
0.000000
0
VERTEX
8
Formers
10
796.755240
20
137.246717
30
0.000000
0
VERTEX
8
Formers
10
798.723076
20
137.275977
30
0.000000
0
VERTEX
8
Formers
10
798.724577
20
137.275977
30
0.000000
0
VERTEX
8
Formers
10
800.506313
20
137.252062
30
0.000000
0
VERTEX
8
Formers
10
802.236992
20
137.180317
30
0.000000
0
VERTEX
8
Formers
10
803.916612
20
137.060741
30
0.000000
0
VERTEX
8
Formers
10
805.545174
20
136.893335
30
0.000000
0
VERTEX
8
Formers
10
807.122678
20
136.678099
30
0.000000
0
VERTEX
8
Formers
10
808.649123
20
136.415033
30
0.000000
0
VERTEX
8
Formers
10
810.124511
20
136.104137
30
0.000000
0
VERTEX
8
Formers
10
811.548840
20
135.745410
30
0.000000
0
VERTEX
8
Formers
10
813.114124
20
135.276869
30
0.000000
0
VERTEX
8
Formers
10
814.612720
20
134.745856
30
0.000000
0
VERTEX
8
Formers
10
816.044628
20
134.152370
30
0.000000
0
VERTEX
8
Formers
10
817.409847
20
133.496413
30
0.000000
0
VERTEX
8
Formers
10
818.708378
20
132.777983
30
0.000000
0
VERTEX
8
Formers
10
819.940221
20
131.997081
30
0.000000
0
VERTEX
8
Formers
10
821.105376
20
131.153707
30
0.000000
0
VERTEX
8
Formers
10
822.203842
20
130.247861
30
0.000000
0
VERTEX
8
Formers
10
823.235620
20
129.279543
30
0.000000
0
VERTEX
8
Formers
10
823.914046
20
128.569085
30
0.000000
0
VERTEX
8
Formers
10
824.560200
20
127.828395
30
0.000000
0
VERTEX
8
Formers
10
825.174081
20
127.057472
30
0.000000
0
VERTEX
8
Formers
10
825.755689
20
126.256317
30
0.000000
0
VERTEX
8
Formers
10
826.305025
20
125.424929
30
0.000000
0
VERTEX
8
Formers
10
826.822088
20
124.563310
30
0.000000
0
VERTEX
8
Formers
10
827.306879
20
123.671458
30
0.000000
0
VERTEX
8
Formers
10
827.759397
20
122.749374
30
0.000000
0
VERTEX
8
Formers
10
828.179642
20
121.797058
30
0.000000
0
VERTEX
8
Formers
10
828.710646
20
120.421804
30
0.000000
0
VERTEX
8
Formers
10
829.179178
20
118.988029
30
0.000000
0
VERTEX
8
Formers
10
829.585239
20
117.495732
30
0.000000
0
VERTEX
8
Formers
10
829.928830
20
115.944914
30
0.000000
0
VERTEX
8
Formers
10
830.209949
20
114.335575
30
0.000000
0
VERTEX
8
Formers
10
830.428598
20
112.667714
30
0.000000
0
VERTEX
8
Formers
10
830.584775
20
110.941331
30
0.000000
0
VERTEX
8
Formers
10
830.678482
20
109.156428
30
0.000000
0
VERTEX
8
Formers
10
830.709717
20
107.313002
30
0.000000
0
VERTEX
8
Formers
10
830.709717
20
105.730194
30
0.000000
0
VERTEX
8
Formers
10
824.774164
20
105.730194
30
0.000000
0
VERTEX
8
Formers
10
824.774164
20
99.809402
30
0.000000
0
VERTEX
8
Formers
10
830.709717
20
99.809402
30
0.000000
0
SEQEND
8
0
0
POLYLINE
8
Formers
6
Continuous
70
0
66
 1
10
0.0
20
0.0
30
0.000000
0
VERTEX
8
Formers
10
819.741940
20
93.590341
30
0.000000
42
-0.226376
0
VERTEX
8
Formers
10
816.774164
20
99.809402
30
0.000000
0
VERTEX
8
Formers
10
816.774164
20
105.730194
30
0.000000
42
-0.187519
0
VERTEX
8
Formers
10
818.874316
20
111.133138
30
0.000000
42
0.320152
0
VERTEX
8
Formers
10
820.003172
20
120.356727
30
0.000000
0
VERTEX
8
Formers
10
819.956164
20
120.443206
30
0.000000
42
0.010650
0
VERTEX
8
Formers
10
819.787083
20
120.739063
30
0.000000
0
VERTEX
8
Formers
10
819.624066
20
121.010708
30
0.000000
42
0.010849
0
VERTEX
8
Formers
10
819.439030
20
121.304412
30
0.000000
0
VERTEX
8
Formers
10
819.275389
20
121.552073
30
0.000000
42
0.011012
0
VERTEX
8
Formers
10
819.074725
20
121.841691
30
0.000000
0
VERTEX
8
Formers
10
818.909516
20
122.069263
30
0.000000
42
0.011135
0
VERTEX
8
Formers
10
818.693843
20
122.352844
30
0.000000
0
VERTEX
8
Formers
10
818.525542
20
122.564200
30
0.000000
42
0.011215
0
VERTEX
8
Formers
10
818.295768
20
122.839835
30
0.000000
0
VERTEX
8
Formers
10
818.122282
20
123.038703
30
0.000000
42
0.011251
0
VERTEX
8
Formers
10
817.879588
20
123.304583
30
0.000000
0
VERTEX
8
Formers
10
817.752552
20
123.437618
30
0.000000
42
0.013695
0
VERTEX
8
Formers
10
817.441389
20
123.746098
30
0.000000
0
VERTEX
8
Formers
10
817.103221
20
124.063467
30
0.000000
42
0.016024
0
VERTEX
8
Formers
10
816.718369
20
124.402123
30
0.000000
0
VERTEX
8
Formers
10
816.404880
20
124.660641
30
0.000000
42
0.015763
0
VERTEX
8
Formers
10
816.005885
20
124.969068
30
0.000000
0
VERTEX
8
Formers
10
815.648425
20
125.227808
30
0.000000
42
0.015388
0
VERTEX
8
Formers
10
815.240948
20
125.504054
30
0.000000
0
VERTEX
8
Formers
10
814.828243
20
125.765680
30
0.000000
42
0.014914
0
VERTEX
8
Formers
10
814.417827
20
126.009008
30
0.000000
0
VERTEX
8
Formers
10
813.939144
20
126.273846
30
0.000000
42
0.014360
0
VERTEX
8
Formers
10
813.530916
20
126.484626
30
0.000000
0
VERTEX
8
Formers
10
812.976595
20
126.750966
30
0.000000
42
0.013748
0
VERTEX
8
Formers
10
812.575043
20
126.930487
30
0.000000
0
VERTEX
8
Formers
10
811.936843
20
127.195003
30
0.000000
42
0.013097
0
VERTEX
8
Formers
10
811.545688
20
127.345247
30
0.000000
0
VERTEX
8
Formers
10
810.816965
20
127.603463
30
0.000000
42
0.012424
0
VERTEX
8
Formers
10
810.439116
20
127.726874
30
0.000000
0
VERTEX
8
Formers
10
809.592934
20
127.980164
30
0.000000
42
0.011030
0
VERTEX
8
Formers
10
809.252680
20
128.073887
30
0.000000
0
VERTEX
8
Formers
10
808.473587
20
128.270107
30
0.000000
42
0.009761
0
VERTEX
8
Formers
10
808.169299
20
128.340457
30
0.000000
0
VERTEX
8
Formers
10
807.289409
20
128.525869
30
0.000000
42
0.009255
0
VERTEX
8
Formers
10
806.998542
20
128.581559
30
0.000000
0
VERTEX
8
Formers
10
806.040421
20
128.746681
30
0.000000
42
0.008765
0
VERTEX
8
Formers
10
805.763244
20
128.789461
30
0.000000
0
VERTEX
8
Formers
10
804.726613
20
128.930900
30
0.000000
42
0.008293
0
VERTEX
8
Formers
10
804.463145
20
128.962406
30
0.000000
0
VERTEX
8
Formers
10
803.348173
20
129.077018
30
0.000000
42
0.007841
0
VERTEX
8
Formers
10
803.098233
20
129.098756
30
0.000000
0
VERTEX
8
Formers
10
801.905438
20
129.183673
30
0.000000
42
0.007410
0
VERTEX
8
Formers
10
801.668696
20
129.197004
30
0.000000
0
VERTEX
8
Formers
10
800.398858
20
129.249646
30
0.000000
42
0.007003
0
VERTEX
8
Formers
10
800.174871
20
129.255790
30
0.000000
0
VERTEX
8
Formers
10
798.843431
20
129.273661
30
0.000000
42
0.007070
0
VERTEX
8
Formers
10
798.617210
20
129.273499
30
0.000000
0
VERTEX
8
Formers
10
797.123536
20
129.251306
30
0.000000
42
0.007796
0
VERTEX
8
Formers
10
796.874211
20
129.243712
30
0.000000
0
VERTEX
8
Formers
10
795.483263
20
129.179630
30
0.000000
42
0.008296
0
VERTEX
8
Formers
10
795.218329
20
129.163015
30
0.000000
0
VERTEX
8
Formers
10
793.921777
20
129.060084
30
0.000000
42
0.008830
0
VERTEX
8
Formers
10
793.640576
20
129.032756
30
0.000000
0
VERTEX
8
Formers
10
792.439477
20
128.894578
30
0.000000
42
0.009392
0
VERTEX
8
Formers
10
792.141622
20
128.854630
30
0.000000
0
VERTEX
8
Formers
10
791.036513
20
128.685227
30
0.000000
42
0.009981
0
VERTEX
8
Formers
10
790.721867
20
128.630545
30
0.000000
0
VERTEX
8
Formers
10
789.712700
20
128.434338
30
0.000000
42
0.010592
0
VERTEX
8
Formers
10
789.381460
20
128.362623
30
0.000000
0
VERTEX
8
Formers
10
788.467427
20
128.144364
30
0.000000
42
0.011220
0
VERTEX
8
Formers
10
788.120217
20
128.053174
30
0.000000
0
VERTEX
8
Formers
10
787.299566
20
127.817837
30
0.000000
42
0.011855
0
VERTEX
8
Formers
10
786.937526
20
127.704660
30
0.000000
0
VERTEX
8
Formers
10
786.152974
20
127.438827
30
0.000000
42
0.010694
0
VERTEX
8
Formers
10
785.831311
20
127.322109
30
0.000000
0
VERTEX
8
Formers
10
785.411355
20
127.159480
30
0.000000
42
0.009297
0
VERTEX
8
Formers
10
785.135984
20
127.046910
30
0.000000
0
VERTEX
8
Formers
10
784.707388
20
126.862329
30
0.000000
42
0.009609
0
VERTEX
8
Formers
10
784.427389
20
126.735311
30
0.000000
0
VERTEX
8
Formers
10
784.039067
20
126.550074
30
0.000000
42
0.009907
0
VERTEX
8
Formers
10
783.755721
20
126.407955
30
0.000000
0
VERTEX
8
Formers
10
783.404924
20
126.223216
30
0.000000
42
0.010186
0
VERTEX
8
Formers
10
783.119695
20
126.065504
30
0.000000
0
VERTEX
8
Formers
10
782.803324
20
125.882059
30
0.000000
42
0.010442
0
VERTEX
8
Formers
10
782.517840
20
125.708459
30
0.000000
0
VERTEX
8
Formers
10
782.232494
20
125.526673
30
0.000000
42
0.010671
0
VERTEX
8
Formers
10
781.948520
20
125.337123
30
0.000000
0
VERTEX
8
Formers
10
781.690562
20
125.156865
30
0.000000
42
0.010867
0
VERTEX
8
Formers
10
781.409959
20
124.951565
30
0.000000
0
VERTEX
8
Formers
10
781.175607
20
124.772158
30
0.000000
42
0.011026
0
VERTEX
8
Formers
10
780.900285
20
124.551590
30
0.000000
0
VERTEX
8
Formers
10
780.745829
20
124.422157
30
0.000000
42
0.013595
0
VERTEX
8
Formers
10
780.420177
20
124.133839
30
0.000000
0
VERTEX
8
Formers
10
780.082029
20
123.817649
30
0.000000
42
0.016155
0
VERTEX
8
Formers
10
779.716117
20
123.452640
30
0.000000
0
VERTEX
8
Formers
10
779.457439
20
123.177367
30
0.000000
42
0.016159
0
VERTEX
8
Formers
10
779.115793
20
122.789412
30
0.000000
0
VERTEX
8
Formers
10
778.871048
20
122.492690
30
0.000000
42
0.016028
0
VERTEX
8
Formers
10
778.557618
20
122.086870
30
0.000000
0
VERTEX
8
Formers
10
778.320006
20
121.757943
30
0.000000
42
0.015770
0
VERTEX
8
Formers
10
778.037621
20
121.339868
30
0.000000
0
VERTEX
8
Formers
10
777.802718
20
120.967279
30
0.000000
42
0.015396
0
VERTEX
8
Formers
10
777.552978
20
120.542724
30
0.000000
0
VERTEX
8
Formers
10
777.460314
20
120.373482
30
0.000000
42
0.320882
0
VERTEX
8
Formers
10
778.575433
20
111.130847
30
0.000000
42
-0.187418
0
VERTEX
8
Formers
10
780.673489
20
105.730194
30
0.000000
0
VERTEX
8
Formers
10
780.673489
20
99.809402
30
0.000000
42
-0.226376
0
VERTEX
8
Formers
10
777.705712
20
93.590341
30
0.000000
42
0.226376
0
VERTEX
8
Formers
10
774.737935
20
87.371279
30
0.000000
0
VERTEX
8
Formers
10
774.737935
20
65.168318
30
0.000000
42
0.226376
0
VERTEX
8
Formers
10
777.705712
20
58.949256
30
0.000000
42
-0.226376
0
VERTEX
8
Formers
10
780.673489
20
52.730194
30
0.000000
0
VERTEX
8
Formers
10
780.673489
20
46.809402
30
0.000000
42
-0.198530
0
VERTEX
8
Formers
10
778.338669
20
41.160886
30
0.000000
42
0.321604
0
VERTEX
8
Formers
10
776.837936
20
31.955728
30
0.000000
0
VERTEX
8
Formers
10
776.919188
20
31.792022
30
0.000000
42
0.020259
0
VERTEX
8
Formers
10
777.230554
20
31.223716
30
0.000000
0
VERTEX
8
Formers
10
777.393586
20
30.952800
30
0.000000
42
0.021252
0
VERTEX
8
Formers
10
777.768511
20
30.385786
30
0.000000
0
VERTEX
8
Formers
10
777.901560
20
30.202045
30
0.000000
42
0.021994
0
VERTEX
8
Formers
10
778.338797
20
29.650954
30
0.000000
0
VERTEX
8
Formers
10
778.448711
20
29.524283
30
0.000000
42
0.022423
0
VERTEX
8
Formers
10
778.942532
20
29.004224
30
0.000000
0
VERTEX
8
Formers
10
779.045195
20
28.905383
30
0.000000
42
0.022498
0
VERTEX
8
Formers
10
779.585486
20
28.430128
30
0.000000
0
VERTEX
8
Formers
10
779.704762
20
28.334371
30
0.000000
42
0.022213
0
VERTEX
8
Formers
10
780.277993
20
27.914629
30
0.000000
0
VERTEX
8
Formers
10
780.443062
20
27.804674
30
0.000000
42
0.021595
0
VERTEX
8
Formers
10
781.033922
20
27.446924
30
0.000000
0
VERTEX
8
Formers
10
781.311183
20
27.295005
30
0.000000
42
0.019434
0
VERTEX
8
Formers
10
781.867567
20
27.017690
30
0.000000
0
VERTEX
8
Formers
10
782.126336
20
26.901035
30
0.000000
42
0.017272
0
VERTEX
8
Formers
10
782.637598
20
26.691486
30
0.000000
0
VERTEX
8
Formers
10
783.032769
20
26.545245
30
0.000000
42
0.016337
0
VERTEX
8
Formers
10
783.528584
20
26.379962
30
0.000000
0
VERTEX
8
Formers
10
784.034726
20
26.229419
30
0.000000
42
0.015348
0
VERTEX
8
Formers
10
784.509436
20
26.103945
30
0.000000
0
VERTEX
8
Formers
10
785.136071
20
25.958732
30
0.000000
42
0.014341
0
VERTEX
8
Formers
10
785.585822
20
25.868015
30
0.000000
0
VERTEX
8
Formers
10
786.339029
20
25.738447
30
0.000000
42
0.013344
0
VERTEX
8
Formers
10
786.761576
20
25.677319
30
0.000000
0
VERTEX
8
Formers
10
787.644484
20
25.573562
30
0.000000
42
0.012380
0
VERTEX
8
Formers
10
788.038905
20
25.537084
30
0.000000
0
VERTEX
8
Formers
10
789.052308
20
25.468614
30
0.000000
42
0.011462
0
VERTEX
8
Formers
10
789.418690
20
25.452284
30
0.000000
0
VERTEX
8
Formers
10
790.727908
20
25.423981
30
0.000000
42
0.005404
0
VERTEX
8
Formers
10
790.900818
20
25.422112
30
0.000000
0
VERTEX
8
Formers
10
806.582837
20
25.422112
30
0.000000
42
0.004279
0
VERTEX
8
Formers
10
806.719755
20
25.423284
30
0.000000
0
VERTEX
8
Formers
10
807.771841
20
25.441293
30
0.000000
42
0.008968
0
VERTEX
8
Formers
10
808.058611
20
25.451348
30
0.000000
0
VERTEX
8
Formers
10
808.896304
20
25.495775
30
0.000000
42
0.009538
0
VERTEX
8
Formers
10
809.200692
20
25.517748
30
0.000000
0
VERTEX
8
Formers
10
809.956005
20
25.586775
30
0.000000
42
0.010133
0
VERTEX
8
Formers
10
810.278227
20
25.622820
30
0.000000
0
VERTEX
8
Formers
10
810.951057
20
25.711925
30
0.000000
42
0.010750
0
VERTEX
8
Formers
10
811.290986
20
25.764402
30
0.000000
0
VERTEX
8
Formers
10
811.882010
20
25.868695
30
0.000000
42
0.011381
0
VERTEX
8
Formers
10
812.239082
20
25.940121
30
0.000000
0
VERTEX
8
Formers
10
812.749956
20
26.054463
30
0.000000
42
0.012018
0
VERTEX
8
Formers
10
813.123068
20
26.147441
30
0.000000
0
VERTEX
8
Formers
10
813.556622
20
26.266617
30
0.000000
42
0.012650
0
VERTEX
8
Formers
10
813.944040
20
26.383729
30
0.000000
0
VERTEX
8
Formers
10
814.304445
20
26.502705
30
0.000000
42
0.013263
0
VERTEX
8
Formers
10
814.703730
20
26.646368
30
0.000000
0
VERTEX
8
Formers
10
814.904103
20
26.724524
30
0.000000
42
0.016943
0
VERTEX
8
Formers
10
815.402105
20
26.938481
30
0.000000
0
VERTEX
8
Formers
10
815.805049
20
27.128016
30
0.000000
42
0.020955
0
VERTEX
8
Formers
10
816.399083
20
27.438465
30
0.000000
0
VERTEX
8
Formers
10
816.617908
20
27.564767
30
0.000000
42
0.021786
0
VERTEX
8
Formers
10
817.205672
20
27.939057
30
0.000000
0
VERTEX
8
Formers
10
817.355819
20
28.044133
30
0.000000
42
0.022321
0
VERTEX
8
Formers
10
817.921893
20
28.479166
30
0.000000
0
VERTEX
8
Formers
10
818.034178
20
28.573718
30
0.000000
42
0.022513
0
VERTEX
8
Formers
10
818.563537
20
29.061845
30
0.000000
0
VERTEX
8
Formers
10
818.666079
20
29.165317
30
0.000000
42
0.022344
0
VERTEX
8
Formers
10
819.145947
20
29.694886
30
0.000000
0
VERTEX
8
Formers
10
819.260726
20
29.833525
30
0.000000
42
0.021829
0
VERTEX
8
Formers
10
819.682074
20
30.390237
30
0.000000
0
VERTEX
8
Formers
10
819.822649
20
30.593866
30
0.000000
42
0.021014
0
VERTEX
8
Formers
10
820.180941
20
31.162570
30
0.000000
0
VERTEX
8
Formers
10
820.351842
20
31.460934
30
0.000000
42
0.019967
0
VERTEX
8
Formers
10
820.646920
20
32.027385
30
0.000000
0
VERTEX
8
Formers
10
820.681826
20
32.101469
30
0.000000
42
0.316016
0
VERTEX
8
Formers
10
819.109528
20
41.160340
30
0.000000
42
-0.198555
0
VERTEX
8
Formers
10
816.774164
20
46.809402
30
0.000000
0
VERTEX
8
Formers
10
816.774164
20
52.730194
30
0.000000
42
-0.226376
0
VERTEX
8
Formers
10
819.741940
20
58.949256
30
0.000000
42
0.226376
0
VERTEX
8
Formers
10
822.709717
20
65.168318
30
0.000000
0
VERTEX
8
Formers
10
822.709717
20
87.371279
30
0.000000
42
0.226376
0
VERTEX
8
Formers
10
819.741940
20
93.590341
30
0.000000
0
SEQEND
8
0
0
ENDBLK
0
BLOCK
8
Formers
2
*R9
70
1
10
851.376384
20
-23.868986
3
*R9
0
POLYLINE
8
Formers
6
Continuous
70
0
66
 1
10
0.0
20
0.0
30
0.000000
0
VERTEX
8
Formers
10
889.073061
20
99.957917
30
0.000000
0
VERTEX
8
Formers
10
889.073061
20
52.581679
30
0.000000
0
VERTEX
8
Formers
10
883.431529
20
52.581679
30
0.000000
0
VERTEX
8
Formers
10
883.431529
20
46.957917
30
0.000000
0
VERTEX
8
Formers
10
889.073061
20
46.957917
30
0.000000
0
VERTEX
8
Formers
10
889.073061
20
45.570941
30
0.000000
0
VERTEX
8
Formers
10
889.045040
20
43.695960
30
0.000000
0
VERTEX
8
Formers
10
888.960977
20
41.896156
30
0.000000
0
VERTEX
8
Formers
10
888.820871
20
40.171528
30
0.000000
0
VERTEX
8
Formers
10
888.624723
20
38.522077
30
0.000000
0
VERTEX
8
Formers
10
888.372532
20
36.947802
30
0.000000
0
VERTEX
8
Formers
10
888.064299
20
35.448705
30
0.000000
0
VERTEX
8
Formers
10
887.700024
20
34.024784
30
0.000000
0
VERTEX
8
Formers
10
887.279707
20
32.676039
30
0.000000
0
VERTEX
8
Formers
10
886.730721
20
31.226670
30
0.000000
0
VERTEX
8
Formers
10
886.108537
20
29.875491
30
0.000000
0
VERTEX
8
Formers
10
885.413154
20
28.622502
30
0.000000
0
VERTEX
8
Formers
10
884.644574
20
27.467703
30
0.000000
0
VERTEX
8
Formers
10
883.802795
20
26.411094
30
0.000000
0
VERTEX
8
Formers
10
882.887819
20
25.452674
30
0.000000
0
VERTEX
8
Formers
10
881.899644
20
24.592445
30
0.000000
0
VERTEX
8
Formers
10
880.838271
20
23.830406
30
0.000000
0
VERTEX
8
Formers
10
879.703700
20
23.166556
30
0.000000
0
VERTEX
8
Formers
10
878.871261
20
22.762660
30
0.000000
0
VERTEX
8
Formers
10
878.003400
20
22.406280
30
0.000000
0
VERTEX
8
Formers
10
877.100115
20
22.097418
30
0.000000
0
VERTEX
8
Formers
10
876.161408
20
21.836073
30
0.000000
0
VERTEX
8
Formers
10
875.187278
20
21.622246
30
0.000000
0
VERTEX
8
Formers
10
874.177724
20
21.455935
30
0.000000
0
VERTEX
8
Formers
10
873.132748
20
21.337142
30
0.000000
0
VERTEX
8
Formers
10
872.052349
20
21.265866
30
0.000000
0
VERTEX
8
Formers
10
870.936528
20
21.242107
30
0.000000
0
VERTEX
8
Formers
10
858.846251
20
21.242107
30
0.000000
0
VERTEX
8
Formers
10
857.448500
20
21.279696
30
0.000000
0
VERTEX
8
Formers
10
856.106791
20
21.392461
30
0.000000
0
VERTEX
8
Formers
10
854.821124
20
21.580403
30
0.000000
0
VERTEX
8
Formers
10
853.591500
20
21.843521
30
0.000000
0
VERTEX
8
Formers
10
852.417918
20
22.181816
30
0.000000
0
VERTEX
8
Formers
10
851.300378
20
22.595288
30
0.000000
0
VERTEX
8
Formers
10
850.238881
20
23.083936
30
0.000000
0
VERTEX
8
Formers
10
849.233426
20
23.647761
30
0.000000
0
VERTEX
8
Formers
10
848.152958
20
24.384186
30
0.000000
0
VERTEX
8
Formers
10
847.145688
20
25.218800
30
0.000000
0
VERTEX
8
Formers
10
846.211616
20
26.151605
30
0.000000
0
VERTEX
8
Formers
10
845.350742
20
27.182599
30
0.000000
0
VERTEX
8
Formers
10
844.563066
20
28.311784
30
0.000000
0
VERTEX
8
Formers
10
843.848589
20
29.539158
30
0.000000
0
VERTEX
8
Formers
10
843.207309
20
30.864722
30
0.000000
0
VERTEX
8
Formers
10
842.639228
20
32.288477
30
0.000000
0
VERTEX
8
Formers
10
842.144345
20
33.810421
30
0.000000
0
VERTEX
8
Formers
10
841.843250
20
34.927076
30
0.000000
0
VERTEX
8
Formers
10
841.577579
20
36.091249
30
0.000000
0
VERTEX
8
Formers
10
841.347330
20
37.302939
30
0.000000
0
VERTEX
8
Formers
10
841.152504
20
38.562146
30
0.000000
0
VERTEX
8
Formers
10
840.993100
20
39.868871
30
0.000000
0
VERTEX
8
Formers
10
840.869120
20
41.223112
30
0.000000
0
VERTEX
8
Formers
10
840.780563
20
42.624871
30
0.000000
0
VERTEX
8
Formers
10
840.727429
20
44.074148
30
0.000000
0
VERTEX
8
Formers
10
840.709717
20
45.570941
30
0.000000
0
VERTEX
8
Formers
10
840.709717
20
46.957917
30
0.000000
0
VERTEX
8
Formers
10
846.351249
20
46.957917
30
0.000000
0
VERTEX
8
Formers
10
846.351249
20
52.581679
30
0.000000
0
VERTEX
8
Formers
10
840.709717
20
52.581679
30
0.000000
0
VERTEX
8
Formers
10
840.709717
20
99.957917
30
0.000000
0
VERTEX
8
Formers
10
846.351249
20
99.957917
30
0.000000
0
VERTEX
8
Formers
10
846.351249
20
105.581679
30
0.000000
0
VERTEX
8
Formers
10
840.709717
20
105.581679
30
0.000000
0
VERTEX
8
Formers
10
840.709717
20
107.730493
30
0.000000
0
VERTEX
8
Formers
10
840.747077
20
109.952296
30
0.000000
0
VERTEX
8
Formers
10
840.859159
20
112.085016
30
0.000000
0
VERTEX
8
Formers
10
841.045960
20
114.128655
30
0.000000
0
VERTEX
8
Formers
10
841.307483
20
116.083211
30
0.000000
0
VERTEX
8
Formers
10
841.643726
20
117.948684
30
0.000000
0
VERTEX
8
Formers
10
842.054690
20
119.725075
30
0.000000
0
VERTEX
8
Formers
10
842.540375
20
121.412384
30
0.000000
0
VERTEX
8
Formers
10
843.100781
20
123.010611
30
0.000000
0
VERTEX
8
Formers
10
843.832739
20
124.728075
30
0.000000
0
VERTEX
8
Formers
10
844.662291
20
126.329186
30
0.000000
0
VERTEX
8
Formers
10
845.589438
20
127.813945
30
0.000000
0
VERTEX
8
Formers
10
846.614180
20
129.182352
30
0.000000
0
VERTEX
8
Formers
10
847.736516
20
130.434406
30
0.000000
0
VERTEX
8
Formers
10
848.956446
20
131.570107
30
0.000000
0
VERTEX
8
Formers
10
850.273971
20
132.589456
30
0.000000
0
VERTEX
8
Formers
10
851.689090
20
133.492453
30
0.000000
0
VERTEX
8
Formers
10
853.201804
20
134.279097
30
0.000000
0
VERTEX
8
Formers
10
854.311687
20
134.757704
30
0.000000
0
VERTEX
8
Formers
10
855.468799
20
135.180004
30
0.000000
0
VERTEX
8
Formers
10
856.673140
20
135.545997
30
0.000000
0
VERTEX
8
Formers
10
857.924710
20
135.855684
30
0.000000
0
VERTEX
8
Formers
10
859.223509
20
136.109064
30
0.000000
0
VERTEX
8
Formers
10
860.569537
20
136.306138
30
0.000000
0
VERTEX
8
Formers
10
861.962795
20
136.446904
30
0.000000
0
VERTEX
8
Formers
10
863.403281
20
136.531364
30
0.000000
0
VERTEX
8
Formers
10
864.890996
20
136.559518
30
0.000000
0
VERTEX
8
Formers
10
864.891782
20
136.559518
30
0.000000
0
VERTEX
8
Formers
10
866.755391
20
136.514977
30
0.000000
0
VERTEX
8
Formers
10
868.544280
20
136.381353
30
0.000000
0
VERTEX
8
Formers
10
870.258448
20
136.158647
30
0.000000
0
VERTEX
8
Formers
10
871.897895
20
135.846859
30
0.000000
0
VERTEX
8
Formers
10
873.462621
20
135.445988
30
0.000000
0
VERTEX
8
Formers
10
874.952627
20
134.956035
30
0.000000
0
VERTEX
8
Formers
10
876.367912
20
134.377000
30
0.000000
0
VERTEX
8
Formers
10
877.708476
20
133.708882
30
0.000000
0
VERTEX
8
Formers
10
879.149055
20
132.836238
30
0.000000
0
VERTEX
8
Formers
10
880.492039
20
131.847242
30
0.000000
0
VERTEX
8
Formers
10
881.737429
20
130.741893
30
0.000000
0
VERTEX
8
Formers
10
882.885224
20
129.520192
30
0.000000
0
VERTEX
8
Formers
10
883.935425
20
128.182138
30
0.000000
0
VERTEX
8
Formers
10
884.888031
20
126.727732
30
0.000000
0
VERTEX
8
Formers
10
885.743044
20
125.156973
30
0.000000
0
VERTEX
8
Formers
10
886.500461
20
123.469862
30
0.000000
0
VERTEX
8
Formers
10
887.160284
20
121.666398
30
0.000000
0
VERTEX
8
Formers
10
887.561731
20
120.343191
30
0.000000
0
VERTEX
8
Formers
10
887.915949
20
118.963677
30
0.000000
0
VERTEX
8
Formers
10
888.222938
20
117.527857
30
0.000000
0
VERTEX
8
Formers
10
888.482698
20
116.035729
30
0.000000
0
VERTEX
8
Formers
10
888.695229
20
114.487295
30
0.000000
0
VERTEX
8
Formers
10
888.860531
20
112.882555
30
0.000000
0
VERTEX
8
Formers
10
888.978603
20
111.221507
30
0.000000
0
VERTEX
8
Formers
10
889.049447
20
109.504153
30
0.000000
0
VERTEX
8
Formers
10
889.073061
20
107.730493
30
0.000000
0
VERTEX
8
Formers
10
889.073061
20
105.581679
30
0.000000
0
VERTEX
8
Formers
10
883.431529
20
105.581679
30
0.000000
0
VERTEX
8
Formers
10
883.431529
20
99.957917
30
0.000000
0
VERTEX
8
Formers
10
889.073061
20
99.957917
30
0.000000
0
SEQEND
8
0
0
POLYLINE
8
Formers
6
Continuous
70
0
66
 1
10
0.0
20
0.0
30
0.000000
0
VERTEX
8
Formers
10
878.252295
20
93.860743
30
0.000000
42
-0.220110
0
VERTEX
8
Formers
10
875.431529
20
99.957917
30
0.000000
0
VERTEX
8
Formers
10
875.431529
20
105.581679
30
0.000000
42
-0.194708
0
VERTEX
8
Formers
10
877.683838
20
111.146214
30
0.000000
42
0.287540
0
VERTEX
8
Formers
10
879.449103
20
119.459472
30
0.000000
0
VERTEX
8
Formers
10
879.183400
20
120.185707
30
0.000000
42
0.017811
0
VERTEX
8
Formers
10
878.968698
20
120.713488
30
0.000000
0
VERTEX
8
Formers
10
878.695580
20
121.321843
30
0.000000
42
0.019129
0
VERTEX
8
Formers
10
878.423808
20
121.870068
30
0.000000
0
VERTEX
8
Formers
10
878.173008
20
122.330817
30
0.000000
42
0.020350
0
VERTEX
8
Formers
10
877.838806
20
122.889395
30
0.000000
0
VERTEX
8
Formers
10
877.618499
20
123.225753
30
0.000000
42
0.021398
0
VERTEX
8
Formers
10
877.219339
20
123.781740
30
0.000000
0
VERTEX
8
Formers
10
877.030850
20
124.021893
30
0.000000
42
0.022196
0
VERTEX
8
Formers
10
876.568188
20
124.560349
30
0.000000
0
VERTEX
8
Formers
10
876.404051
20
124.735055
30
0.000000
42
0.022675
0
VERTEX
8
Formers
10
875.884034
20
125.240548
30
0.000000
0
VERTEX
8
Formers
10
875.727312
20
125.379647
30
0.000000
42
0.022790
0
VERTEX
8
Formers
10
875.160687
20
125.838158
30
0.000000
0
VERTEX
8
Formers
10
874.986082
20
125.966740
30
0.000000
42
0.022531
0
VERTEX
8
Formers
10
874.387171
20
126.367482
30
0.000000
0
VERTEX
8
Formers
10
874.126946
20
126.525116
30
0.000000
42
0.020575
0
VERTEX
8
Formers
10
873.550499
20
126.842654
30
0.000000
0
VERTEX
8
Formers
10
873.329560
20
126.952767
30
0.000000
42
0.018503
0
VERTEX
8
Formers
10
872.790412
20
127.197006
30
0.000000
0
VERTEX
8
Formers
10
872.446746
20
127.337610
30
0.000000
42
0.017668
0
VERTEX
8
Formers
10
871.916410
20
127.533015
30
0.000000
0
VERTEX
8
Formers
10
871.472184
20
127.679088
30
0.000000
42
0.016724
0
VERTEX
8
Formers
10
870.958627
20
127.829126
30
0.000000
0
VERTEX
8
Formers
10
870.399812
20
127.972290
30
0.000000
42
0.015717
0
VERTEX
8
Formers
10
869.909037
20
128.081710
30
0.000000
0
VERTEX
8
Formers
10
869.225565
20
128.211693
30
0.000000
42
0.014685
0
VERTEX
8
Formers
10
868.761626
20
128.285880
30
0.000000
0
VERTEX
8
Formers
10
867.947154
20
128.391697
30
0.000000
42
0.013661
0
VERTEX
8
Formers
10
867.512362
20
128.436146
30
0.000000
0
VERTEX
8
Formers
10
866.563737
20
128.507005
30
0.000000
42
0.012666
0
VERTEX
8
Formers
10
866.158975
20
128.526947
30
0.000000
0
VERTEX
8
Formers
10
865.043048
20
128.553618
30
0.000000
42
0.010702
0
VERTEX
8
Formers
10
864.700614
20
128.554471
30
0.000000
0
VERTEX
8
Formers
10
863.871784
20
128.538795
30
0.000000
42
0.009914
0
VERTEX
8
Formers
10
863.554809
20
128.526509
30
0.000000
0
VERTEX
8
Formers
10
862.767539
20
128.480350
30
0.000000
42
0.010532
0
VERTEX
8
Formers
10
862.431619
20
128.453544
30
0.000000
0
VERTEX
8
Formers
10
861.729450
20
128.382601
30
0.000000
42
0.011172
0
VERTEX
8
Formers
10
861.374698
20
128.338732
30
0.000000
0
VERTEX
8
Formers
10
860.756840
20
128.248271
30
0.000000
42
0.011823
0
VERTEX
8
Formers
10
860.383947
20
128.184636
30
0.000000
0
VERTEX
8
Formers
10
859.848419
20
128.080161
30
0.000000
42
0.012475
0
VERTEX
8
Formers
10
859.458686
20
127.993984
30
0.000000
0
VERTEX
8
Formers
10
859.002186
20
127.881028
30
0.000000
42
0.013116
0
VERTEX
8
Formers
10
858.597622
20
127.769586
30
0.000000
0
VERTEX
8
Formers
10
858.215353
20
127.653416
30
0.000000
42
0.013729
0
VERTEX
8
Formers
10
857.798744
20
127.514207
30
0.000000
0
VERTEX
8
Formers
10
857.484324
20
127.399456
30
0.000000
42
0.014298
0
VERTEX
8
Formers
10
857.059254
20
127.230399
30
0.000000
0
VERTEX
8
Formers
10
856.901745
20
127.162478
30
0.000000
42
0.018104
0
VERTEX
8
Formers
10
856.378603
20
126.914059
30
0.000000
0
VERTEX
8
Formers
10
856.008106
20
126.721393
30
0.000000
42
0.022112
0
VERTEX
8
Formers
10
855.395684
20
126.367685
30
0.000000
0
VERTEX
8
Formers
10
855.188213
20
126.235297
30
0.000000
42
0.022634
0
VERTEX
8
Formers
10
854.596206
20
125.818681
30
0.000000
0
VERTEX
8
Formers
10
854.429078
20
125.689376
30
0.000000
42
0.022796
0
VERTEX
8
Formers
10
853.873349
20
125.217410
30
0.000000
0
VERTEX
8
Formers
10
853.716830
20
125.071698
30
0.000000
42
0.022584
0
VERTEX
8
Formers
10
853.210915
20
124.556162
30
0.000000
0
VERTEX
8
Formers
10
853.041678
20
124.367366
30
0.000000
42
0.022016
0
VERTEX
8
Formers
10
852.595186
20
123.822837
30
0.000000
0
VERTEX
8
Formers
10
852.398735
20
123.560503
30
0.000000
42
0.021146
0
VERTEX
8
Formers
10
852.016560
20
123.002459
30
0.000000
0
VERTEX
8
Formers
10
851.787851
20
122.636198
30
0.000000
42
0.020045
0
VERTEX
8
Formers
10
851.470316
20
122.079179
30
0.000000
0
VERTEX
8
Formers
10
851.212684
20
121.581926
30
0.000000
42
0.018791
0
VERTEX
8
Formers
10
850.956401
20
121.038187
30
0.000000
0
VERTEX
8
Formers
10
850.666199
20
120.357257
30
0.000000
42
0.016408
0
VERTEX
8
Formers
10
850.476348
20
119.867865
30
0.000000
0
VERTEX
8
Formers
10
850.297457
20
119.357685
30
0.000000
42
0.283887
0
VERTEX
8
Formers
10
852.099030
20
111.146121
30
0.000000
42
-0.194704
0
VERTEX
8
Formers
10
854.351249
20
105.581679
30
0.000000
0
VERTEX
8
Formers
10
854.351249
20
99.957917
30
0.000000
42
-0.220110
0
VERTEX
8
Formers
10
851.530483
20
93.860743
30
0.000000
42
0.220110
0
VERTEX
8
Formers
10
848.709717
20
87.763568
30
0.000000
0
VERTEX
8
Formers
10
848.709717
20
64.776028
30
0.000000
42
0.220110
0
VERTEX
8
Formers
10
851.530483
20
58.678854
30
0.000000
42
-0.220110
0
VERTEX
8
Formers
10
854.351249
20
52.581679
30
0.000000
0
VERTEX
8
Formers
10
854.351249
20
46.957917
30
0.000000
42
-0.164608
0
VERTEX
8
Formers
10
852.707408
20
42.100012
30
0.000000
42
0.621175
0
VERTEX
8
Formers
10
859.063568
20
29.242107
30
0.000000
0
VERTEX
8
Formers
10
870.719211
20
29.242107
30
0.000000
42
0.621175
0
VERTEX
8
Formers
10
877.075370
20
42.100012
30
0.000000
42
-0.164608
0
VERTEX
8
Formers
10
875.431529
20
46.957917
30
0.000000
0
VERTEX
8
Formers
10
875.431529
20
52.581679
30
0.000000
42
-0.220110
0
VERTEX
8
Formers
10
878.252295
20
58.678854
30
0.000000
42
0.220110
0
VERTEX
8
Formers
10
881.073061
20
64.776028
30
0.000000
0
VERTEX
8
Formers
10
881.073061
20
87.763568
30
0.000000
42
0.220110
0
VERTEX
8
Formers
10
878.252295
20
93.860743
30
0.000000
0
SEQEND
8
0
0
ENDBLK
0
BLOCK
8
Formers
2
*R10
70
1
10
921.475596
20
-22.192305
3
*R10
0
POLYLINE
8
Formers
6
Continuous
70
0
66
 1
10
0.0
20
0.0
30
0.000000
0
VERTEX
8
Formers
10
930.544798
20
100.106432
30
0.000000
0
VERTEX
8
Formers
10
930.544798
20
52.433165
30
0.000000
0
VERTEX
8
Formers
10
925.199099
20
52.433165
30
0.000000
0
VERTEX
8
Formers
10
925.199099
20
47.106432
30
0.000000
0
VERTEX
8
Formers
10
930.534438
20
47.106432
30
0.000000
0
VERTEX
8
Formers
10
930.526564
20
46.348547
30
0.000000
0
VERTEX
8
Formers
10
930.471861
20
44.663922
30
0.000000
0
VERTEX
8
Formers
10
930.380690
20
43.049663
30
0.000000
0
VERTEX
8
Formers
10
930.253050
20
41.505770
30
0.000000
0
VERTEX
8
Formers
10
930.088942
20
40.032242
30
0.000000
0
VERTEX
8
Formers
10
929.888366
20
38.629080
30
0.000000
0
VERTEX
8
Formers
10
929.651321
20
37.296283
30
0.000000
0
VERTEX
8
Formers
10
929.377807
20
36.033853
30
0.000000
0
VERTEX
8
Formers
10
929.020565
20
34.677237
30
0.000000
0
VERTEX
8
Formers
10
928.615691
20
33.412527
30
0.000000
0
VERTEX
8
Formers
10
928.163184
20
32.239724
30
0.000000
0
VERTEX
8
Formers
10
927.663045
20
31.158827
30
0.000000
0
VERTEX
8
Formers
10
927.115273
20
30.169836
30
0.000000
0
VERTEX
8
Formers
10
926.519870
20
29.272751
30
0.000000
0
VERTEX
8
Formers
10
925.876834
20
28.467573
30
0.000000
0
VERTEX
8
Formers
10
925.186166
20
27.754300
30
0.000000
0
VERTEX
8
Formers
10
924.447865
20
27.132934
30
0.000000
0
VERTEX
8
Formers
10
923.906172
20
26.754885
30
0.000000
0
VERTEX
8
Formers
10
923.341428
20
26.421313
30
0.000000
0
VERTEX
8
Formers
10
922.753633
20
26.132216
30
0.000000
0
VERTEX
8
Formers
10
922.142787
20
25.887596
30
0.000000
0
VERTEX
8
Formers
10
921.508890
20
25.687453
30
0.000000
0
VERTEX
8
Formers
10
920.851943
20
25.531785
30
0.000000
0
VERTEX
8
Formers
10
920.171944
20
25.420595
30
0.000000
0
VERTEX
8
Formers
10
919.468896
20
25.353880
30
0.000000
0
VERTEX
8
Formers
10
918.742796
20
25.331642
30
0.000000
0
VERTEX
8
Formers
10
910.875064
20
25.331642
30
0.000000
0
VERTEX
8
Formers
10
909.965504
20
25.366825
30
0.000000
0
VERTEX
8
Formers
10
909.092412
20
25.472373
30
0.000000
0
VERTEX
8
Formers
10
908.255789
20
25.648288
30
0.000000
0
VERTEX
8
Formers
10
907.455635
20
25.894567
30
0.000000
0
VERTEX
8
Formers
10
906.691949
20
26.211213
30
0.000000
0
VERTEX
8
Formers
10
905.964731
20
26.598225
30
0.000000
0
VERTEX
8
Formers
10
905.273982
20
27.055602
30
0.000000
0
VERTEX
8
Formers
10
904.619702
20
27.583344
30
0.000000
0
VERTEX
8
Formers
10
903.916608
20
28.272641
30
0.000000
0
VERTEX
8
Formers
10
903.261146
20
29.053844
30
0.000000
0
VERTEX
8
Formers
10
902.653317
20
29.926953
30
0.000000
0
VERTEX
8
Formers
10
902.093119
20
30.891969
30
0.000000
0
VERTEX
8
Formers
10
901.580555
20
31.948890
30
0.000000
0
VERTEX
8
Formers
10
901.115622
20
33.097718
30
0.000000
0
VERTEX
8
Formers
10
900.698322
20
34.338452
30
0.000000
0
VERTEX
8
Formers
10
900.328654
20
35.671092
30
0.000000
0
VERTEX
8
Formers
10
900.006618
20
37.095639
30
0.000000
0
VERTEX
8
Formers
10
899.810686
20
38.140833
30
0.000000
0
VERTEX
8
Formers
10
899.637806
20
39.230504
30
0.000000
0
VERTEX
8
Formers
10
899.487975
20
40.364651
30
0.000000
0
VERTEX
8
Formers
10
899.361196
20
41.543275
30
0.000000
0
VERTEX
8
Formers
10
899.257468
20
42.766375
30
0.000000
0
VERTEX
8
Formers
10
899.176790
20
44.033951
30
0.000000
0
VERTEX
8
Formers
10
899.119163
20
45.346004
30
0.000000
0
VERTEX
8
Formers
10
899.084587
20
46.702533
30
0.000000
0
VERTEX
8
Formers
10
899.081264
20
47.106432
30
0.000000
0
VERTEX
8
Formers
10
904.418761
20
47.106432
30
0.000000
0
VERTEX
8
Formers
10
904.418761
20
52.433165
30
0.000000
0
VERTEX
8
Formers
10
899.073061
20
52.433165
30
0.000000
0
VERTEX
8
Formers
10
899.073061
20
100.106432
30
0.000000
0
VERTEX
8
Formers
10
904.418761
20
100.106432
30
0.000000
0
VERTEX
8
Formers
10
904.418761
20
105.433165
30
0.000000
0
VERTEX
8
Formers
10
899.073061
20
105.433165
30
0.000000
0
VERTEX
8
Formers
10
899.073061
20
108.200593
30
0.000000
0
VERTEX
8
Formers
10
899.097373
20
110.329431
30
0.000000
0
VERTEX
8
Formers
10
899.170309
20
112.372913
30
0.000000
0
VERTEX
8
Formers
10
899.291868
20
114.331041
30
0.000000
0
VERTEX
8
Formers
10
899.462052
20
116.203814
30
0.000000
0
VERTEX
8
Formers
10
899.680858
20
117.991232
30
0.000000
0
VERTEX
8
Formers
10
899.948289
20
119.693294
30
0.000000
0
VERTEX
8
Formers
10
900.264344
20
121.310002
30
0.000000
0
VERTEX
8
Formers
10
900.629022
20
122.841355
30
0.000000
0
VERTEX
8
Formers
10
901.105337
20
124.486956
30
0.000000
0
VERTEX
8
Formers
10
901.645160
20
126.021074
30
0.000000
0
VERTEX
8
Formers
10
902.248491
20
127.443707
30
0.000000
0
VERTEX
8
Formers
10
902.915332
20
128.754856
30
0.000000
0
VERTEX
8
Formers
10
903.645681
20
129.954521
30
0.000000
0
VERTEX
8
Formers
10
904.439538
20
131.042702
30
0.000000
0
VERTEX
8
Formers
10
905.296904
20
132.019400
30
0.000000
0
VERTEX
8
Formers
10
906.217779
20
132.884613
30
0.000000
0
VERTEX
8
Formers
10
907.202162
20
133.638342
30
0.000000
0
VERTEX
8
Formers
10
907.924407
20
134.096922
30
0.000000
0
VERTEX
8
Formers
10
908.677387
20
134.501553
30
0.000000
0
VERTEX
8
Formers
10
909.461100
20
134.852232
30
0.000000
0
VERTEX
8
Formers
10
910.275546
20
135.148961
30
0.000000
0
VERTEX
8
Formers
10
911.120727
20
135.391739
30
0.000000
0
VERTEX
8
Formers
10
911.996641
20
135.580566
30
0.000000
0
VERTEX
8
Formers
10
912.903290
20
135.715443
30
0.000000
0
VERTEX
8
Formers
10
913.840672
20
135.796369
30
0.000000
0
VERTEX
8
Formers
10
914.808788
20
135.823344
30
0.000000
0
VERTEX
8
Formers
10
914.809072
20
135.823344
30
0.000000
0
VERTEX
8
Formers
10
916.021797
20
135.780667
30
0.000000
0
VERTEX
8
Formers
10
917.185898
20
135.652634
30
0.000000
0
VERTEX
8
Formers
10
918.301376
20
135.439247
30
0.000000
0
VERTEX
8
Formers
10
919.368230
20
135.140505
30
0.000000
0
VERTEX
8
Formers
10
920.386460
20
134.756407
30
0.000000
0
VERTEX
8
Formers
10
921.356066
20
134.286955
30
0.000000
0
VERTEX
8
Formers
10
922.277049
20
133.732148
30
0.000000
0
VERTEX
8
Formers
10
923.149408
20
133.091986
30
0.000000
0
VERTEX
8
Formers
10
924.086850
20
132.255855
30
0.000000
0
VERTEX
8
Formers
10
924.960783
20
131.308241
30
0.000000
0
VERTEX
8
Formers
10
925.771208
20
130.249143
30
0.000000
0
VERTEX
8
Formers
10
926.518125
20
129.078560
30
0.000000
0
VERTEX
8
Formers
10
927.201533
20
127.796494
30
0.000000
0
VERTEX
8
Formers
10
927.821432
20
126.402943
30
0.000000
0
VERTEX
8
Formers
10
928.377822
20
124.897909
30
0.000000
0
VERTEX
8
Formers
10
928.870704
20
123.281390
30
0.000000
0
VERTEX
8
Formers
10
929.300078
20
121.553388
30
0.000000
0
VERTEX
8
Formers
10
929.561315
20
120.285547
30
0.000000
0
VERTEX
8
Formers
10
929.791819
20
118.963755
30
0.000000
0
VERTEX
8
Formers
10
929.991589
20
117.588012
30
0.000000
0
VERTEX
8
Formers
10
930.160625
20
116.158319
30
0.000000
0
VERTEX
8
Formers
10
930.298927
20
114.674675
30
0.000000
0
VERTEX
8
Formers
10
930.406496
20
113.137081
30
0.000000
0
VERTEX
8
Formers
10
930.483331
20
111.545536
30
0.000000
0
VERTEX
8
Formers
10
930.529431
20
109.900040
30
0.000000
0
VERTEX
8
Formers
10
930.544798
20
108.200593
30
0.000000
0
VERTEX
8
Formers
10
930.544798
20
105.433165
30
0.000000
0
VERTEX
8
Formers
10
925.199099
20
105.433165
30
0.000000
0
VERTEX
8
Formers
10
925.199099
20
100.106432
30
0.000000
0
VERTEX
8
Formers
10
930.544798
20
100.106432
30
0.000000
0
SEQEND
8
0
0
ENDBLK
0
BLOCK
8
Formers
2
*R11
70
1
10
954.659402
20
-20.429765
3
*R11
0
POLYLINE
8
Formers
6
Continuous
70
0
66
 1
10
0.0
20
0.0
30
0.000000
0
VERTEX
8
Formers
10
955.440673
20
100.254947
30
0.000000
0
VERTEX
8
Formers
10
955.440673
20
52.284658
30
0.000000
0
VERTEX
8
Formers
10
950.408476
20
52.311079
30
0.000000
0
VERTEX
8
Formers
10
950.381956
20
47.281445
30
0.000000
0
VERTEX
8
Formers
10
955.398489
20
47.255107
30
0.000000
0
VERTEX
8
Formers
10
955.362999
20
46.014270
30
0.000000
0
VERTEX
8
Formers
10
955.302587
20
44.571312
30
0.000000
0
VERTEX
8
Formers
10
955.224913
20
43.194120
30
0.000000
0
VERTEX
8
Formers
10
955.129979
20
41.882693
30
0.000000
0
VERTEX
8
Formers
10
955.017784
20
40.637032
30
0.000000
0
VERTEX
8
Formers
10
954.888329
20
39.457136
30
0.000000
0
VERTEX
8
Formers
10
954.719244
20
38.189212
30
0.000000
0
VERTEX
8
Formers
10
954.527614
20
37.007186
30
0.000000
0
VERTEX
8
Formers
10
954.313440
20
35.911058
30
0.000000
0
VERTEX
8
Formers
10
954.076721
20
34.900827
30
0.000000
0
VERTEX
8
Formers
10
953.817457
20
33.976494
30
0.000000
0
VERTEX
8
Formers
10
953.535649
20
33.138058
30
0.000000
0
VERTEX
8
Formers
10
953.231296
20
32.385521
30
0.000000
0
VERTEX
8
Formers
10
952.904398
20
31.718880
30
0.000000
0
VERTEX
8
Formers
10
952.554956
20
31.138138
30
0.000000
0
VERTEX
8
Formers
10
952.298569
20
30.784805
30
0.000000
0
VERTEX
8
Formers
10
952.031272
20
30.473040
30
0.000000
0
VERTEX
8
Formers
10
951.753065
20
30.202844
30
0.000000
0
VERTEX
8
Formers
10
951.463948
20
29.974217
30
0.000000
0
VERTEX
8
Formers
10
951.163920
20
29.787158
30
0.000000
0
VERTEX
8
Formers
10
950.852983
20
29.641668
30
0.000000
0
VERTEX
8
Formers
10
950.531135
20
29.537746
30
0.000000
0
VERTEX
8
Formers
10
950.198378
20
29.475394
30
0.000000
0
VERTEX
8
Formers
10
949.854710
20
29.454609
30
0.000000
0
VERTEX
8
Formers
10
946.130761
20
29.454609
30
0.000000
0
VERTEX
8
Formers
10
945.700260
20
29.487492
30
0.000000
0
VERTEX
8
Formers
10
945.287021
20
29.586140
30
0.000000
0
VERTEX
8
Formers
10
944.891042
20
29.750553
30
0.000000
0
VERTEX
8
Formers
10
944.512323
20
29.980732
30
0.000000
0
VERTEX
8
Formers
10
944.150866
20
30.276676
30
0.000000
0
VERTEX
8
Formers
10
943.806669
20
30.638386
30
0.000000
0
VERTEX
8
Formers
10
943.479733
20
31.065861
30
0.000000
0
VERTEX
8
Formers
10
943.170058
20
31.559101
30
0.000000
0
VERTEX
8
Formers
10
942.837279
20
32.203333
30
0.000000
0
VERTEX
8
Formers
10
942.527045
20
32.933463
30
0.000000
0
VERTEX
8
Formers
10
942.239356
20
33.749490
30
0.000000
0
VERTEX
8
Formers
10
941.974211
20
34.651415
30
0.000000
0
VERTEX
8
Formers
10
941.731611
20
35.639238
30
0.000000
0
VERTEX
8
Formers
10
941.511555
20
36.712958
30
0.000000
0
VERTEX
8
Formers
10
941.314044
20
37.872576
30
0.000000
0
VERTEX
8
Formers
10
941.139078
20
39.118092
30
0.000000
0
VERTEX
8
Formers
10
940.986657
20
40.449505
30
0.000000
0
VERTEX
8
Formers
10
940.893921
20
41.426367
30
0.000000
0
VERTEX
8
Formers
10
940.812095
20
42.444798
30
0.000000
0
VERTEX
8
Formers
10
940.741180
20
43.504797
30
0.000000
0
VERTEX
8
Formers
10
940.681174
20
44.606365
30
0.000000
0
VERTEX
8
Formers
10
940.632079
20
45.749502
30
0.000000
0
VERTEX
8
Formers
10
940.593894
20
46.934207
30
0.000000
0
VERTEX
8
Formers
10
940.586757
20
47.255078
30
0.000000
0
VERTEX
8
Formers
10
945.600780
20
47.275922
30
0.000000
0
VERTEX
8
Formers
10
945.579782
20
52.305582
30
0.000000
0
VERTEX
8
Formers
10
940.544798
20
52.284650
30
0.000000
0
VERTEX
8
Formers
10
940.544798
20
100.254947
30
0.000000
0
VERTEX
8
Formers
10
945.585201
20
100.254947
30
0.000000
0
VERTEX
8
Formers
10
945.585201
20
105.284650
30
0.000000
0
VERTEX
8
Formers
10
940.544798
20
105.284650
30
0.000000
0
VERTEX
8
Formers
10
940.544798
20
108.782779
30
0.000000
0
VERTEX
8
Formers
10
940.556305
20
110.820670
30
0.000000
0
VERTEX
8
Formers
10
940.590827
20
112.776853
30
0.000000
0
VERTEX
8
Formers
10
940.648362
20
114.651327
30
0.000000
0
VERTEX
8
Formers
10
940.728912
20
116.444093
30
0.000000
0
VERTEX
8
Formers
10
940.832476
20
118.155151
30
0.000000
0
VERTEX
8
Formers
10
940.959055
20
119.784500
30
0.000000
0
VERTEX
8
Formers
10
941.108648
20
121.332140
30
0.000000
0
VERTEX
8
Formers
10
941.281255
20
122.798072
30
0.000000
0
VERTEX
8
Formers
10
941.506700
20
124.373371
30
0.000000
0
VERTEX
8
Formers
10
941.762206
20
125.841950
30
0.000000
0
VERTEX
8
Formers
10
942.047771
20
127.203807
30
0.000000
0
VERTEX
8
Formers
10
942.363395
20
128.458942
30
0.000000
0
VERTEX
8
Formers
10
942.709078
20
129.607356
30
0.000000
0
VERTEX
8
Formers
10
943.084821
20
130.649049
30
0.000000
0
VERTEX
8
Formers
10
943.490624
20
131.584021
30
0.000000
0
VERTEX
8
Formers
10
943.926486
20
132.412271
30
0.000000
0
VERTEX
8
Formers
10
944.392407
20
133.133800
30
0.000000
0
VERTEX
8
Formers
10
944.734255
20
133.572790
30
0.000000
0
VERTEX
8
Formers
10
945.090650
20
133.960134
30
0.000000
0
VERTEX
8
Formers
10
945.461592
20
134.295832
30
0.000000
0
VERTEX
8
Formers
10
945.847080
20
134.579884
30
0.000000
0
VERTEX
8
Formers
10
946.247115
20
134.812290
30
0.000000
0
VERTEX
8
Formers
10
946.661697
20
134.993051
30
0.000000
0
VERTEX
8
Formers
10
947.090825
20
135.122165
30
0.000000
0
VERTEX
8
Formers
10
947.534500
20
135.199634
30
0.000000
0
VERTEX
8
Formers
10
947.992749
20
135.225457
30
0.000000
0
VERTEX
8
Formers
10
948.566748
20
135.184603
30
0.000000
0
VERTEX
8
Formers
10
949.117732
20
135.062040
30
0.000000
0
VERTEX
8
Formers
10
949.645702
20
134.857769
30
0.000000
0
VERTEX
8
Formers
10
950.150658
20
134.571789
30
0.000000
0
VERTEX
8
Formers
10
950.632599
20
134.204101
30
0.000000
0
VERTEX
8
Formers
10
951.091527
20
133.754704
30
0.000000
0
VERTEX
8
Formers
10
951.527440
20
133.223599
30
0.000000
0
VERTEX
8
Formers
10
951.940338
20
132.610785
30
0.000000
0
VERTEX
8
Formers
10
952.384042
20
131.810375
30
0.000000
0
VERTEX
8
Formers
10
952.797686
20
130.903244
30
0.000000
0
VERTEX
8
Formers
10
953.181271
20
129.889391
30
0.000000
0
VERTEX
8
Formers
10
953.534796
20
128.768817
30
0.000000
0
VERTEX
8
Formers
10
953.858262
20
127.541522
30
0.000000
0
VERTEX
8
Formers
10
954.151668
20
126.207505
30
0.000000
0
VERTEX
8
Formers
10
954.415015
20
124.766768
30
0.000000
0
VERTEX
8
Formers
10
954.648302
20
123.219309
30
0.000000
0
VERTEX
8
Formers
10
954.851530
20
121.565128
30
0.000000
0
VERTEX
8
Formers
10
954.975178
20
120.351450
30
0.000000
0
VERTEX
8
Formers
10
955.084278
20
119.086127
30
0.000000
0
VERTEX
8
Formers
10
955.178832
20
117.769158
30
0.000000
0
VERTEX
8
Formers
10
955.258839
20
116.400542
30
0.000000
0
VERTEX
8
Formers
10
955.324299
20
114.980281
30
0.000000
0
VERTEX
8
Formers
10
955.375213
20
113.508374
30
0.000000
0
VERTEX
8
Formers
10
955.411579
20
111.984822
30
0.000000
0
VERTEX
8
Formers
10
955.433400
20
110.409623
30
0.000000
0
VERTEX
8
Formers
10
955.440673
20
108.782779
30
0.000000
0
VERTEX
8
Formers
10
955.440673
20
105.284650
30
0.000000
0
VERTEX
8
Formers
10
950.400270
20
105.284650
30
0.000000
0
VERTEX
8
Formers
10
950.400270
20
100.254947
30
0.000000
0
VERTEX
8
Formers
10
955.440673
20
100.254947
30
0.000000
0
SEQEND
8
0
0
ENDBLK
0
BLOCK
8
Formers
2
*R12
70
1
10
979.026143
20
-20.254746
3
*R12
0
POLYLINE
8
Formers
6
Continuous
70
0
66
 1
10
0.0
20
0.0
30
0.000000
0
VERTEX
8
Formers
10
979.278280
20
100.269798
30
0.000000
0
VERTEX
8
Formers
10
979.278280
20
52.269801
30
0.000000
0
VERTEX
8
Formers
10
974.282066
20
52.294440
30
0.000000
0
VERTEX
8
Formers
10
974.257378
20
47.294501
30
0.000000
0
VERTEX
8
Formers
10
979.234444
20
47.269957
30
0.000000
0
VERTEX
8
Formers
10
979.206125
20
46.214208
30
0.000000
0
VERTEX
8
Formers
10
979.150005
20
44.784925
30
0.000000
0
VERTEX
8
Formers
10
979.077850
20
43.420784
30
0.000000
0
VERTEX
8
Formers
10
978.989660
20
42.121785
30
0.000000
0
VERTEX
8
Formers
10
978.885436
20
40.887929
30
0.000000
0
VERTEX
8
Formers
10
978.765178
20
39.719214
30
0.000000
0
VERTEX
8
Formers
10
978.608106
20
38.463307
30
0.000000
0
VERTEX
8
Formers
10
978.430090
20
37.292483
30
0.000000
0
VERTEX
8
Formers
10
978.231132
20
36.206742
30
0.000000
0
VERTEX
8
Formers
10
978.011231
20
35.206085
30
0.000000
0
VERTEX
8
Formers
10
977.770387
20
34.290512
30
0.000000
0
VERTEX
8
Formers
10
977.508600
20
33.460022
30
0.000000
0
VERTEX
8
Formers
10
977.225870
20
32.714616
30
0.000000
0
VERTEX
8
Formers
10
976.922197
20
32.054293
30
0.000000
0
VERTEX
8
Formers
10
976.597582
20
31.479054
30
0.000000
0
VERTEX
8
Formers
10
976.359410
20
31.129069
30
0.000000
0
VERTEX
8
Formers
10
976.111103
20
30.820259
30
0.000000
0
VERTEX
8
Formers
10
975.852662
20
30.552624
30
0.000000
0
VERTEX
8
Formers
10
975.584085
20
30.326163
30
0.000000
0
VERTEX
8
Formers
10
975.305373
20
30.140877
30
0.000000
0
VERTEX
8
Formers
10
975.016527
20
29.996766
30
0.000000
0
VERTEX
8
Formers
10
974.717545
20
29.893829
30
0.000000
0
VERTEX
8
Formers
10
974.408429
20
29.832067
30
0.000000
0
VERTEX
8
Formers
10
974.089177
20
29.811480
30
0.000000
0
VERTEX
8
Formers
10
970.629776
20
29.811480
30
0.000000
0
VERTEX
8
Formers
10
970.229860
20
29.844051
30
0.000000
0
VERTEX
8
Formers
10
969.845980
20
29.941764
30
0.000000
0
VERTEX
8
Formers
10
969.478133
20
30.104620
30
0.000000
0
VERTEX
8
Formers
10
969.126322
20
30.332617
30
0.000000
0
VERTEX
8
Formers
10
968.790544
20
30.625757
30
0.000000
0
VERTEX
8
Formers
10
968.470801
20
30.984038
30
0.000000
0
VERTEX
8
Formers
10
968.167093
20
31.407462
30
0.000000
0
VERTEX
8
Formers
10
967.879419
20
31.896028
30
0.000000
0
VERTEX
8
Formers
10
967.570283
20
32.534155
30
0.000000
0
VERTEX
8
Formers
10
967.282089
20
33.257365
30
0.000000
0
VERTEX
8
Formers
10
967.014839
20
34.065659
30
0.000000
0
VERTEX
8
Formers
10
966.768532
20
34.959037
30
0.000000
0
VERTEX
8
Formers
10
966.543167
20
35.937498
30
0.000000
0
VERTEX
8
Formers
10
966.338746
20
37.001043
30
0.000000
0
VERTEX
8
Formers
10
966.155267
20
38.149672
30
0.000000
0
VERTEX
8
Formers
10
965.992732
20
39.383384
30
0.000000
0
VERTEX
8
Formers
10
965.851139
20
40.702179
30
0.000000
0
VERTEX
8
Formers
10
965.764992
20
41.669784
30
0.000000
0
VERTEX
8
Formers
10
965.688980
20
42.678563
30
0.000000
0
VERTEX
8
Formers
10
965.623102
20
43.728517
30
0.000000
0
VERTEX
8
Formers
10
965.567360
20
44.819646
30
0.000000
0
VERTEX
8
Formers
10
965.521753
20
45.951949
30
0.000000
0
VERTEX
8
Formers
10
965.486280
20
47.125427
30
0.000000
0
VERTEX
8
Formers
10
965.483266
20
47.269924
30
0.000000
0
VERTEX
8
Formers
10
970.459027
20
47.289353
30
0.000000
0
VERTEX
8
Formers
10
970.439480
20
52.289314
30
0.000000
0
VERTEX
8
Formers
10
965.440673
20
52.269796
30
0.000000
0
VERTEX
8
Formers
10
965.440673
20
100.269798
30
0.000000
0
VERTEX
8
Formers
10
970.443751
20
100.269798
30
0.000000
0
VERTEX
8
Formers
10
970.443751
20
105.269798
30
0.000000
0
VERTEX
8
Formers
10
965.440673
20
105.269798
30
0.000000
0
VERTEX
8
Formers
10
965.440673
20
108.866838
30
0.000000
0
VERTEX
8
Formers
10
965.451363
20
110.897725
30
0.000000
0
VERTEX
8
Formers
10
965.483431
20
112.847184
30
0.000000
0
VERTEX
8
Formers
10
965.536880
20
114.715215
30
0.000000
0
VERTEX
8
Formers
10
965.611707
20
116.501819
30
0.000000
0
VERTEX
8
Formers
10
965.707914
20
118.206995
30
0.000000
0
VERTEX
8
Formers
10
965.825500
20
119.830743
30
0.000000
0
VERTEX
8
Formers
10
965.964465
20
121.373064
30
0.000000
0
VERTEX
8
Formers
10
966.124809
20
122.833957
30
0.000000
0
VERTEX
8
Formers
10
966.334239
20
124.403841
30
0.000000
0
VERTEX
8
Formers
10
966.571593
20
125.867371
30
0.000000
0
VERTEX
8
Formers
10
966.836870
20
127.224547
30
0.000000
0
VERTEX
8
Formers
10
967.130071
20
128.475368
30
0.000000
0
VERTEX
8
Formers
10
967.451197
20
129.619835
30
0.000000
0
VERTEX
8
Formers
10
967.800246
20
130.657947
30
0.000000
0
VERTEX
8
Formers
10
968.177219
20
131.589705
30
0.000000
0
VERTEX
8
Formers
10
968.582117
20
132.415108
30
0.000000
0
VERTEX
8
Formers
10
969.014938
20
133.134157
30
0.000000
0
VERTEX
8
Formers
10
969.332500
20
133.571638
30
0.000000
0
VERTEX
8
Formers
10
969.663575
20
133.957650
30
0.000000
0
VERTEX
8
Formers
10
970.008164
20
134.292195
30
0.000000
0
VERTEX
8
Formers
10
970.366266
20
134.575270
30
0.000000
0
VERTEX
8
Formers
10
970.737882
20
134.806878
30
0.000000
0
VERTEX
8
Formers
10
971.123011
20
134.987017
30
0.000000
0
VERTEX
8
Formers
10
971.521653
20
135.115688
30
0.000000
0
VERTEX
8
Formers
10
971.933808
20
135.192890
30
0.000000
0
VERTEX
8
Formers
10
972.359477
20
135.218625
30
0.000000
0
VERTEX
8
Formers
10
972.892697
20
135.177911
30
0.000000
0
VERTEX
8
Formers
10
973.404538
20
135.055769
30
0.000000
0
VERTEX
8
Formers
10
973.894999
20
134.852200
30
0.000000
0
VERTEX
8
Formers
10
974.364082
20
134.567203
30
0.000000
0
VERTEX
8
Formers
10
974.811785
20
134.200779
30
0.000000
0
VERTEX
8
Formers
10
975.238109
20
133.752927
30
0.000000
0
VERTEX
8
Formers
10
975.643053
20
133.223647
30
0.000000
0
VERTEX
8
Formers
10
976.026619
20
132.612940
30
0.000000
0
VERTEX
8
Formers
10
976.438800
20
131.815281
30
0.000000
0
VERTEX
8
Formers
10
976.823058
20
130.911268
30
0.000000
0
VERTEX
8
Formers
10
977.179392
20
129.900900
30
0.000000
0
VERTEX
8
Formers
10
977.507802
20
128.784178
30
0.000000
0
VERTEX
8
Formers
10
977.808288
20
127.561102
30
0.000000
0
VERTEX
8
Formers
10
978.080850
20
126.231671
30
0.000000
0
VERTEX
8
Formers
10
978.325488
20
124.795885
30
0.000000
0
VERTEX
8
Formers
10
978.542202
20
123.253745
30
0.000000
0
VERTEX
8
Formers
10
978.730992
20
121.605251
30
0.000000
0
VERTEX
8
Formers
10
978.845855
20
120.395745
30
0.000000
0
VERTEX
8
Formers
10
978.947205
20
119.134771
30
0.000000
0
VERTEX
8
Formers
10
979.035041
20
117.822328
30
0.000000
0
VERTEX
8
Formers
10
979.109364
20
116.458417
30
0.000000
0
VERTEX
8
Formers
10
979.170174
20
115.043038
30
0.000000
0
VERTEX
8
Formers
10
979.217470
20
113.576191
30
0.000000
0
VERTEX
8
Formers
10
979.251254
20
112.057875
30
0.000000
0
VERTEX
8
Formers
10
979.271524
20
110.488091
30
0.000000
0
VERTEX
8
Formers
10
979.278280
20
108.866838
30
0.000000
0
VERTEX
8
Formers
10
979.278280
20
105.269798
30
0.000000
0
VERTEX
8
Formers
10
974.275202
20
105.269798
30
0.000000
0
VERTEX
8
Formers
10
974.275202
20
100.269798
30
0.000000
0
VERTEX
8
Formers
10
979.278280
20
100.269798
30
0.000000
0
SEQEND
8
0
0
ENDBLK
0
ENDSEC
0
SECTION
2
ENTITIES
0
INSERT
8
Formers
6
Continuous
2
*R
10
14.001374
20
0.284248
41
1.000000
42
1.000000
50
0.000000
0
TEXT
8
Formers
6
Continuous
7
Standard
10
7.334708
20
103.054046
40
5.333333
41
1.000000
50
0.000000
1
F-1
0
LINE
8
Formers
62
1
6
Continuous
10
0.000000
20
102.769798
30
0.000000
11
61.877568
21
102.769798
31
0.000000
0
LINE
8
Formers
62
1
6
Continuous
10
30.938784
20
72.793901
30
0.000000
11
30.938784
21
133.314192
31
0.000000
0
INSERT
8
Formers
6
Continuous
2
*R1
10
79.210901
20
-31.938833
41
1.000000
42
1.000000
50
0.000000
0
TEXT
8
Formers
6
Continuous
7
Standard
10
72.544235
20
70.830965
40
5.333333
41
1.000000
50
0.000000
1
F-2
0
LINE
8
Formers
62
1
6
Continuous
10
65.210901
20
102.769798
30
0.000000
11
164.862415
21
102.769798
31
0.000000
0
LINE
8
Formers
62
1
6
Continuous
10
115.036658
20
0.263356
30
0.000000
11
115.036658
21
141.398574
31
0.000000
0
INSERT
8
Formers
6
Continuous
2
*R2
10
182.195748
20
-31.456219
41
1.000000
42
1.000000
50
0.000000
0
TEXT
8
Formers
6
Continuous
7
Standard
10
175.529081
20
71.313580
40
5.333333
41
1.000000
50
0.000000
1
F-3
0
LINE
8
Formers
62
1
6
Continuous
10
168.195748
20
102.769798
30
0.000000
11
267.661221
21
102.769798
31
0.000000
0
LINE
8
Formers
62
1
6
Continuous
10
217.928484
20
0.000000
30
0.000000
11
217.928484
21
142.627159
31
0.000000
0
INSERT
8
Formers
6
Continuous
2
*R3
10
284.994554
20
-30.878406
41
1.000000
42
1.000000
50
0.000000
0
TEXT
8
Formers
6
Continuous
7
Standard
10
278.327887
20
71.891392
40
5.333333
41
1.000000
50
0.000000
1
F-4
0
LINE
8
Formers
62
1
6
Continuous
10
270.994554
20
102.769798
30
0.000000
11
370.237892
21
102.769798
31
0.000000
0
LINE
8
Formers
62
1
6
Continuous
10
320.616223
20
0.946944
30
0.000000
11
320.616223
21
142.835841
31
0.000000
0
INSERT
8
Formers
6
Continuous
2
*R4
10
387.571226
20
-30.137332
41
1.000000
42
1.000000
50
0.000000
0
TEXT
8
Formers
6
Continuous
7
Standard
10
380.904559
20
72.632466
40
5.333333
41
1.000000
50
0.000000
1
F-5
0
LINE
8
Formers
62
1
6
Continuous
10
373.571226
20
102.769798
30
0.000000
11
472.591751
21
102.769798
31
0.000000
0
LINE
8
Formers
62
1
6
Continuous
10
423.081488
20
2.606064
30
0.000000
11
423.081488
21
142.658868
31
0.000000
0
INSERT
8
Formers
6
Continuous
2
*R5
10
489.925084
20
-29.206134
41
1.000000
42
1.000000
50
0.000000
0
TEXT
8
Formers
6
Continuous
7
Standard
10
483.258418
20
73.563664
40
5.333333
41
1.000000
50
0.000000
1
F-6
0
LINE
8
Formers
62
1
6
Continuous
10
475.925084
20
102.769798
30
0.000000
11
574.767014
21
102.769798
31
0.000000
0
LINE
8
Formers
62
1
6
Continuous
10
525.346049
20
4.810918
30
0.000000
11
525.346049
21
142.316410
31
0.000000
0
INSERT
8
Formers
6
Continuous
2
*R6
10
592.100347
20
-28.100533
41
1.000000
42
1.000000
50
0.000000
0
TEXT
8
Formers
6
Continuous
7
Standard
10
585.433680
20
74.669265
40
5.333333
41
1.000000
50
0.000000
1
F-7
0
LINE
8
Formers
62
1
6
Continuous
10
578.100347
20
102.769798
30
0.000000
11
672.568233
21
102.769798
31
0.000000
0
LINE
8
Formers
62
1
6
Continuous
10
625.334290
20
7.494646
30
0.000000
11
625.334290
21
141.843885
31
0.000000
0
INSERT
8
Formers
6
Continuous
2
*R7
10
689.901567
20
-26.834921
41
1.000000
42
1.000000
50
0.000000
0
TEXT
8
Formers
6
Continuous
7
Standard
10
683.234900
20
75.934877
40
5.333333
41
1.000000
50
0.000000
1
F-8
0
LINE
8
Formers
62
1
6
Continuous
10
675.901567
20
102.769798
30
0.000000
11
760.071269
21
102.769798
31
0.000000
0
LINE
8
Formers
62
1
6
Continuous
10
717.986418
20
10.602202
30
0.000000
11
717.986418
21
141.267553
31
0.000000
0
INSERT
8
Formers
6
Continuous
2
*R8
10
777.404602
20
-25.420754
41
1.000000
42
1.000000
50
0.000000
0
TEXT
8
Formers
6
Continuous
7
Standard
10
770.737935
20
77.349045
40
5.333333
41
1.000000
50
0.000000
1
F-9
0
LINE
8
Formers
62
1
6
Continuous
10
763.404602
20
102.769798
30
0.000000
11
834.043050
21
102.769798
31
0.000000
0
LINE
8
Formers
62
1
6
Continuous
10
798.723826
20
14.088779
30
0.000000
11
798.723826
21
140.609311
31
0.000000
0
INSERT
8
Formers
6
Continuous
2
*R9
10
851.376384
20
-23.868986
41
1.000000
42
1.000000
50
0.000000
0
TEXT
8
Formers
6
Continuous
7
Standard
10
844.709717
20
78.900813
40
5.333333
41
1.000000
50
0.000000
1
F-10
0
LINE
8
Formers
62
1
6
Continuous
10
837.376384
20
102.769798
30
0.000000
11
892.406395
21
102.769798
31
0.000000
0
LINE
8
Formers
62
1
6
Continuous
10
864.891389
20
17.908774
30
0.000000
11
864.891389
21
139.892851
31
0.000000
0
INSERT
8
Formers
6
Continuous
2
*R10
10
921.475596
20
-22.192305
41
1.000000
42
1.000000
50
0.000000
0
TEXT
8
Formers
6
Continuous
7
Standard
10
914.808930
20
80.577493
40
5.333333
41
1.000000
50
0.000000
1
F-11
0
LINE
8
Formers
62
1
6
Continuous
10
895.739728
20
102.769798
30
0.000000
11
933.878132
21
102.769798
31
0.000000
0
LINE
8
Formers
62
1
6
Continuous
10
914.808930
20
21.998309
30
0.000000
11
914.808930
21
139.156678
31
0.000000
0
INSERT
8
Formers
6
Continuous
2
*R11
10
954.659402
20
-20.429765
41
1.000000
42
1.000000
50
0.000000
0
TEXT
8
Formers
6
Continuous
7
Standard
10
947.992736
20
82.340033
40
5.333333
41
1.000000
50
0.000000
1
F-12
0
LINE
8
Formers
62
1
6
Continuous
10
937.211465
20
102.769798
30
0.000000
11
958.774006
21
102.769798
31
0.000000
0
LINE
8
Formers
62
1
6
Continuous
10
947.992736
20
26.121276
30
0.000000
11
947.992736
21
138.558790
31
0.000000
0
INSERT
8
Formers
6
Continuous
2
*R12
10
979.026143
20
-20.254746
41
1.000000
42
1.000000
50
0.000000
0
TEXT
8
Formers
6
Continuous
7
Standard
10
972.359477
20
82.515052
40
5.333333
41
1.000000
50
0.000000
1
F-13
0
LINE
8
Formers
62
1
6
Continuous
10
962.107340
20
102.769798
30
0.000000
11
982.611614
21
102.769798
31
0.000000
0
LINE
8
Formers
62
1
6
Continuous
10
972.359477
20
26.478147
30
0.000000
11
972.359477
21
138.551958
31
0.000000
0
ENDSEC
0
EOF
