0
SECTION
2
HEADER
0
ENDSEC
0
SECTION
2
TABLES
0
TABLE
2
LTYPE
0
LTYPE
2
Continuous
70
0
3
Solid line
72
65
73
0
40
0.000000
0
ENDTAB
0
TABLE
2
LAYER
0
LAYER
2
0
70
0
62
7
6
Continuous
0
LAYER
2
Parts
70
0
62
7
6
Continuous
0
ENDTAB
0
TABLE
2
STYLE
0
STYLE
2
Standard
3
Arial
70
0
71
0
40
5.000000
41
1.000000
42
5.000000
50
0.000000
0
ENDTAB
0
TABLE
2
DIMSTYLE
0
DIMSTYLE
2
Standard
70
0
3

4

5

6
CLOSEDFILLED
7
CLOSEDFILLED
40
1.000000
41
2.000000
42
1.000000
43
5.000000
44
2.000000
45
0.000000
46
0.000000
47
0.000000
48
0.000000
140
5.000000
141
2.000000
142
0.000000
143
25.400000
144
1.000000
145
0.000000
146
1.000000
147
2.000000
71
0
72
0
73
0
74
1
75
0
76
0
77
0
78
0
170
0
171
4
172
0
173
1
174
0
175
0
176
0
177
-2
178
-2
271
4
272
4
273
1
274
4
275
0
280
0
281
0
282
0
283
1
288
0
0
ENDTAB
0
ENDSEC
0
SECTION
2
BLOCKS
0
BLOCK
8
0
2
_CLOSEDFILLED
70
0
10
0.000000
20
0.000000
3
_CLOSEDFILLED
0
SOLID
8
0
10
-1.000000
20
0.166667
30
0.000000
11
-1.000000
21
-0.166667
31
0.000000
12
0.000000
22
0.000000
32
0.000000
13
0.000000
23
0.000000
33
0.000000
0
ENDBLK
0
BLOCK
8
0
2
_CLOSEDBLANK
70
0
10
0.000000
20
0.000000
3
_CLOSEDBLANK
0
LINE
8
0
10
-1.000000
20
0.166667
30
0.000000
11
0.000000
21
0.000000
31
0.000000
0
LINE
8
0
10
0.000000
20
0.000000
30
0.000000
11
-1.000000
21
-0.166667
31
0.000000
0
LINE
8
0
10
-1.000000
20
0.166667
30
0.000000
11
-1.000000
21
-0.166667
31
0.000000
0
ENDBLK
0
BLOCK
8
0
2
_CLOSED
70
0
10
0.000000
20
0.000000
3
_CLOSED
0
LINE
8
0
10
-1.000000
20
0.166667
30
0.000000
11
0.000000
21
0.000000
31
0.000000
0
LINE
8
0
10
0.000000
20
0.000000
30
0.000000
11
-1.000000
21
-0.166667
31
0.000000
0
LINE
8
0
10
-1.000000
20
0.166667
30
0.000000
11
-1.000000
21
-0.166667
31
0.000000
0
LINE
8
0
10
0.000000
20
0.000000
30
0.000000
11
-1.000000
21
0.000000
31
0.000000
0
ENDBLK
0
BLOCK
8
0
2
_DOT
70
0
10
0.000000
20
0.000000
3
_DOT
0
POLYLINE
8
0
70
1
66
 1
10
0.0
20
0.0
30
0.000000
0
VERTEX
8
0
10
0.250000
20
0.000000
30
0.000000
42
1.000000
0
VERTEX
8
0
10
-0.250000
20
0.000000
30
0.000000
42
1.000000
0
SEQEND
8
0
0
LINE
8
0
10
-0.500000
20
0.000000
30
0.000000
11
-1.000000
21
0.000000
31
0.000000
0
ENDBLK
0
BLOCK
8
0
2
_ARCHTICK
70
0
10
0.000000
20
0.000000
3
_ARCHTICK
0
POLYLINE
8
0
70
0
66
 1
10
0.0
20
0.0
30
0.000000
0
VERTEX
8
0
10
0.500000
20
0.500000
30
0.000000
0
VERTEX
8
0
10
-0.500000
20
-0.500000
30
0.000000
0
SEQEND
8
0
0
ENDBLK
0
BLOCK
8
0
2
_OBLIQUE
70
0
10
0.000000
20
0.000000
3
_OBLIQUE
0
LINE
8
0
10
-0.500000
20
-0.500000
30
0.000000
11
0.500000
21
0.500000
31
0.000000
0
ENDBLK
0
BLOCK
8
0
2
_OPEN
70
0
10
0.000000
20
0.000000
3
_OPEN
0
LINE
8
0
10
-1.000000
20
0.166667
30
0.000000
11
0.000000
21
0.000000
31
0.000000
0
LINE
8
0
10
-1.000000
20
-0.166667
30
0.000000
11
0.000000
21
0.000000
31
0.000000
0
LINE
8
0
10
0.000000
20
0.000000
30
0.000000
11
-1.000000
21
0.000000
31
0.000000
0
ENDBLK
0
BLOCK
8
0
2
_ORIGIN
70
0
10
0.000000
20
0.000000
3
_ORIGIN
0
CIRCLE
8
0
10
0.000000
20
0.000000
40
0.500000
0
LINE
8
0
10
0.000000
20
0.000000
30
0.000000
11
-1.000000
21
0.000000
31
0.000000
0
ENDBLK
0
BLOCK
8
0
2
_ORIGIN2
70
0
10
0.000000
20
0.000000
3
_ORIGIN2
0
CIRCLE
8
0
10
0.000000
20
0.000000
40
0.500000
0
CIRCLE
8
0
10
0.000000
20
0.000000
40
0.250000
0
LINE
8
0
10
-0.500000
20
0.000000
30
0.000000
11
-1.000000
21
0.000000
31
0.000000
0
ENDBLK
0
BLOCK
8
0
2
_OPEN90
70
0
10
0.000000
20
0.000000
3
_OPEN90
0
LINE
8
0
10
-0.500000
20
0.500000
30
0.000000
11
0.000000
21
0.000000
31
0.000000
0
LINE
8
0
10
0.000000
20
0.000000
30
0.000000
11
-0.500000
21
-0.500000
31
0.000000
0
LINE
8
0
10
0.000000
20
0.000000
30
0.000000
11
-1.000000
21
0.000000
31
0.000000
0
ENDBLK
0
BLOCK
8
0
2
_OPEN30
70
0
10
0.000000
20
0.000000
3
_OPEN30
0
LINE
8
0
10
-1.000000
20
0.267949
30
0.000000
11
0.000000
21
0.000000
31
0.000000
0
LINE
8
0
10
0.000000
20
0.000000
30
0.000000
11
-1.000000
21
-0.267949
31
0.000000
0
LINE
8
0
10
0.000000
20
0.000000
30
0.000000
11
-1.000000
21
0.000000
31
0.000000
0
ENDBLK
0
BLOCK
8
0
2
_DOTSMALL
70
0
10
0.000000
20
0.000000
3
_DOTSMALL
0
POLYLINE
8
0
70
1
66
 1
10
0.0
20
0.0
30
0.000000
0
VERTEX
8
0
10
0.062500
20
0.000000
30
0.000000
42
1.000000
0
VERTEX
8
0
10
-0.062500
20
0.000000
30
0.000000
42
1.000000
0
SEQEND
8
0
0
ENDBLK
0
BLOCK
8
0
2
_DOTBLANK
70
0
10
0.000000
20
0.000000
3
_DOTBLANK
0
CIRCLE
8
0
10
0.000000
20
0.000000
40
0.500000
0
LINE
8
0
10
-0.500000
20
0.000000
30
0.000000
11
-1.000000
21
0.000000
31
0.000000
0
ENDBLK
0
BLOCK
8
0
2
_SMALL
70
0
10
0.000000
20
0.000000
3
_SMALL
0
CIRCLE
8
0
10
0.000000
20
0.000000
40
0.250000
0
ENDBLK
0
BLOCK
8
0
2
_BOXBLANK
70
0
10
0.000000
20
0.000000
3
_BOXBLANK
0
LINE
8
0
10
-0.500000
20
-0.500000
30
0.000000
11
0.500000
21
-0.500000
31
0.000000
0
LINE
8
0
10
0.500000
20
-0.500000
30
0.000000
11
0.500000
21
0.500000
31
0.000000
0
LINE
8
0
10
0.500000
20
0.500000
30
0.000000
11
-0.500000
21
0.500000
31
0.000000
0
LINE
8
0
10
-0.500000
20
0.500000
30
0.000000
11
-0.500000
21
-0.500000
31
0.000000
0
LINE
8
0
10
-0.500000
20
0.000000
30
0.000000
11
-1.000000
21
0.000000
31
0.000000
0
ENDBLK
0
BLOCK
8
0
2
_BOXFILLED
70
0
10
0.000000
20
0.000000
3
_BOXFILLED
0
SOLID
8
0
10
-0.500000
20
0.500000
30
0.000000
11
0.500000
21
0.500000
31
0.000000
12
-0.500000
22
-0.500000
32
0.000000
13
0.500000
23
-0.500000
33
0.000000
0
LINE
8
0
10
-0.500000
20
0.000000
30
0.000000
11
-1.000000
21
0.000000
31
0.000000
0
ENDBLK
0
BLOCK
8
0
2
_DATUMBLANK
70
0
10
0.000000
20
0.000000
3
_DATUMBLANK
0
LINE
8
0
10
0.000000
20
0.577350
30
0.000000
11
-1.000000
21
0.000000
31
0.000000
0
LINE
8
0
10
-1.000000
20
0.000000
30
0.000000
11
0.000000
21
-0.577350
31
0.000000
0
LINE
8
0
10
0.000000
20
-0.577350
30
0.000000
11
0.000000
21
0.577350
31
0.000000
0
ENDBLK
0
BLOCK
8
0
2
_DATUMFILLED
70
0
10
0.000000
20
0.000000
3
_DATUMFILLED
0
SOLID
8
0
10
0.000000
20
0.577350
30
0.000000
11
-1.000000
21
0.000000
31
0.000000
12
0.000000
22
-0.577350
32
0.000000
13
0.000000
23
-0.577350
33
0.000000
0
ENDBLK
0
BLOCK
8
0
2
_INTEGRAL
70
0
10
0.000000
20
0.000000
3
_INTEGRAL
0
ARC
8
0
10
0.444888
20
-0.091335
40
0.454167
50
102.000000
51
168.000000
0
ARC
8
0
10
-0.444888
20
0.091335
40
0.454167
50
282.000000
51
348.000000
0
ENDBLK
0
BLOCK
8
0
2
_NONE
70
0
10
0.000000
20
0.000000
3
_NONE
0
ENDBLK
0
ENDSEC
0
SECTION
2
ENTITIES
0
POLYLINE
8
Parts
6
Continuous
70
0
66
 1
10
0.0
20
0.0
30
0.000000
0
VERTEX
8
Parts
10
358.258851
20
36.372530
30
0.000000
0
VERTEX
8
Parts
10
358.251614
20
36.373813
30
0.000000
42
0.020588
0
VERTEX
8
Parts
10
192.923398
20
58.184879
30
0.000000
42
0.021527
0
VERTEX
8
Parts
10
112.164053
20
62.077931
30
0.000000
42
0.033228
0
VERTEX
8
Parts
10
58.058602
20
58.848830
30
0.000000
42
0.046813
0
VERTEX
8
Parts
10
28.373512
20
52.313045
30
0.000000
42
0.075653
0
VERTEX
8
Parts
10
14.284313
20
45.450642
30
0.000000
42
0.144282
0
VERTEX
8
Parts
10
8.803801
20
38.844580
30
0.000000
42
0.272845
0
VERTEX
8
Parts
10
10.583874
20
29.692897
30
0.000000
42
0.103048
0
VERTEX
8
Parts
10
19.026872
20
23.253925
30
0.000000
42
0.060222
0
VERTEX
8
Parts
10
38.815602
20
16.336079
30
0.000000
42
0.040176
0
VERTEX
8
Parts
10
78.103272
20
10.730966
30
0.000000
42
0.028050
0
VERTEX
8
Parts
10
143.548556
20
10.226130
30
0.000000
42
0.017708
0
VERTEX
8
Parts
10
238.910939
20
18.099030
30
0.000000
42
0.014788
0
VERTEX
8
Parts
10
358.258851
20
35.270030
30
0.000000
0
SEQEND
8
0
0
POLYLINE
8
Parts
6
Continuous
70
0
66
 1
10
0.0
20
0.0
30
0.000000
0
VERTEX
8
Parts
10
8.258851
20
35.821280
30
0.000000
0
VERTEX
8
Parts
10
358.258851
20
35.821280
30
0.000000
0
SEQEND
8
0
0
POLYLINE
8
Parts
6
Continuous
70
0
66
 1
10
0.0
20
0.0
30
0.000000
0
VERTEX
8
Parts
10
13.517702
20
35.821280
30
0.000000
0
VERTEX
8
Parts
10
9.258851
20
31.578639
30
0.000000
0
VERTEX
8
Parts
10
5.000000
20
35.821280
30
0.000000
0
VERTEX
8
Parts
10
9.258851
20
40.063921
30
0.000000
0
VERTEX
8
Parts
10
13.517702
20
35.821280
30
0.000000
0
SEQEND
8
0
0
POLYLINE
8
Parts
6
Continuous
70
0
66
 1
10
0.0
20
0.0
30
0.000000
0
VERTEX
8
Parts
10
348.258851
20
38.095887
30
0.000000
42
0.019100
0
VERTEX
8
Parts
10
193.842651
20
58.105340
30
0.000000
42
0.021353
0
VERTEX
8
Parts
10
113.008577
20
62.078730
30
0.000000
42
0.032952
0
VERTEX
8
Parts
10
58.707125
20
58.937233
30
0.000000
42
0.047544
0
VERTEX
8
Parts
10
28.373512
20
52.313045
30
0.000000
42
0.075653
0
VERTEX
8
Parts
10
14.284313
20
45.450642
30
0.000000
42
0.144282
0
VERTEX
8
Parts
10
8.803801
20
38.844580
30
0.000000
42
0.272845
0
VERTEX
8
Parts
10
10.583874
20
29.692897
30
0.000000
42
0.103048
0
VERTEX
8
Parts
10
19.026872
20
23.253925
30
0.000000
42
0.060222
0
VERTEX
8
Parts
10
38.815602
20
16.336079
30
0.000000
42
0.040176
0
VERTEX
8
Parts
10
78.103272
20
10.730966
30
0.000000
42
0.028050
0
VERTEX
8
Parts
10
143.548556
20
10.226130
30
0.000000
42
0.017708
0
VERTEX
8
Parts
10
238.910939
20
18.099030
30
0.000000
42
0.013222
0
VERTEX
8
Parts
10
348.258851
20
33.546673
30
0.000000
0
VERTEX
8
Parts
10
348.258851
20
38.095887
30
0.000000
0
SEQEND
8
0
0
POLYLINE
8
Parts
6
Continuous
70
0
66
 1
10
0.0
20
0.0
30
0.000000
0
VERTEX
8
Parts
10
109.254575
20
62.065888
30
0.000000
0
VERTEX
8
Parts
10
117.263127
20
62.065570
30
0.000000
0
VERTEX
8
Parts
10
117.262890
20
56.065570
30
0.000000
0
VERTEX
8
Parts
10
109.254339
20
56.065888
30
0.000000
0
VERTEX
8
Parts
10
109.254575
20
62.065888
30
0.000000
0
SEQEND
8
0
0
POLYLINE
8
Parts
6
Continuous
70
0
66
 1
10
0.0
20
0.0
30
0.000000
0
VERTEX
8
Parts
10
109.254575
20
9.576672
30
0.000000
0
VERTEX
8
Parts
10
117.263127
20
9.576990
30
0.000000
0
VERTEX
8
Parts
10
117.262890
20
15.576990
30
0.000000
0
VERTEX
8
Parts
10
109.254339
20
15.576672
30
0.000000
0
VERTEX
8
Parts
10
109.254575
20
9.576672
30
0.000000
0
SEQEND
8
0
0
POLYLINE
8
Parts
6
Continuous
70
0
66
 1
10
0.0
20
0.0
30
0.000000
0
VERTEX
8
Parts
10
287.781597
20
24.279081
30
0.000000
0
VERTEX
8
Parts
10
292.736105
20
24.969932
30
0.000000
0
VERTEX
8
Parts
10
292.045594
20
29.922022
30
0.000000
0
VERTEX
8
Parts
10
287.091087
20
29.231171
30
0.000000
0
VERTEX
8
Parts
10
287.781597
20
24.279081
30
0.000000
0
SEQEND
8
0
0
POLYLINE
8
Parts
6
Continuous
70
0
66
 1
10
0.0
20
0.0
30
0.000000
0
VERTEX
8
Parts
10
287.781597
20
47.363479
30
0.000000
0
VERTEX
8
Parts
10
292.736105
20
46.672628
30
0.000000
0
VERTEX
8
Parts
10
292.045594
20
41.720538
30
0.000000
0
VERTEX
8
Parts
10
287.091087
20
42.411389
30
0.000000
0
VERTEX
8
Parts
10
287.781597
20
47.363479
30
0.000000
0
SEQEND
8
0
0
POLYLINE
8
Parts
6
Continuous
70
0
66
 1
10
0.0
20
0.0
30
0.000000
0
VERTEX
8
Parts
10
144.758851
20
35.821280
30
0.000000
42
0.993457
0
VERTEX
8
Parts
10
121.759842
20
35.972250
30
0.000000
42
1.006586
0
VERTEX
8
Parts
10
144.758851
20
35.821280
30
0.000000
0
SEQEND
8
0
0
POLYLINE
8
Parts
6
Continuous
70
0
66
 1
10
0.0
20
0.0
30
0.000000
0
VERTEX
8
Parts
10
65.758851
20
51.927289
30
0.000000
42
0.033935
0
VERTEX
8
Parts
10
33.915929
20
45.920673
30
0.000000
42
0.046992
0
VERTEX
8
Parts
10
30.115928
20
44.533854
30
0.000000
42
0.284533
0
VERTEX
8
Parts
10
26.135846
20
37.201722
30
0.000000
0
VERTEX
8
Parts
10
26.135846
20
36.526083
30
0.000000
42
0.040378
0
VERTEX
8
Parts
10
26.298903
20
32.483338
30
0.000000
42
0.302421
0
VERTEX
8
Parts
10
32.694708
20
26.248687
30
0.000000
42
0.057839
0
VERTEX
8
Parts
10
74.537340
20
18.963159
30
0.000000
42
0.012687
0
VERTEX
8
Parts
10
98.148621
20
17.746018
30
0.000000
42
0.405270
0
VERTEX
8
Parts
10
105.381856
20
26.029503
30
0.000000
0
VERTEX
8
Parts
10
105.381856
20
44.947416
30
0.000000
42
0.228962
0
VERTEX
8
Parts
10
102.951985
20
51.711118
30
0.000000
42
0.214916
0
VERTEX
8
Parts
10
96.763496
20
53.881873
30
0.000000
42
0.024656
0
VERTEX
8
Parts
10
66.429753
20
52.007162
30
0.000000
0
VERTEX
8
Parts
10
65.758851
20
51.927289
30
0.000000
0
SEQEND
8
0
0
POLYLINE
8
Parts
6
Continuous
70
0
66
 1
10
0.0
20
0.0
30
0.000000
0
VERTEX
8
Parts
10
209.324109
20
48.666786
30
0.000000
42
0.006542
0
VERTEX
8
Parts
10
164.504750
20
52.504703
30
0.000000
42
0.449039
0
VERTEX
8
Parts
10
156.135846
20
44.179621
30
0.000000
0
VERTEX
8
Parts
10
156.135846
20
29.184670
30
0.000000
42
0.027716
0
VERTEX
8
Parts
10
156.244203
20
25.858462
30
0.000000
42
0.414358
0
VERTEX
8
Parts
10
165.441117
20
19.361384
30
0.000000
42
0.014065
0
VERTEX
8
Parts
10
255.821568
20
27.982868
30
0.000000
42
0.911434
0
VERTEX
8
Parts
10
254.868435
20
43.676587
30
0.000000
42
0.005758
0
VERTEX
8
Parts
10
209.324109
20
48.666786
30
0.000000
0
SEQEND
8
0
0
POLYLINE
8
Parts
6
Continuous
70
0
66
 1
10
0.0
20
0.0
30
0.000000
0
VERTEX
8
Parts
10
312.758851
20
27.881392
30
0.000000
0
VERTEX
8
Parts
10
312.758851
20
4.563830
30
0.000000
0
VERTEX
8
Parts
10
323.258851
20
4.563830
30
0.000000
0
VERTEX
8
Parts
10
323.258851
20
29.487673
30
0.000000
0
SEQEND
8
0
0
POLYLINE
8
Parts
6
Continuous
70
0
66
 1
10
0.0
20
0.0
30
0.000000
0
VERTEX
8
Parts
10
25.758851
20
20.269781
30
0.000000
0
VERTEX
8
Parts
10
25.758851
20
4.563830
30
0.000000
0
VERTEX
8
Parts
10
36.258851
20
4.563830
30
0.000000
0
VERTEX
8
Parts
10
36.258851
20
16.977203
30
0.000000
0
SEQEND
8
0
0
POLYLINE
8
Parts
6
Continuous
70
0
66
 1
10
0.0
20
0.0
30
0.000000
0
VERTEX
8
Parts
10
344.446351
20
100.851246
30
0.000000
42
0.020719
0
VERTEX
8
Parts
10
184.722402
20
121.882524
30
0.000000
42
0.022002
0
VERTEX
8
Parts
10
106.408559
20
125.541875
30
0.000000
42
0.033789
0
VERTEX
8
Parts
10
54.813330
20
122.272658
30
0.000000
42
0.047963
0
VERTEX
8
Parts
10
26.702206
20
115.881284
30
0.000000
42
0.078695
0
VERTEX
8
Parts
10
13.531293
20
109.226561
30
0.000000
42
0.150387
0
VERTEX
8
Parts
10
8.590031
20
102.845849
30
0.000000
42
0.259283
0
VERTEX
8
Parts
10
10.430034
20
94.434027
30
0.000000
42
0.106473
0
VERTEX
8
Parts
10
19.158101
20
87.930503
30
0.000000
42
0.058910
0
VERTEX
8
Parts
10
39.068136
20
81.245517
30
0.000000
42
0.039887
0
VERTEX
8
Parts
10
78.867354
20
75.975099
30
0.000000
42
0.027400
0
VERTEX
8
Parts
10
144.228110
20
76.003561
30
0.000000
42
0.017340
0
VERTEX
8
Parts
10
240.556201
20
84.557621
30
0.000000
42
0.013497
0
VERTEX
8
Parts
10
344.446351
20
99.792058
30
0.000000
0
SEQEND
8
0
0
POLYLINE
8
Parts
6
Continuous
70
0
66
 1
10
0.0
20
0.0
30
0.000000
0
VERTEX
8
Parts
10
8.196351
20
100.321652
30
0.000000
0
VERTEX
8
Parts
10
344.446351
20
100.321652
30
0.000000
0
SEQEND
8
0
0
POLYLINE
8
Parts
6
Continuous
70
0
66
 1
10
0.0
20
0.0
30
0.000000
0
VERTEX
8
Parts
10
13.517702
20
100.321652
30
0.000000
0
VERTEX
8
Parts
10
9.258851
20
96.079012
30
0.000000
0
VERTEX
8
Parts
10
5.000000
20
100.321652
30
0.000000
0
VERTEX
8
Parts
10
9.258851
20
104.564293
30
0.000000
0
VERTEX
8
Parts
10
13.517702
20
100.321652
30
0.000000
0
SEQEND
8
0
0
POLYLINE
8
Parts
6
Continuous
70
0
66
 1
10
0.0
20
0.0
30
0.000000
0
VERTEX
8
Parts
10
334.446351
20
102.573408
30
0.000000
42
0.019182
0
VERTEX
8
Parts
10
185.606219
20
121.806682
30
0.000000
42
0.021823
0
VERTEX
8
Parts
10
107.213928
20
125.544900
30
0.000000
42
0.033505
0
VERTEX
8
Parts
10
55.426297
20
122.359374
30
0.000000
42
0.048707
0
VERTEX
8
Parts
10
26.702206
20
115.881284
30
0.000000
42
0.078695
0
VERTEX
8
Parts
10
13.531293
20
109.226561
30
0.000000
42
0.150387
0
VERTEX
8
Parts
10
8.590031
20
102.845849
30
0.000000
42
0.259283
0
VERTEX
8
Parts
10
10.430034
20
94.434027
30
0.000000
42
0.106473
0
VERTEX
8
Parts
10
19.158101
20
87.930503
30
0.000000
42
0.058910
0
VERTEX
8
Parts
10
39.068136
20
81.245517
30
0.000000
42
0.039887
0
VERTEX
8
Parts
10
78.867354
20
75.975099
30
0.000000
42
0.027400
0
VERTEX
8
Parts
10
144.228110
20
76.003561
30
0.000000
42
0.017340
0
VERTEX
8
Parts
10
240.556201
20
84.557621
30
0.000000
42
0.011854
0
VERTEX
8
Parts
10
334.446351
20
98.069897
30
0.000000
0
VERTEX
8
Parts
10
334.446351
20
102.573408
30
0.000000
0
SEQEND
8
0
0
POLYLINE
8
Parts
6
Continuous
70
0
66
 1
10
0.0
20
0.0
30
0.000000
0
VERTEX
8
Parts
10
105.067075
20
125.534187
30
0.000000
0
VERTEX
8
Parts
10
113.075627
20
125.533809
30
0.000000
0
VERTEX
8
Parts
10
113.075345
20
119.533809
30
0.000000
0
VERTEX
8
Parts
10
105.066793
20
119.534187
30
0.000000
0
VERTEX
8
Parts
10
105.067075
20
125.534187
30
0.000000
0
SEQEND
8
0
0
POLYLINE
8
Parts
6
Continuous
70
0
66
 1
10
0.0
20
0.0
30
0.000000
0
VERTEX
8
Parts
10
105.067075
20
75.109117
30
0.000000
0
VERTEX
8
Parts
10
113.075627
20
75.109496
30
0.000000
0
VERTEX
8
Parts
10
113.075345
20
81.109496
30
0.000000
0
VERTEX
8
Parts
10
105.066793
20
81.109117
30
0.000000
0
VERTEX
8
Parts
10
105.067075
20
75.109117
30
0.000000
0
SEQEND
8
0
0
POLYLINE
8
Parts
6
Continuous
70
0
66
 1
10
0.0
20
0.0
30
0.000000
0
VERTEX
8
Parts
10
275.843960
20
89.109555
30
0.000000
0
VERTEX
8
Parts
10
280.798742
20
89.798430
30
0.000000
0
VERTEX
8
Parts
10
280.110208
20
94.750795
30
0.000000
0
VERTEX
8
Parts
10
275.155425
20
94.061920
30
0.000000
0
VERTEX
8
Parts
10
275.843960
20
89.109555
30
0.000000
0
SEQEND
8
0
0
POLYLINE
8
Parts
6
Continuous
70
0
66
 1
10
0.0
20
0.0
30
0.000000
0
VERTEX
8
Parts
10
275.843960
20
111.533749
30
0.000000
0
VERTEX
8
Parts
10
280.798742
20
110.844875
30
0.000000
0
VERTEX
8
Parts
10
280.110208
20
105.892509
30
0.000000
0
VERTEX
8
Parts
10
275.155425
20
106.581384
30
0.000000
0
VERTEX
8
Parts
10
275.843960
20
111.533749
30
0.000000
0
SEQEND
8
0
0
POLYLINE
8
Parts
6
Continuous
70
0
66
 1
10
0.0
20
0.0
30
0.000000
0
VERTEX
8
Parts
10
135.946351
20
100.321652
30
0.000000
42
0.993457
0
VERTEX
8
Parts
10
112.947342
20
100.472622
30
0.000000
42
1.006586
0
VERTEX
8
Parts
10
135.946351
20
100.321652
30
0.000000
0
SEQEND
8
0
0
POLYLINE
8
Parts
6
Continuous
70
0
66
 1
10
0.0
20
0.0
30
0.000000
0
VERTEX
8
Parts
10
61.946351
20
115.622673
30
0.000000
42
0.034361
0
VERTEX
8
Parts
10
31.973150
20
109.759279
30
0.000000
42
0.379773
0
VERTEX
8
Parts
10
25.763893
20
101.562181
30
0.000000
0
VERTEX
8
Parts
10
25.763893
20
100.938369
30
0.000000
42
0.030385
0
VERTEX
8
Parts
10
25.877328
20
97.202058
30
0.000000
42
0.313065
0
VERTEX
8
Parts
10
32.104735
20
90.981377
30
0.000000
42
0.058469
0
VERTEX
8
Parts
10
75.090732
20
83.876401
30
0.000000
42
0.007457
0
VERTEX
8
Parts
10
90.664713
20
83.076644
30
0.000000
42
0.434291
0
VERTEX
8
Parts
10
98.128809
20
91.336100
30
0.000000
0
VERTEX
8
Parts
10
98.128809
20
108.802836
30
0.000000
42
0.167534
0
VERTEX
8
Parts
10
96.884798
20
114.173241
30
0.000000
42
0.288498
0
VERTEX
8
Parts
10
89.314597
20
117.548415
30
0.000000
42
0.025846
0
VERTEX
8
Parts
10
61.946351
20
115.622673
30
0.000000
0
SEQEND
8
0
0
POLYLINE
8
Parts
6
Continuous
70
0
66
 1
10
0.0
20
0.0
30
0.000000
0
VERTEX
8
Parts
10
200.025008
20
112.789087
30
0.000000
42
0.007664
0
VERTEX
8
Parts
10
155.147547
20
116.533862
30
0.000000
42
0.428431
0
VERTEX
8
Parts
10
147.638893
20
108.512148
30
0.000000
0
VERTEX
8
Parts
10
147.638893
20
93.773052
30
0.000000
42
0.029498
0
VERTEX
8
Parts
10
147.750275
20
90.504081
30
0.000000
42
0.397052
0
VERTEX
8
Parts
10
156.081869
20
84.271934
30
0.000000
42
0.014130
0
VERTEX
8
Parts
10
246.548131
20
92.904100
30
0.000000
42
0.847890
0
VERTEX
8
Parts
10
245.607473
20
107.807553
30
0.000000
42
0.006005
0
VERTEX
8
Parts
10
200.025008
20
112.789087
30
0.000000
0
SEQEND
8
0
0
POLYLINE
8
Parts
6
Continuous
70
0
66
 1
10
0.0
20
0.0
30
0.000000
0
VERTEX
8
Parts
10
300.733851
20
92.693688
30
0.000000
0
VERTEX
8
Parts
10
300.733851
20
70.095745
30
0.000000
0
VERTEX
8
Parts
10
310.821351
20
70.095745
30
0.000000
0
VERTEX
8
Parts
10
310.821351
20
94.236865
30
0.000000
0
SEQEND
8
0
0
POLYLINE
8
Parts
6
Continuous
70
0
66
 1
10
0.0
20
0.0
30
0.000000
0
VERTEX
8
Parts
10
25.008851
20
85.381104
30
0.000000
0
VERTEX
8
Parts
10
25.008851
20
70.095745
30
0.000000
0
VERTEX
8
Parts
10
35.096351
20
70.095745
30
0.000000
0
VERTEX
8
Parts
10
35.096351
20
82.217879
30
0.000000
0
SEQEND
8
0
0
POLYLINE
8
Parts
6
Continuous
70
0
66
 1
10
0.0
20
0.0
30
0.000000
0
VERTEX
8
Parts
10
330.633851
20
162.351238
30
0.000000
42
0.020846
0
VERTEX
8
Parts
10
176.593913
20
182.594617
30
0.000000
42
0.022558
0
VERTEX
8
Parts
10
100.790159
20
186.023175
30
0.000000
42
0.034361
0
VERTEX
8
Parts
10
51.678048
20
182.726917
30
0.000000
42
0.050558
0
VERTEX
8
Parts
10
24.739698
20
176.353221
30
0.000000
42
0.083616
0
VERTEX
8
Parts
10
12.634016
20
169.884516
30
0.000000
42
0.172449
0
VERTEX
8
Parts
10
8.276854
20
163.341563
30
0.000000
42
0.239747
0
VERTEX
8
Parts
10
10.709491
20
155.674219
30
0.000000
42
0.099563
0
VERTEX
8
Parts
10
19.570023
20
149.504773
30
0.000000
42
0.057745
0
VERTEX
8
Parts
10
40.241855
20
142.995778
30
0.000000
42
0.038884
0
VERTEX
8
Parts
10
80.817256
20
138.215710
30
0.000000
42
0.026753
0
VERTEX
8
Parts
10
147.810857
20
139.011913
30
0.000000
42
0.016887
0
VERTEX
8
Parts
10
247.792161
20
148.816157
30
0.000000
42
0.011420
0
VERTEX
8
Parts
10
330.633851
20
161.335364
30
0.000000
0
SEQEND
8
0
0
POLYLINE
8
Parts
6
Continuous
70
0
66
 1
10
0.0
20
0.0
30
0.000000
0
VERTEX
8
Parts
10
8.133851
20
161.843301
30
0.000000
0
VERTEX
8
Parts
10
330.633851
20
161.843301
30
0.000000
0
SEQEND
8
0
0
POLYLINE
8
Parts
6
Continuous
70
0
66
 1
10
0.0
20
0.0
30
0.000000
0
VERTEX
8
Parts
10
13.517702
20
161.843301
30
0.000000
0
VERTEX
8
Parts
10
9.258851
20
157.600660
30
0.000000
0
VERTEX
8
Parts
10
5.000000
20
161.843301
30
0.000000
0
VERTEX
8
Parts
10
9.258851
20
166.085942
30
0.000000
0
VERTEX
8
Parts
10
13.517702
20
161.843301
30
0.000000
0
SEQEND
8
0
0
POLYLINE
8
Parts
6
Continuous
70
0
66
 1
10
0.0
20
0.0
30
0.000000
0
VERTEX
8
Parts
10
320.633851
20
164.072146
30
0.000000
42
0.019263
0
VERTEX
8
Parts
10
177.441365
20
182.522502
30
0.000000
42
0.022374
0
VERTEX
8
Parts
10
101.557264
20
186.028221
30
0.000000
42
0.034626
0
VERTEX
8
Parts
10
51.678048
20
182.726917
30
0.000000
42
0.050558
0
VERTEX
8
Parts
10
24.739698
20
176.353221
30
0.000000
42
0.083616
0
VERTEX
8
Parts
10
12.634016
20
169.884516
30
0.000000
42
0.172449
0
VERTEX
8
Parts
10
8.276854
20
163.341563
30
0.000000
42
0.239747
0
VERTEX
8
Parts
10
10.709491
20
155.674219
30
0.000000
42
0.099563
0
VERTEX
8
Parts
10
19.570023
20
149.504773
30
0.000000
42
0.057745
0
VERTEX
8
Parts
10
40.241855
20
142.995778
30
0.000000
42
0.038884
0
VERTEX
8
Parts
10
80.817256
20
138.215710
30
0.000000
42
0.026753
0
VERTEX
8
Parts
10
147.810857
20
139.011913
30
0.000000
42
0.016887
0
VERTEX
8
Parts
10
247.792161
20
148.816157
30
0.000000
42
0.009694
0
VERTEX
8
Parts
10
320.633851
20
159.614456
30
0.000000
0
VERTEX
8
Parts
10
320.633851
20
164.072146
30
0.000000
0
SEQEND
8
0
0
POLYLINE
8
Parts
6
Continuous
70
0
66
 1
10
0.0
20
0.0
30
0.000000
0
VERTEX
8
Parts
10
100.879575
20
186.023763
30
0.000000
0
VERTEX
8
Parts
10
108.888127
20
186.023324
30
0.000000
0
VERTEX
8
Parts
10
108.887799
20
180.023324
30
0.000000
0
VERTEX
8
Parts
10
100.879247
20
180.023763
30
0.000000
0
VERTEX
8
Parts
10
100.879575
20
186.023763
30
0.000000
0
SEQEND
8
0
0
POLYLINE
8
Parts
6
Continuous
70
0
66
 1
10
0.0
20
0.0
30
0.000000
0
VERTEX
8
Parts
10
100.879575
20
137.662839
30
0.000000
0
VERTEX
8
Parts
10
108.888127
20
137.663278
30
0.000000
0
VERTEX
8
Parts
10
108.887799
20
143.663278
30
0.000000
0
VERTEX
8
Parts
10
100.879247
20
143.662839
30
0.000000
0
VERTEX
8
Parts
10
100.879575
20
137.662839
30
0.000000
0
SEQEND
8
0
0
POLYLINE
8
Parts
6
Continuous
70
0
66
 1
10
0.0
20
0.0
30
0.000000
0
VERTEX
8
Parts
10
263.906309
20
150.961712
30
0.000000
0
VERTEX
8
Parts
10
268.861393
20
151.648414
30
0.000000
0
VERTEX
8
Parts
10
268.175025
20
156.601080
30
0.000000
0
VERTEX
8
Parts
10
263.219941
20
155.914378
30
0.000000
0
VERTEX
8
Parts
10
263.906309
20
150.961712
30
0.000000
0
SEQEND
8
0
0
POLYLINE
8
Parts
6
Continuous
70
0
66
 1
10
0.0
20
0.0
30
0.000000
0
VERTEX
8
Parts
10
263.906309
20
172.724890
30
0.000000
0
VERTEX
8
Parts
10
268.861393
20
172.038188
30
0.000000
0
VERTEX
8
Parts
10
268.175025
20
167.085522
30
0.000000
0
VERTEX
8
Parts
10
263.219941
20
167.772224
30
0.000000
0
VERTEX
8
Parts
10
263.906309
20
172.724890
30
0.000000
0
SEQEND
8
0
0
POLYLINE
8
Parts
6
Continuous
70
0
66
 1
10
0.0
20
0.0
30
0.000000
0
VERTEX
8
Parts
10
257.663887
20
173.571933
30
0.000000
0
VERTEX
8
Parts
10
264.603815
20
172.628980
30
0.000000
0
VERTEX
8
Parts
10
264.334542
20
170.647190
30
0.000000
0
VERTEX
8
Parts
10
257.394615
20
171.590143
30
0.000000
0
VERTEX
8
Parts
10
257.663887
20
173.571933
30
0.000000
0
SEQEND
8
0
0
POLYLINE
8
Parts
6
Continuous
70
0
66
 1
10
0.0
20
0.0
30
0.000000
0
VERTEX
8
Parts
10
257.663887
20
150.114669
30
0.000000
0
VERTEX
8
Parts
10
264.603815
20
151.057622
30
0.000000
0
VERTEX
8
Parts
10
264.334542
20
153.039412
30
0.000000
0
VERTEX
8
Parts
10
257.394615
20
152.096459
30
0.000000
0
VERTEX
8
Parts
10
257.663887
20
150.114669
30
0.000000
0
SEQEND
8
0
0
POLYLINE
8
Parts
6
Continuous
70
0
66
 1
10
0.0
20
0.0
30
0.000000
0
VERTEX
8
Parts
10
127.133851
20
161.843301
30
0.000000
42
0.993457
0
VERTEX
8
Parts
10
104.134842
20
161.994271
30
0.000000
42
1.006586
0
VERTEX
8
Parts
10
127.133851
20
161.843301
30
0.000000
0
SEQEND
8
0
0
POLYLINE
8
Parts
6
Continuous
70
0
66
 1
10
0.0
20
0.0
30
0.000000
0
VERTEX
8
Parts
10
58.133851
20
176.336351
30
0.000000
42
0.034975
0
VERTEX
8
Parts
10
30.132657
20
170.625978
30
0.000000
42
0.342210
0
VERTEX
8
Parts
10
25.391940
20
162.923726
30
0.000000
0
VERTEX
8
Parts
10
25.391940
20
162.351673
30
0.000000
42
0.036364
0
VERTEX
8
Parts
10
25.557715
20
158.359155
30
0.000000
42
0.300741
0
VERTEX
8
Parts
10
31.382995
20
152.722589
30
0.000000
42
0.059435
0
VERTEX
8
Parts
10
79.371967
20
145.616270
30
0.000000
42
0.018901
0
VERTEX
8
Parts
10
84.514363
20
145.495003
30
0.000000
42
0.409776
0
VERTEX
8
Parts
10
90.875763
20
153.636551
30
0.000000
0
VERTEX
8
Parts
10
90.875763
20
169.654027
30
0.000000
42
0.130630
0
VERTEX
8
Parts
10
90.173635
20
174.125970
30
0.000000
42
0.322155
0
VERTEX
8
Parts
10
82.647529
20
178.238387
30
0.000000
42
0.026171
0
VERTEX
8
Parts
10
58.133851
20
176.336351
30
0.000000
0
SEQEND
8
0
0
POLYLINE
8
Parts
6
Continuous
70
0
66
 1
10
0.0
20
0.0
30
0.000000
0
VERTEX
8
Parts
10
190.623702
20
173.941577
30
0.000000
42
0.007879
0
VERTEX
8
Parts
10
146.583303
20
177.561002
30
0.000000
42
0.439410
0
VERTEX
8
Parts
10
139.141940
20
169.837366
30
0.000000
0
VERTEX
8
Parts
10
139.141940
20
155.374803
30
0.000000
42
0.026449
0
VERTEX
8
Parts
10
139.246121
20
152.166797
30
0.000000
42
0.405389
0
VERTEX
8
Parts
10
147.477424
20
146.187382
30
0.000000
42
0.012995
0
VERTEX
8
Parts
10
236.244306
20
154.708150
30
0.000000
42
0.875607
0
VERTEX
8
Parts
10
235.353828
20
169.080376
30
0.000000
42
0.006150
0
VERTEX
8
Parts
10
190.623702
20
173.941577
30
0.000000
0
SEQEND
8
0
0
POLYLINE
8
Parts
6
Continuous
70
0
66
 1
10
0.0
20
0.0
30
0.000000
0
VERTEX
8
Parts
10
288.708851
20
154.527261
30
0.000000
0
VERTEX
8
Parts
10
288.708851
20
132.648936
30
0.000000
0
VERTEX
8
Parts
10
298.383851
20
132.648936
30
0.000000
0
VERTEX
8
Parts
10
298.383851
20
156.007334
30
0.000000
0
SEQEND
8
0
0
POLYLINE
8
Parts
6
Continuous
70
0
66
 1
10
0.0
20
0.0
30
0.000000
0
VERTEX
8
Parts
10
24.258851
20
147.513705
30
0.000000
0
VERTEX
8
Parts
10
24.258851
20
132.648936
30
0.000000
0
VERTEX
8
Parts
10
33.933851
20
132.648936
30
0.000000
0
VERTEX
8
Parts
10
33.933851
20
144.479830
30
0.000000
0
SEQEND
8
0
0
ENDSEC
0
EOF
