0
SECTION
2
HEADER
0
ENDSEC
0
SECTION
2
TABLES
0
TABLE
2
LTYPE
0
LTYPE
2
Continuous
70
0
3
Solid line
72
65
73
0
40
0.000000
0
ENDTAB
0
TABLE
2
LAYER
0
LAYER
2
0
70
0
62
7
6
Continuous
0
LAYER
2
Parts
70
0
62
7
6
Continuous
0
ENDTAB
0
TABLE
2
STYLE
0
STYLE
2
Standard
3
Arial
70
0
71
0
40
5.000000
41
1.000000
42
5.000000
50
0.000000
0
ENDTAB
0
TABLE
2
DIMSTYLE
0
DIMSTYLE
2
Standard
70
0
3

4

5

6
CLOSEDFILLED
7
CLOSEDFILLED
40
1.000000
41
2.000000
42
1.000000
43
5.000000
44
2.000000
45
0.000000
46
0.000000
47
0.000000
48
0.000000
140
5.000000
141
2.000000
142
0.000000
143
25.400000
144
1.000000
145
0.000000
146
1.000000
147
2.000000
71
0
72
0
73
0
74
1
75
0
76
0
77
0
78
0
170
0
171
4
172
0
173
1
174
0
175
0
176
0
177
-2
178
-2
271
4
272
4
273
1
274
4
275
0
280
0
281
0
282
0
283
1
288
0
0
ENDTAB
0
ENDSEC
0
SECTION
2
BLOCKS
0
BLOCK
8
0
2
_CLOSEDFILLED
70
0
10
0.000000
20
0.000000
3
_CLOSEDFILLED
0
SOLID
8
0
10
-1.000000
20
0.166667
30
0.000000
11
-1.000000
21
-0.166667
31
0.000000
12
0.000000
22
0.000000
32
0.000000
13
0.000000
23
0.000000
33
0.000000
0
ENDBLK
0
BLOCK
8
0
2
_CLOSEDBLANK
70
0
10
0.000000
20
0.000000
3
_CLOSEDBLANK
0
LINE
8
0
10
-1.000000
20
0.166667
30
0.000000
11
0.000000
21
0.000000
31
0.000000
0
LINE
8
0
10
0.000000
20
0.000000
30
0.000000
11
-1.000000
21
-0.166667
31
0.000000
0
LINE
8
0
10
-1.000000
20
0.166667
30
0.000000
11
-1.000000
21
-0.166667
31
0.000000
0
ENDBLK
0
BLOCK
8
0
2
_CLOSED
70
0
10
0.000000
20
0.000000
3
_CLOSED
0
LINE
8
0
10
-1.000000
20
0.166667
30
0.000000
11
0.000000
21
0.000000
31
0.000000
0
LINE
8
0
10
0.000000
20
0.000000
30
0.000000
11
-1.000000
21
-0.166667
31
0.000000
0
LINE
8
0
10
-1.000000
20
0.166667
30
0.000000
11
-1.000000
21
-0.166667
31
0.000000
0
LINE
8
0
10
0.000000
20
0.000000
30
0.000000
11
-1.000000
21
0.000000
31
0.000000
0
ENDBLK
0
BLOCK
8
0
2
_DOT
70
0
10
0.000000
20
0.000000
3
_DOT
0
POLYLINE
8
0
70
1
66
 1
10
0.0
20
0.0
30
0.000000
0
VERTEX
8
0
10
0.250000
20
0.000000
30
0.000000
42
1.000000
0
VERTEX
8
0
10
-0.250000
20
0.000000
30
0.000000
42
1.000000
0
SEQEND
8
0
0
LINE
8
0
10
-0.500000
20
0.000000
30
0.000000
11
-1.000000
21
0.000000
31
0.000000
0
ENDBLK
0
BLOCK
8
0
2
_ARCHTICK
70
0
10
0.000000
20
0.000000
3
_ARCHTICK
0
POLYLINE
8
0
70
0
66
 1
10
0.0
20
0.0
30
0.000000
0
VERTEX
8
0
10
0.500000
20
0.500000
30
0.000000
0
VERTEX
8
0
10
-0.500000
20
-0.500000
30
0.000000
0
SEQEND
8
0
0
ENDBLK
0
BLOCK
8
0
2
_OBLIQUE
70
0
10
0.000000
20
0.000000
3
_OBLIQUE
0
LINE
8
0
10
-0.500000
20
-0.500000
30
0.000000
11
0.500000
21
0.500000
31
0.000000
0
ENDBLK
0
BLOCK
8
0
2
_OPEN
70
0
10
0.000000
20
0.000000
3
_OPEN
0
LINE
8
0
10
-1.000000
20
0.166667
30
0.000000
11
0.000000
21
0.000000
31
0.000000
0
LINE
8
0
10
-1.000000
20
-0.166667
30
0.000000
11
0.000000
21
0.000000
31
0.000000
0
LINE
8
0
10
0.000000
20
0.000000
30
0.000000
11
-1.000000
21
0.000000
31
0.000000
0
ENDBLK
0
BLOCK
8
0
2
_ORIGIN
70
0
10
0.000000
20
0.000000
3
_ORIGIN
0
CIRCLE
8
0
10
0.000000
20
0.000000
40
0.500000
0
LINE
8
0
10
0.000000
20
0.000000
30
0.000000
11
-1.000000
21
0.000000
31
0.000000
0
ENDBLK
0
BLOCK
8
0
2
_ORIGIN2
70
0
10
0.000000
20
0.000000
3
_ORIGIN2
0
CIRCLE
8
0
10
0.000000
20
0.000000
40
0.500000
0
CIRCLE
8
0
10
0.000000
20
0.000000
40
0.250000
0
LINE
8
0
10
-0.500000
20
0.000000
30
0.000000
11
-1.000000
21
0.000000
31
0.000000
0
ENDBLK
0
BLOCK
8
0
2
_OPEN90
70
0
10
0.000000
20
0.000000
3
_OPEN90
0
LINE
8
0
10
-0.500000
20
0.500000
30
0.000000
11
0.000000
21
0.000000
31
0.000000
0
LINE
8
0
10
0.000000
20
0.000000
30
0.000000
11
-0.500000
21
-0.500000
31
0.000000
0
LINE
8
0
10
0.000000
20
0.000000
30
0.000000
11
-1.000000
21
0.000000
31
0.000000
0
ENDBLK
0
BLOCK
8
0
2
_OPEN30
70
0
10
0.000000
20
0.000000
3
_OPEN30
0
LINE
8
0
10
-1.000000
20
0.267949
30
0.000000
11
0.000000
21
0.000000
31
0.000000
0
LINE
8
0
10
0.000000
20
0.000000
30
0.000000
11
-1.000000
21
-0.267949
31
0.000000
0
LINE
8
0
10
0.000000
20
0.000000
30
0.000000
11
-1.000000
21
0.000000
31
0.000000
0
ENDBLK
0
BLOCK
8
0
2
_DOTSMALL
70
0
10
0.000000
20
0.000000
3
_DOTSMALL
0
POLYLINE
8
0
70
1
66
 1
10
0.0
20
0.0
30
0.000000
0
VERTEX
8
0
10
0.062500
20
0.000000
30
0.000000
42
1.000000
0
VERTEX
8
0
10
-0.062500
20
0.000000
30
0.000000
42
1.000000
0
SEQEND
8
0
0
ENDBLK
0
BLOCK
8
0
2
_DOTBLANK
70
0
10
0.000000
20
0.000000
3
_DOTBLANK
0
CIRCLE
8
0
10
0.000000
20
0.000000
40
0.500000
0
LINE
8
0
10
-0.500000
20
0.000000
30
0.000000
11
-1.000000
21
0.000000
31
0.000000
0
ENDBLK
0
BLOCK
8
0
2
_SMALL
70
0
10
0.000000
20
0.000000
3
_SMALL
0
CIRCLE
8
0
10
0.000000
20
0.000000
40
0.250000
0
ENDBLK
0
BLOCK
8
0
2
_BOXBLANK
70
0
10
0.000000
20
0.000000
3
_BOXBLANK
0
LINE
8
0
10
-0.500000
20
-0.500000
30
0.000000
11
0.500000
21
-0.500000
31
0.000000
0
LINE
8
0
10
0.500000
20
-0.500000
30
0.000000
11
0.500000
21
0.500000
31
0.000000
0
LINE
8
0
10
0.500000
20
0.500000
30
0.000000
11
-0.500000
21
0.500000
31
0.000000
0
LINE
8
0
10
-0.500000
20
0.500000
30
0.000000
11
-0.500000
21
-0.500000
31
0.000000
0
LINE
8
0
10
-0.500000
20
0.000000
30
0.000000
11
-1.000000
21
0.000000
31
0.000000
0
ENDBLK
0
BLOCK
8
0
2
_BOXFILLED
70
0
10
0.000000
20
0.000000
3
_BOXFILLED
0
SOLID
8
0
10
-0.500000
20
0.500000
30
0.000000
11
0.500000
21
0.500000
31
0.000000
12
-0.500000
22
-0.500000
32
0.000000
13
0.500000
23
-0.500000
33
0.000000
0
LINE
8
0
10
-0.500000
20
0.000000
30
0.000000
11
-1.000000
21
0.000000
31
0.000000
0
ENDBLK
0
BLOCK
8
0
2
_DATUMBLANK
70
0
10
0.000000
20
0.000000
3
_DATUMBLANK
0
LINE
8
0
10
0.000000
20
0.577350
30
0.000000
11
-1.000000
21
0.000000
31
0.000000
0
LINE
8
0
10
-1.000000
20
0.000000
30
0.000000
11
0.000000
21
-0.577350
31
0.000000
0
LINE
8
0
10
0.000000
20
-0.577350
30
0.000000
11
0.000000
21
0.577350
31
0.000000
0
ENDBLK
0
BLOCK
8
0
2
_DATUMFILLED
70
0
10
0.000000
20
0.000000
3
_DATUMFILLED
0
SOLID
8
0
10
0.000000
20
0.577350
30
0.000000
11
-1.000000
21
0.000000
31
0.000000
12
0.000000
22
-0.577350
32
0.000000
13
0.000000
23
-0.577350
33
0.000000
0
ENDBLK
0
BLOCK
8
0
2
_INTEGRAL
70
0
10
0.000000
20
0.000000
3
_INTEGRAL
0
ARC
8
0
10
0.444888
20
-0.091335
40
0.454167
50
102.000000
51
168.000000
0
ARC
8
0
10
-0.444888
20
0.091335
40
0.454167
50
282.000000
51
348.000000
0
ENDBLK
0
BLOCK
8
0
2
_NONE
70
0
10
0.000000
20
0.000000
3
_NONE
0
ENDBLK
0
ENDSEC
0
SECTION
2
ENTITIES
0
POLYLINE
8
Parts
6
Continuous
70
0
66
 1
10
0.0
20
0.0
30
0.000000
0
VERTEX
8
Parts
10
309.915101
20
32.686334
30
0.000000
42
0.020978
0
VERTEX
8
Parts
10
164.932995
20
51.702043
30
0.000000
42
0.023052
0
VERTEX
8
Parts
10
93.334880
20
54.831884
30
0.000000
42
0.036220
0
VERTEX
8
Parts
10
46.652863
20
51.429095
30
0.000000
42
0.053224
0
VERTEX
8
Parts
10
22.212734
20
45.267673
30
0.000000
42
0.090803
0
VERTEX
8
Parts
10
11.541371
20
39.108700
30
0.000000
42
0.198842
0
VERTEX
8
Parts
10
8.048393
20
32.563618
30
0.000000
42
0.212398
0
VERTEX
8
Parts
10
10.893791
20
25.952019
30
0.000000
42
0.096121
0
VERTEX
8
Parts
10
20.265228
20
19.965158
30
0.000000
42
0.056409
0
VERTEX
8
Parts
10
42.509263
20
13.699700
30
0.000000
42
0.037795
0
VERTEX
8
Parts
10
85.583786
20
9.731580
30
0.000000
42
0.024956
0
VERTEX
8
Parts
10
154.609731
20
11.898426
30
0.000000
42
0.016980
0
VERTEX
8
Parts
10
264.716127
20
24.477780
30
0.000000
42
0.007033
0
VERTEX
8
Parts
10
309.915101
20
31.735427
30
0.000000
0
SEQEND
8
0
0
POLYLINE
8
Parts
6
Continuous
70
0
66
 1
10
0.0
20
0.0
30
0.000000
0
VERTEX
8
Parts
10
8.040101
20
32.210881
30
0.000000
0
VERTEX
8
Parts
10
309.915101
20
32.210881
30
0.000000
0
SEQEND
8
0
0
POLYLINE
8
Parts
6
Continuous
70
0
66
 1
10
0.0
20
0.0
30
0.000000
0
VERTEX
8
Parts
10
13.517702
20
32.210881
30
0.000000
0
VERTEX
8
Parts
10
9.258851
20
27.968240
30
0.000000
0
VERTEX
8
Parts
10
5.000000
20
32.210881
30
0.000000
0
VERTEX
8
Parts
10
9.258851
20
36.453521
30
0.000000
0
VERTEX
8
Parts
10
13.517702
20
32.210881
30
0.000000
0
SEQEND
8
0
0
POLYLINE
8
Parts
6
Continuous
70
0
66
 1
10
0.0
20
0.0
30
0.000000
0
VERTEX
8
Parts
10
299.915101
20
34.405097
30
0.000000
42
0.019447
0
VERTEX
8
Parts
10
164.932995
20
51.702043
30
0.000000
42
0.023052
0
VERTEX
8
Parts
10
93.334880
20
54.831884
30
0.000000
42
0.036220
0
VERTEX
8
Parts
10
46.652863
20
51.429095
30
0.000000
42
0.053224
0
VERTEX
8
Parts
10
22.212734
20
45.267673
30
0.000000
42
0.090803
0
VERTEX
8
Parts
10
11.541371
20
39.108700
30
0.000000
42
0.198842
0
VERTEX
8
Parts
10
8.048393
20
32.563618
30
0.000000
42
0.212398
0
VERTEX
8
Parts
10
10.893791
20
25.952019
30
0.000000
42
0.096121
0
VERTEX
8
Parts
10
20.265228
20
19.965158
30
0.000000
42
0.056409
0
VERTEX
8
Parts
10
42.509263
20
13.699700
30
0.000000
42
0.037795
0
VERTEX
8
Parts
10
85.583786
20
9.731580
30
0.000000
42
0.024956
0
VERTEX
8
Parts
10
154.609731
20
11.898426
30
0.000000
42
0.016980
0
VERTEX
8
Parts
10
264.716127
20
24.477780
30
0.000000
42
0.005257
0
VERTEX
8
Parts
10
299.915101
20
30.016664
30
0.000000
0
VERTEX
8
Parts
10
299.915101
20
34.405097
30
0.000000
0
SEQEND
8
0
0
POLYLINE
8
Parts
6
Continuous
70
0
66
 1
10
0.0
20
0.0
30
0.000000
0
VERTEX
8
Parts
10
94.598325
20
54.842990
30
0.000000
0
VERTEX
8
Parts
10
102.606877
20
54.842702
30
0.000000
0
VERTEX
8
Parts
10
102.606658
20
48.842702
30
0.000000
0
VERTEX
8
Parts
10
94.598106
20
48.842990
30
0.000000
0
VERTEX
8
Parts
10
94.598325
20
54.842990
30
0.000000
0
SEQEND
8
0
0
POLYLINE
8
Parts
6
Continuous
70
0
66
 1
10
0.0
20
0.0
30
0.000000
0
VERTEX
8
Parts
10
94.598325
20
9.578771
30
0.000000
0
VERTEX
8
Parts
10
102.606877
20
9.579059
30
0.000000
0
VERTEX
8
Parts
10
102.606658
20
15.579059
30
0.000000
0
VERTEX
8
Parts
10
94.598106
20
15.578771
30
0.000000
0
VERTEX
8
Parts
10
94.598325
20
9.578771
30
0.000000
0
SEQEND
8
0
0
POLYLINE
8
Parts
6
Continuous
70
0
66
 1
10
0.0
20
0.0
30
0.000000
0
VERTEX
8
Parts
10
245.999809
20
21.825992
30
0.000000
0
VERTEX
8
Parts
10
250.955394
20
22.509059
30
0.000000
0
VERTEX
8
Parts
10
250.272652
20
27.462226
30
0.000000
0
VERTEX
8
Parts
10
245.317067
20
26.779159
30
0.000000
0
VERTEX
8
Parts
10
245.999809
20
21.825992
30
0.000000
0
SEQEND
8
0
0
POLYLINE
8
Parts
6
Continuous
70
0
66
 1
10
0.0
20
0.0
30
0.000000
0
VERTEX
8
Parts
10
245.999809
20
42.595769
30
0.000000
0
VERTEX
8
Parts
10
250.955394
20
41.912702
30
0.000000
0
VERTEX
8
Parts
10
250.272652
20
36.959535
30
0.000000
0
VERTEX
8
Parts
10
245.317067
20
37.642602
30
0.000000
0
VERTEX
8
Parts
10
245.999809
20
42.595769
30
0.000000
0
SEQEND
8
0
0
POLYLINE
8
Parts
6
Continuous
70
0
66
 1
10
0.0
20
0.0
30
0.000000
0
VERTEX
8
Parts
10
239.569674
20
43.462113
30
0.000000
0
VERTEX
8
Parts
10
246.510528
20
42.526013
30
0.000000
0
VERTEX
8
Parts
10
246.243211
20
40.543958
30
0.000000
0
VERTEX
8
Parts
10
239.302357
20
41.480058
30
0.000000
0
VERTEX
8
Parts
10
239.569674
20
43.462113
30
0.000000
0
SEQEND
8
0
0
POLYLINE
8
Parts
6
Continuous
70
0
66
 1
10
0.0
20
0.0
30
0.000000
0
VERTEX
8
Parts
10
239.569674
20
20.959649
30
0.000000
0
VERTEX
8
Parts
10
246.510528
20
21.895748
30
0.000000
0
VERTEX
8
Parts
10
246.243211
20
23.877803
30
0.000000
0
VERTEX
8
Parts
10
239.302357
20
22.941703
30
0.000000
0
VERTEX
8
Parts
10
239.569674
20
20.959649
30
0.000000
0
SEQEND
8
0
0
POLYLINE
8
Parts
6
Continuous
70
0
66
 1
10
0.0
20
0.0
30
0.000000
0
VERTEX
8
Parts
10
258.126917
20
23.521969
30
0.000000
0
VERTEX
8
Parts
10
263.078285
20
24.237810
30
0.000000
0
VERTEX
8
Parts
10
262.362848
20
29.186361
30
0.000000
0
VERTEX
8
Parts
10
257.411480
20
28.470519
30
0.000000
0
VERTEX
8
Parts
10
258.126917
20
23.521969
30
0.000000
0
SEQEND
8
0
0
POLYLINE
8
Parts
6
Continuous
70
0
66
 1
10
0.0
20
0.0
30
0.000000
0
VERTEX
8
Parts
10
258.126917
20
40.899793
30
0.000000
0
VERTEX
8
Parts
10
263.078285
20
40.183951
30
0.000000
0
VERTEX
8
Parts
10
262.362848
20
35.235401
30
0.000000
0
VERTEX
8
Parts
10
257.411480
20
35.951242
30
0.000000
0
VERTEX
8
Parts
10
258.126917
20
40.899793
30
0.000000
0
SEQEND
8
0
0
POLYLINE
8
Parts
6
Continuous
70
0
66
 1
10
0.0
20
0.0
30
0.000000
0
VERTEX
8
Parts
10
57.883851
20
46.177183
30
0.000000
42
0.039685
0
VERTEX
8
Parts
10
29.386002
20
40.588134
30
0.000000
42
0.344042
0
VERTEX
8
Parts
10
24.834009
20
33.441292
30
0.000000
0
VERTEX
8
Parts
10
24.834009
20
31.161141
30
0.000000
42
0.267792
0
VERTEX
8
Parts
10
27.628049
20
24.654056
30
0.000000
42
0.091671
0
VERTEX
8
Parts
10
31.851685
20
23.015139
30
0.000000
42
0.059145
0
VERTEX
8
Parts
10
84.928217
20
16.659984
30
0.000000
42
0.395447
0
VERTEX
8
Parts
10
90.933693
20
23.787036
30
0.000000
0
VERTEX
8
Parts
10
90.933693
20
39.748094
30
0.000000
42
0.166706
0
VERTEX
8
Parts
10
89.833364
20
44.664385
30
0.000000
42
0.277635
0
VERTEX
8
Parts
10
83.480530
20
47.734722
30
0.000000
42
0.019365
0
VERTEX
8
Parts
10
57.883851
20
46.177183
30
0.000000
0
SEQEND
8
0
0
POLYLINE
8
Parts
6
Continuous
70
0
66
 1
10
0.0
20
0.0
30
0.000000
0
VERTEX
8
Parts
10
166.867621
20
44.637727
30
0.000000
42
0.016418
0
VERTEX
8
Parts
10
118.290547
20
47.781970
30
0.000000
42
0.012031
0
VERTEX
8
Parts
10
112.781481
20
47.856026
30
0.000000
42
0.389801
0
VERTEX
8
Parts
10
106.709009
20
40.944654
30
0.000000
0
VERTEX
8
Parts
10
106.709009
20
25.327955
30
0.000000
42
0.060406
0
VERTEX
8
Parts
10
106.930851
20
21.672428
30
0.000000
42
0.351411
0
VERTEX
8
Parts
10
113.758276
20
16.604293
30
0.000000
42
0.020504
0
VERTEX
8
Parts
10
175.167928
20
20.473464
30
0.000000
42
0.007463
0
VERTEX
8
Parts
10
221.736493
20
25.573890
30
0.000000
42
0.858885
0
VERTEX
8
Parts
10
220.768136
20
38.977869
30
0.000000
42
0.007933
0
VERTEX
8
Parts
10
166.867621
20
44.637727
30
0.000000
0
SEQEND
8
0
0
POLYLINE
8
Parts
6
Continuous
70
0
66
 1
10
0.0
20
0.0
30
0.000000
0
VERTEX
8
Parts
10
270.671351
20
25.362727
30
0.000000
0
VERTEX
8
Parts
10
270.671351
20
4.563830
30
0.000000
0
VERTEX
8
Parts
10
279.727601
20
4.563830
30
0.000000
0
VERTEX
8
Parts
10
279.727601
20
26.748144
30
0.000000
0
SEQEND
8
0
0
POLYLINE
8
Parts
6
Continuous
70
0
66
 1
10
0.0
20
0.0
30
0.000000
0
VERTEX
8
Parts
10
23.133851
20
18.797712
30
0.000000
0
VERTEX
8
Parts
10
23.133851
20
4.563830
30
0.000000
0
VERTEX
8
Parts
10
32.190101
20
4.563830
30
0.000000
0
VERTEX
8
Parts
10
32.190101
20
15.957864
30
0.000000
0
SEQEND
8
0
0
POLYLINE
8
Parts
6
Continuous
70
0
66
 1
10
0.0
20
0.0
30
0.000000
0
VERTEX
8
Parts
10
289.196351
20
90.681003
30
0.000000
42
0.021240
0
VERTEX
8
Parts
10
152.640782
20
108.520786
30
0.000000
42
0.023822
0
VERTEX
8
Parts
10
85.422291
20
111.289034
30
0.000000
42
0.037164
0
VERTEX
8
Parts
10
42.451236
20
107.903047
30
0.000000
42
0.055395
0
VERTEX
8
Parts
10
20.227461
20
102.027875
30
0.000000
42
0.096789
0
VERTEX
8
Parts
10
10.750201
20
96.218754
30
0.000000
42
0.221917
0
VERTEX
8
Parts
10
7.963789
20
89.745285
30
0.000000
42
0.192867
0
VERTEX
8
Parts
10
11.208403
20
83.811495
30
0.000000
42
0.090803
0
VERTEX
8
Parts
10
21.150668
20
78.073321
30
0.000000
42
0.054023
0
VERTEX
8
Parts
10
44.416526
20
72.254711
30
0.000000
42
0.036587
0
VERTEX
8
Parts
10
89.420258
20
69.146535
30
0.000000
42
0.023276
0
VERTEX
8
Parts
10
160.028401
20
72.591502
30
0.000000
42
0.019955
0
VERTEX
8
Parts
10
289.196351
20
89.795066
30
0.000000
0
SEQEND
8
0
0
POLYLINE
8
Parts
6
Continuous
70
0
66
 1
10
0.0
20
0.0
30
0.000000
0
VERTEX
8
Parts
10
7.946351
20
90.238035
30
0.000000
0
VERTEX
8
Parts
10
289.196351
20
90.238035
30
0.000000
0
SEQEND
8
0
0
POLYLINE
8
Parts
6
Continuous
70
0
66
 1
10
0.0
20
0.0
30
0.000000
0
VERTEX
8
Parts
10
13.517702
20
90.238035
30
0.000000
0
VERTEX
8
Parts
10
9.258851
20
85.995394
30
0.000000
0
VERTEX
8
Parts
10
5.000000
20
90.238035
30
0.000000
0
VERTEX
8
Parts
10
9.258851
20
94.480675
30
0.000000
0
VERTEX
8
Parts
10
13.517702
20
90.238035
30
0.000000
0
SEQEND
8
0
0
POLYLINE
8
Parts
6
Continuous
70
0
66
 1
10
0.0
20
0.0
30
0.000000
0
VERTEX
8
Parts
10
279.196351
20
92.397152
30
0.000000
42
0.019484
0
VERTEX
8
Parts
10
153.380219
20
108.459401
30
0.000000
42
0.023941
0
VERTEX
8
Parts
10
85.422291
20
111.289034
30
0.000000
42
0.037164
0
VERTEX
8
Parts
10
42.451236
20
107.903047
30
0.000000
42
0.055395
0
VERTEX
8
Parts
10
20.227461
20
102.027875
30
0.000000
42
0.096789
0
VERTEX
8
Parts
10
10.750201
20
96.218754
30
0.000000
42
0.221917
0
VERTEX
8
Parts
10
7.963789
20
89.745285
30
0.000000
42
0.192867
0
VERTEX
8
Parts
10
11.208403
20
83.811495
30
0.000000
42
0.090803
0
VERTEX
8
Parts
10
21.150668
20
78.073321
30
0.000000
42
0.054023
0
VERTEX
8
Parts
10
44.416526
20
72.254711
30
0.000000
42
0.036587
0
VERTEX
8
Parts
10
89.420258
20
69.146535
30
0.000000
42
0.023276
0
VERTEX
8
Parts
10
160.028401
20
72.591502
30
0.000000
42
0.018264
0
VERTEX
8
Parts
10
279.196351
20
88.078917
30
0.000000
0
VERTEX
8
Parts
10
279.196351
20
92.397152
30
0.000000
0
SEQEND
8
0
0
POLYLINE
8
Parts
6
Continuous
70
0
66
 1
10
0.0
20
0.0
30
0.000000
0
VERTEX
8
Parts
10
88.317075
20
111.321666
30
0.000000
0
VERTEX
8
Parts
10
96.325627
20
111.321512
30
0.000000
0
VERTEX
8
Parts
10
96.325512
20
105.321512
30
0.000000
0
VERTEX
8
Parts
10
88.316961
20
105.321666
30
0.000000
0
VERTEX
8
Parts
10
88.317075
20
111.321666
30
0.000000
0
SEQEND
8
0
0
POLYLINE
8
Parts
6
Continuous
70
0
66
 1
10
0.0
20
0.0
30
0.000000
0
VERTEX
8
Parts
10
88.317075
20
69.154403
30
0.000000
0
VERTEX
8
Parts
10
96.325627
20
69.154558
30
0.000000
0
VERTEX
8
Parts
10
96.325512
20
75.154558
30
0.000000
0
VERTEX
8
Parts
10
88.316961
20
75.154403
30
0.000000
0
VERTEX
8
Parts
10
88.317075
20
69.154403
30
0.000000
0
SEQEND
8
0
0
POLYLINE
8
Parts
6
Continuous
70
0
66
 1
10
0.0
20
0.0
30
0.000000
0
VERTEX
8
Parts
10
228.093287
20
80.351193
30
0.000000
0
VERTEX
8
Parts
10
233.049415
20
81.030331
30
0.000000
0
VERTEX
8
Parts
10
232.370617
20
85.984040
30
0.000000
0
VERTEX
8
Parts
10
227.414490
20
85.304902
30
0.000000
0
VERTEX
8
Parts
10
228.093287
20
80.351193
30
0.000000
0
SEQEND
8
0
0
POLYLINE
8
Parts
6
Continuous
70
0
66
 1
10
0.0
20
0.0
30
0.000000
0
VERTEX
8
Parts
10
228.093287
20
100.124876
30
0.000000
0
VERTEX
8
Parts
10
233.049415
20
99.445738
30
0.000000
0
VERTEX
8
Parts
10
232.370617
20
94.492029
30
0.000000
0
VERTEX
8
Parts
10
227.414490
20
95.171167
30
0.000000
0
VERTEX
8
Parts
10
228.093287
20
100.124876
30
0.000000
0
SEQEND
8
0
0
POLYLINE
8
Parts
6
Continuous
70
0
66
 1
10
0.0
20
0.0
30
0.000000
0
VERTEX
8
Parts
10
221.475400
20
101.009212
30
0.000000
0
VERTEX
8
Parts
10
228.417302
20
100.080914
30
0.000000
0
VERTEX
8
Parts
10
228.152213
20
98.098560
30
0.000000
0
VERTEX
8
Parts
10
221.210310
20
99.026858
30
0.000000
0
VERTEX
8
Parts
10
221.475400
20
101.009212
30
0.000000
0
SEQEND
8
0
0
POLYLINE
8
Parts
6
Continuous
70
0
66
 1
10
0.0
20
0.0
30
0.000000
0
VERTEX
8
Parts
10
221.475400
20
79.466857
30
0.000000
0
VERTEX
8
Parts
10
228.417302
20
80.395155
30
0.000000
0
VERTEX
8
Parts
10
228.152213
20
82.377509
30
0.000000
0
VERTEX
8
Parts
10
221.210310
20
81.449211
30
0.000000
0
VERTEX
8
Parts
10
221.475400
20
79.466857
30
0.000000
0
SEQEND
8
0
0
POLYLINE
8
Parts
6
Continuous
70
0
66
 1
10
0.0
20
0.0
30
0.000000
0
VERTEX
8
Parts
10
239.845462
20
81.985569
30
0.000000
0
VERTEX
8
Parts
10
244.797240
20
82.698571
30
0.000000
0
VERTEX
8
Parts
10
244.084648
20
87.647532
30
0.000000
0
VERTEX
8
Parts
10
239.132869
20
86.934530
30
0.000000
0
VERTEX
8
Parts
10
239.845462
20
81.985569
30
0.000000
0
SEQEND
8
0
0
POLYLINE
8
Parts
6
Continuous
70
0
66
 1
10
0.0
20
0.0
30
0.000000
0
VERTEX
8
Parts
10
239.845462
20
98.490500
30
0.000000
0
VERTEX
8
Parts
10
244.797240
20
97.777498
30
0.000000
0
VERTEX
8
Parts
10
244.084648
20
92.828538
30
0.000000
0
VERTEX
8
Parts
10
239.132869
20
93.541540
30
0.000000
0
VERTEX
8
Parts
10
239.845462
20
98.490500
30
0.000000
0
SEQEND
8
0
0
POLYLINE
8
Parts
6
Continuous
70
0
66
 1
10
0.0
20
0.0
30
0.000000
0
VERTEX
8
Parts
10
54.508851
20
103.273815
30
0.000000
42
0.042584
0
VERTEX
8
Parts
10
28.286503
20
98.108134
30
0.000000
42
0.337222
0
VERTEX
8
Parts
10
24.276079
20
91.391272
30
0.000000
0
VERTEX
8
Parts
10
24.276079
20
89.292407
30
0.000000
42
0.191546
0
VERTEX
8
Parts
10
25.590381
20
84.336886
30
0.000000
42
0.176502
0
VERTEX
8
Parts
10
29.527595
20
81.898362
30
0.000000
42
0.045973
0
VERTEX
8
Parts
10
45.943826
20
78.481188
30
0.000000
42
0.027245
0
VERTEX
8
Parts
10
78.858796
20
75.622281
30
0.000000
42
0.413554
0
VERTEX
8
Parts
10
84.741623
20
82.410377
30
0.000000
0
VERTEX
8
Parts
10
84.741623
20
97.102426
30
0.000000
42
0.157827
0
VERTEX
8
Parts
10
83.819250
20
101.655111
30
0.000000
42
0.293600
0
VERTEX
8
Parts
10
77.548932
20
104.669650
30
0.000000
42
0.016411
0
VERTEX
8
Parts
10
54.508851
20
103.273815
30
0.000000
0
SEQEND
8
0
0
POLYLINE
8
Parts
6
Continuous
70
0
66
 1
10
0.0
20
0.0
30
0.000000
0
VERTEX
8
Parts
10
156.290026
20
101.774192
30
0.000000
42
0.015753
0
VERTEX
8
Parts
10
111.245012
20
104.743064
30
0.000000
42
0.013518
0
VERTEX
8
Parts
10
106.136578
20
104.810330
30
0.000000
42
0.387804
0
VERTEX
8
Parts
10
100.526079
20
98.372711
30
0.000000
0
VERTEX
8
Parts
10
100.526079
20
83.890544
30
0.000000
42
0.057841
0
VERTEX
8
Parts
10
100.724061
20
80.499560
30
0.000000
42
0.382379
0
VERTEX
8
Parts
10
107.870729
20
75.770603
30
0.000000
42
0.023729
0
VERTEX
8
Parts
10
203.779779
20
83.602086
30
0.000000
42
0.011013
0
VERTEX
8
Parts
10
207.156760
20
84.049251
30
0.000000
42
0.853321
0
VERTEX
8
Parts
10
206.274597
20
96.524081
30
0.000000
42
0.007916
0
VERTEX
8
Parts
10
156.290026
20
101.774192
30
0.000000
0
SEQEND
8
0
0
POLYLINE
8
Parts
6
Continuous
70
0
66
 1
10
0.0
20
0.0
30
0.000000
0
VERTEX
8
Parts
10
252.633851
20
83.857768
30
0.000000
0
VERTEX
8
Parts
10
252.633851
20
64.138298
30
0.000000
0
VERTEX
8
Parts
10
261.071351
20
64.138298
30
0.000000
0
VERTEX
8
Parts
10
261.071351
20
85.148529
30
0.000000
0
SEQEND
8
0
0
POLYLINE
8
Parts
6
Continuous
70
0
66
 1
10
0.0
20
0.0
30
0.000000
0
VERTEX
8
Parts
10
22.008851
20
77.741294
30
0.000000
0
VERTEX
8
Parts
10
22.008851
20
64.138298
30
0.000000
0
VERTEX
8
Parts
10
30.446351
20
64.138298
30
0.000000
0
VERTEX
8
Parts
10
30.446351
20
75.095473
30
0.000000
0
SEQEND
8
0
0
POLYLINE
8
Parts
6
Continuous
70
0
66
 1
10
0.0
20
0.0
30
0.000000
0
VERTEX
8
Parts
10
268.477601
20
145.696950
30
0.000000
42
0.021371
0
VERTEX
8
Parts
10
141.250638
20
162.284949
30
0.000000
42
0.024738
0
VERTEX
8
Parts
10
77.816078
20
164.762972
30
0.000000
42
0.038753
0
VERTEX
8
Parts
10
38.046790
20
161.346960
30
0.000000
42
0.059834
0
VERTEX
8
Parts
10
17.870765
20
155.619465
30
0.000000
42
0.107991
0
VERTEX
8
Parts
10
9.812501
20
150.130181
30
0.000000
42
0.303449
0
VERTEX
8
Parts
10
8.436662
20
142.594470
30
0.000000
42
0.142934
0
VERTEX
8
Parts
10
13.472299
20
137.327065
30
0.000000
42
0.073286
0
VERTEX
8
Parts
10
26.888192
20
131.746567
30
0.000000
42
0.046414
0
VERTEX
8
Parts
10
56.612778
20
126.858030
30
0.000000
42
0.031109
0
VERTEX
8
Parts
10
109.264239
20
126.255212
30
0.000000
42
0.018984
0
VERTEX
8
Parts
10
189.847828
20
133.296406
30
0.000000
42
0.013200
0
VERTEX
8
Parts
10
268.477601
20
144.875981
30
0.000000
0
SEQEND
8
0
0
POLYLINE
8
Parts
6
Continuous
70
0
66
 1
10
0.0
20
0.0
30
0.000000
0
VERTEX
8
Parts
10
7.852601
20
145.286465
30
0.000000
0
VERTEX
8
Parts
10
268.477601
20
145.286465
30
0.000000
0
SEQEND
8
0
0
POLYLINE
8
Parts
6
Continuous
70
0
66
 1
10
0.0
20
0.0
30
0.000000
0
VERTEX
8
Parts
10
13.517702
20
145.286465
30
0.000000
0
VERTEX
8
Parts
10
9.258851
20
141.043825
30
0.000000
0
VERTEX
8
Parts
10
5.000000
20
145.286465
30
0.000000
0
VERTEX
8
Parts
10
9.258851
20
149.529106
30
0.000000
0
VERTEX
8
Parts
10
13.517702
20
145.286465
30
0.000000
0
SEQEND
8
0
0
POLYLINE
8
Parts
6
Continuous
70
0
66
 1
10
0.0
20
0.0
30
0.000000
0
VERTEX
8
Parts
10
258.477601
20
147.410123
30
0.000000
42
0.019784
0
VERTEX
8
Parts
10
140.564983
20
162.341010
30
0.000000
42
0.024939
0
VERTEX
8
Parts
10
77.210735
20
164.751043
30
0.000000
42
0.039085
0
VERTEX
8
Parts
10
37.611691
20
161.268168
30
0.000000
42
0.059390
0
VERTEX
8
Parts
10
17.870765
20
155.619465
30
0.000000
42
0.107991
0
VERTEX
8
Parts
10
9.812501
20
150.130181
30
0.000000
42
0.303449
0
VERTEX
8
Parts
10
8.436662
20
142.594470
30
0.000000
42
0.142934
0
VERTEX
8
Parts
10
13.472299
20
137.327065
30
0.000000
42
0.073286
0
VERTEX
8
Parts
10
26.888192
20
131.746567
30
0.000000
42
0.046414
0
VERTEX
8
Parts
10
56.612778
20
126.858030
30
0.000000
42
0.031109
0
VERTEX
8
Parts
10
109.264239
20
126.255212
30
0.000000
42
0.018984
0
VERTEX
8
Parts
10
189.847828
20
133.296406
30
0.000000
42
0.011134
0
VERTEX
8
Parts
10
258.477601
20
143.162808
30
0.000000
0
VERTEX
8
Parts
10
258.477601
20
147.410123
30
0.000000
0
SEQEND
8
0
0
POLYLINE
8
Parts
6
Continuous
70
0
66
 1
10
0.0
20
0.0
30
0.000000
0
VERTEX
8
Parts
10
82.035825
20
164.821511
30
0.000000
0
VERTEX
8
Parts
10
90.044377
20
164.821373
30
0.000000
0
VERTEX
8
Parts
10
90.044270
20
158.821373
30
0.000000
0
VERTEX
8
Parts
10
82.035718
20
158.821511
30
0.000000
0
VERTEX
8
Parts
10
82.035825
20
164.821511
30
0.000000
0
SEQEND
8
0
0
POLYLINE
8
Parts
6
Continuous
70
0
66
 1
10
0.0
20
0.0
30
0.000000
0
VERTEX
8
Parts
10
82.035825
20
125.751420
30
0.000000
0
VERTEX
8
Parts
10
90.044377
20
125.751558
30
0.000000
0
VERTEX
8
Parts
10
90.044270
20
131.751558
30
0.000000
0
VERTEX
8
Parts
10
82.035718
20
131.751420
30
0.000000
0
VERTEX
8
Parts
10
82.035825
20
125.751420
30
0.000000
0
SEQEND
8
0
0
POLYLINE
8
Parts
6
Continuous
70
0
66
 1
10
0.0
20
0.0
30
0.000000
0
VERTEX
8
Parts
10
210.186729
20
135.899283
30
0.000000
0
VERTEX
8
Parts
10
215.143473
20
136.573897
30
0.000000
0
VERTEX
8
Parts
10
214.469190
20
141.528223
30
0.000000
0
VERTEX
8
Parts
10
209.512446
20
140.853608
30
0.000000
0
VERTEX
8
Parts
10
210.186729
20
135.899283
30
0.000000
0
SEQEND
8
0
0
POLYLINE
8
Parts
6
Continuous
70
0
66
 1
10
0.0
20
0.0
30
0.000000
0
VERTEX
8
Parts
10
210.186729
20
154.673648
30
0.000000
0
VERTEX
8
Parts
10
215.143473
20
153.999033
30
0.000000
0
VERTEX
8
Parts
10
214.469190
20
149.044708
30
0.000000
0
VERTEX
8
Parts
10
209.512446
20
149.719322
30
0.000000
0
VERTEX
8
Parts
10
210.186729
20
154.673648
30
0.000000
0
SEQEND
8
0
0
POLYLINE
8
Parts
6
Continuous
70
0
66
 1
10
0.0
20
0.0
30
0.000000
0
VERTEX
8
Parts
10
203.381042
20
155.574320
30
0.000000
0
VERTEX
8
Parts
10
210.324160
20
154.655170
30
0.000000
0
VERTEX
8
Parts
10
210.061681
20
152.672469
30
0.000000
0
VERTEX
8
Parts
10
203.118563
20
153.591619
30
0.000000
0
VERTEX
8
Parts
10
203.381042
20
155.574320
30
0.000000
0
SEQEND
8
0
0
POLYLINE
8
Parts
6
Continuous
70
0
66
 1
10
0.0
20
0.0
30
0.000000
0
VERTEX
8
Parts
10
203.381042
20
134.998610
30
0.000000
0
VERTEX
8
Parts
10
210.324160
20
135.917760
30
0.000000
0
VERTEX
8
Parts
10
210.061681
20
137.900462
30
0.000000
0
VERTEX
8
Parts
10
203.118563
20
136.981312
30
0.000000
0
VERTEX
8
Parts
10
203.381042
20
134.998610
30
0.000000
0
SEQEND
8
0
0
POLYLINE
8
Parts
6
Continuous
70
0
66
 1
10
0.0
20
0.0
30
0.000000
0
VERTEX
8
Parts
10
221.563989
20
137.471200
30
0.000000
0
VERTEX
8
Parts
10
226.516214
20
138.181085
30
0.000000
0
VERTEX
8
Parts
10
225.806728
20
143.130492
30
0.000000
0
VERTEX
8
Parts
10
220.854503
20
142.420607
30
0.000000
0
VERTEX
8
Parts
10
221.563989
20
137.471200
30
0.000000
0
SEQEND
8
0
0
POLYLINE
8
Parts
6
Continuous
70
0
66
 1
10
0.0
20
0.0
30
0.000000
0
VERTEX
8
Parts
10
221.563989
20
153.101731
30
0.000000
0
VERTEX
8
Parts
10
226.516214
20
152.391845
30
0.000000
0
VERTEX
8
Parts
10
225.806728
20
147.442438
30
0.000000
0
VERTEX
8
Parts
10
220.854503
20
148.152324
30
0.000000
0
VERTEX
8
Parts
10
221.563989
20
153.101731
30
0.000000
0
SEQEND
8
0
0
POLYLINE
8
Parts
6
Continuous
70
0
66
 1
10
0.0
20
0.0
30
0.000000
0
VERTEX
8
Parts
10
51.133851
20
157.381399
30
0.000000
42
0.045857
0
VERTEX
8
Parts
10
27.228673
20
152.676168
30
0.000000
42
0.329238
0
VERTEX
8
Parts
10
23.718149
20
146.438879
30
0.000000
0
VERTEX
8
Parts
10
23.718149
20
144.046542
30
0.000000
42
0.396947
0
VERTEX
8
Parts
10
28.659877
20
137.422742
30
0.000000
42
0.058434
0
VERTEX
8
Parts
10
64.569208
20
132.232072
30
0.000000
42
0.008705
0
VERTEX
8
Parts
10
73.174612
20
131.932978
30
0.000000
42
0.424724
0
VERTEX
8
Parts
10
78.549553
20
138.624917
30
0.000000
0
VERTEX
8
Parts
10
78.549553
20
152.022000
30
0.000000
42
0.495113
0
VERTEX
8
Parts
10
71.666930
20
158.628582
30
0.000000
42
0.013559
0
VERTEX
8
Parts
10
51.133851
20
157.381399
30
0.000000
0
SEQEND
8
0
0
POLYLINE
8
Parts
6
Continuous
70
0
66
 1
10
0.0
20
0.0
30
0.000000
0
VERTEX
8
Parts
10
145.585146
20
155.944379
30
0.000000
42
0.015921
0
VERTEX
8
Parts
10
102.569293
20
158.769453
30
0.000000
42
0.023739
0
VERTEX
8
Parts
10
99.436541
20
158.775653
30
0.000000
42
0.384695
0
VERTEX
8
Parts
10
94.343149
20
152.777122
30
0.000000
0
VERTEX
8
Parts
10
94.343149
20
139.450349
30
0.000000
42
0.044135
0
VERTEX
8
Parts
10
94.491232
20
136.325772
30
0.000000
42
0.381423
0
VERTEX
8
Parts
10
100.938965
20
131.784814
30
0.000000
42
0.018121
0
VERTEX
8
Parts
10
144.744003
20
134.524921
30
0.000000
42
0.008782
0
VERTEX
8
Parts
10
192.292832
20
139.570219
30
0.000000
42
0.845081
0
VERTEX
8
Parts
10
191.582238
20
151.115932
30
0.000000
42
0.007881
0
VERTEX
8
Parts
10
145.585146
20
155.944379
30
0.000000
0
SEQEND
8
0
0
POLYLINE
8
Parts
6
Continuous
70
0
66
 1
10
0.0
20
0.0
30
0.000000
0
VERTEX
8
Parts
10
234.596351
20
139.374084
30
0.000000
0
VERTEX
8
Parts
10
234.596351
20
120.734043
30
0.000000
0
VERTEX
8
Parts
10
242.415101
20
120.734043
30
0.000000
0
VERTEX
8
Parts
10
242.415101
20
140.570190
30
0.000000
0
SEQEND
8
0
0
POLYLINE
8
Parts
6
Continuous
70
0
66
 1
10
0.0
20
0.0
30
0.000000
0
VERTEX
8
Parts
10
20.883851
20
133.706152
30
0.000000
0
VERTEX
8
Parts
10
20.883851
20
120.734043
30
0.000000
0
VERTEX
8
Parts
10
28.702601
20
120.734043
30
0.000000
0
VERTEX
8
Parts
10
28.702601
20
131.254358
30
0.000000
0
SEQEND
8
0
0
POLYLINE
8
Parts
6
Continuous
70
0
66
 1
10
0.0
20
0.0
30
0.000000
0
VERTEX
8
Parts
10
411.588638
20
191.776726
30
0.000000
42
0.021636
0
VERTEX
8
Parts
10
293.167379
20
207.154830
30
0.000000
42
0.025882
0
VERTEX
8
Parts
10
233.790717
20
209.284879
30
0.000000
42
0.040938
0
VERTEX
8
Parts
10
197.406848
20
205.816012
30
0.000000
42
0.064335
0
VERTEX
8
Parts
10
179.640732
20
200.357263
30
0.000000
42
0.120734
0
VERTEX
8
Parts
10
172.889823
20
195.208978
30
0.000000
42
0.366194
0
VERTEX
8
Parts
10
173.287104
20
187.066515
30
0.000000
42
0.110383
0
VERTEX
8
Parts
10
180.574983
20
181.992888
30
0.000000
42
0.061547
0
VERTEX
8
Parts
10
199.393359
20
176.609205
30
0.000000
42
0.039881
0
VERTEX
8
Parts
10
237.701440
20
173.435206
30
0.000000
42
0.024931
0
VERTEX
8
Parts
10
299.476204
20
176.173182
30
0.000000
42
0.020334
0
VERTEX
8
Parts
10
411.588638
20
191.020726
30
0.000000
0
SEQEND
8
0
0
POLYLINE
8
Parts
6
Continuous
70
0
66
 1
10
0.0
20
0.0
30
0.000000
0
VERTEX
8
Parts
10
171.588638
20
191.398726
30
0.000000
0
VERTEX
8
Parts
10
411.588638
20
191.398726
30
0.000000
0
SEQEND
8
0
0
POLYLINE
8
Parts
6
Continuous
70
0
66
 1
10
0.0
20
0.0
30
0.000000
0
VERTEX
8
Parts
10
177.347489
20
191.398726
30
0.000000
0
VERTEX
8
Parts
10
173.088638
20
187.156085
30
0.000000
0
VERTEX
8
Parts
10
168.829787
20
191.398726
30
0.000000
0
VERTEX
8
Parts
10
173.088638
20
195.641366
30
0.000000
0
VERTEX
8
Parts
10
177.347489
20
191.398726
30
0.000000
0
SEQEND
8
0
0
POLYLINE
8
Parts
6
Continuous
70
0
66
 1
10
0.0
20
0.0
30
0.000000
0
VERTEX
8
Parts
10
401.588638
20
193.486637
30
0.000000
42
0.019936
0
VERTEX
8
Parts
10
292.535916
20
207.205606
30
0.000000
42
0.026095
0
VERTEX
8
Parts
10
233.238276
20
209.270468
30
0.000000
42
0.041312
0
VERTEX
8
Parts
10
197.014478
20
205.738726
30
0.000000
42
0.063884
0
VERTEX
8
Parts
10
179.640732
20
200.357263
30
0.000000
42
0.120734
0
VERTEX
8
Parts
10
172.889823
20
195.208978
30
0.000000
42
0.366194
0
VERTEX
8
Parts
10
173.287104
20
187.066515
30
0.000000
42
0.110383
0
VERTEX
8
Parts
10
180.574983
20
181.992888
30
0.000000
42
0.061547
0
VERTEX
8
Parts
10
199.393359
20
176.609205
30
0.000000
42
0.039881
0
VERTEX
8
Parts
10
237.701440
20
173.435206
30
0.000000
42
0.024931
0
VERTEX
8
Parts
10
299.476204
20
176.173182
30
0.000000
42
0.018398
0
VERTEX
8
Parts
10
401.588638
20
189.310814
30
0.000000
0
VERTEX
8
Parts
10
401.588638
20
193.486637
30
0.000000
0
SEQEND
8
0
0
POLYLINE
8
Parts
6
Continuous
70
0
66
 1
10
0.0
20
0.0
30
0.000000
0
VERTEX
8
Parts
10
239.584362
20
209.384853
30
0.000000
0
VERTEX
8
Parts
10
247.592914
20
209.384945
30
0.000000
0
VERTEX
8
Parts
10
247.592983
20
203.384945
30
0.000000
0
VERTEX
8
Parts
10
239.584432
20
203.384853
30
0.000000
0
VERTEX
8
Parts
10
239.584362
20
209.384853
30
0.000000
0
SEQEND
8
0
0
POLYLINE
8
Parts
6
Continuous
70
0
66
 1
10
0.0
20
0.0
30
0.000000
0
VERTEX
8
Parts
10
239.584362
20
173.412598
30
0.000000
0
VERTEX
8
Parts
10
247.592914
20
173.412506
30
0.000000
0
VERTEX
8
Parts
10
247.592983
20
179.412506
30
0.000000
0
VERTEX
8
Parts
10
239.584432
20
179.412598
30
0.000000
0
VERTEX
8
Parts
10
239.584362
20
173.412598
30
0.000000
0
SEQEND
8
0
0
POLYLINE
8
Parts
6
Continuous
70
0
66
 1
10
0.0
20
0.0
30
0.000000
0
VERTEX
8
Parts
10
356.109898
20
182.513293
30
0.000000
0
VERTEX
8
Parts
10
361.067378
20
183.182479
30
0.000000
0
VERTEX
8
Parts
10
360.398521
20
188.137540
30
0.000000
0
VERTEX
8
Parts
10
355.441041
20
187.468354
30
0.000000
0
VERTEX
8
Parts
10
356.109898
20
182.513293
30
0.000000
0
SEQEND
8
0
0
POLYLINE
8
Parts
6
Continuous
70
0
66
 1
10
0.0
20
0.0
30
0.000000
0
VERTEX
8
Parts
10
356.109898
20
200.284158
30
0.000000
0
VERTEX
8
Parts
10
361.067378
20
199.614972
30
0.000000
0
VERTEX
8
Parts
10
360.398521
20
194.659911
30
0.000000
0
VERTEX
8
Parts
10
355.441041
20
195.329097
30
0.000000
0
VERTEX
8
Parts
10
356.109898
20
200.284158
30
0.000000
0
SEQEND
8
0
0
POLYLINE
8
Parts
6
Continuous
70
0
66
 1
10
0.0
20
0.0
30
0.000000
0
VERTEX
8
Parts
10
349.116372
20
201.199112
30
0.000000
0
VERTEX
8
Parts
10
356.060904
20
200.290690
30
0.000000
0
VERTEX
8
Parts
10
355.801492
20
198.307586
30
0.000000
0
VERTEX
8
Parts
10
348.856960
20
199.216007
30
0.000000
0
VERTEX
8
Parts
10
349.116372
20
201.199112
30
0.000000
0
SEQEND
8
0
0
POLYLINE
8
Parts
6
Continuous
70
0
66
 1
10
0.0
20
0.0
30
0.000000
0
VERTEX
8
Parts
10
349.116372
20
181.598339
30
0.000000
0
VERTEX
8
Parts
10
356.060904
20
182.506761
30
0.000000
0
VERTEX
8
Parts
10
355.801492
20
184.489866
30
0.000000
0
VERTEX
8
Parts
10
348.856960
20
183.581444
30
0.000000
0
VERTEX
8
Parts
10
349.116372
20
181.598339
30
0.000000
0
SEQEND
8
0
0
POLYLINE
8
Parts
6
Continuous
70
0
66
 1
10
0.0
20
0.0
30
0.000000
0
VERTEX
8
Parts
10
367.112274
20
184.021634
30
0.000000
0
VERTEX
8
Parts
10
372.065003
20
184.727998
30
0.000000
0
VERTEX
8
Parts
10
371.359043
20
189.677909
30
0.000000
0
VERTEX
8
Parts
10
366.406314
20
188.971546
30
0.000000
0
VERTEX
8
Parts
10
367.112274
20
184.021634
30
0.000000
0
SEQEND
8
0
0
POLYLINE
8
Parts
6
Continuous
70
0
66
 1
10
0.0
20
0.0
30
0.000000
0
VERTEX
8
Parts
10
367.112274
20
198.775817
30
0.000000
0
VERTEX
8
Parts
10
372.065003
20
198.069453
30
0.000000
0
VERTEX
8
Parts
10
371.359043
20
193.119542
30
0.000000
0
VERTEX
8
Parts
10
366.406314
20
193.825906
30
0.000000
0
VERTEX
8
Parts
10
367.112274
20
198.775817
30
0.000000
0
SEQEND
8
0
0
POLYLINE
8
Parts
6
Continuous
70
0
66
 1
10
0.0
20
0.0
30
0.000000
0
VERTEX
8
Parts
10
211.588638
20
202.535704
30
0.000000
42
0.047538
0
VERTEX
8
Parts
10
190.354420
20
198.472279
30
0.000000
42
0.328047
0
VERTEX
8
Parts
10
186.990006
20
192.936236
30
0.000000
0
VERTEX
8
Parts
10
186.990006
20
192.503154
30
0.000000
42
0.010505
0
VERTEX
8
Parts
10
187.035466
20
188.607382
30
0.000000
42
0.328314
0
VERTEX
8
Parts
10
191.535636
20
183.948612
30
0.000000
42
0.058791
0
VERTEX
8
Parts
10
227.086332
20
179.211681
30
0.000000
42
0.015216
0
VERTEX
8
Parts
10
231.413798
20
179.129836
30
0.000000
42
0.415873
0
VERTEX
8
Parts
10
236.187270
20
185.301099
30
0.000000
0
VERTEX
8
Parts
10
236.187270
20
197.860485
30
0.000000
42
0.487191
0
VERTEX
8
Parts
10
229.741849
20
203.656974
30
0.000000
42
0.011147
0
VERTEX
8
Parts
10
211.588638
20
202.535704
30
0.000000
0
SEQEND
8
0
0
POLYLINE
8
Parts
6
Continuous
70
0
66
 1
10
0.0
20
0.0
30
0.000000
0
VERTEX
8
Parts
10
298.815849
20
201.166166
30
0.000000
42
0.016372
0
VERTEX
8
Parts
10
257.332331
20
203.866115
30
0.000000
42
0.420255
0
VERTEX
8
Parts
10
251.990006
20
198.287879
30
0.000000
0
VERTEX
8
Parts
10
251.990006
20
186.100870
30
0.000000
42
0.039913
0
VERTEX
8
Parts
10
252.116607
20
183.242508
30
0.000000
42
0.379715
0
VERTEX
8
Parts
10
257.964260
20
179.015505
30
0.000000
42
0.019444
0
VERTEX
8
Parts
10
302.307958
20
181.876645
30
0.000000
42
0.008030
0
VERTEX
8
Parts
10
341.502555
20
186.136279
30
0.000000
42
0.836820
0
VERTEX
8
Parts
10
340.879172
20
196.751556
30
0.000000
42
0.007856
0
VERTEX
8
Parts
10
298.815849
20
201.166166
30
0.000000
0
SEQEND
8
0
0
POLYLINE
8
Parts
6
Continuous
70
0
66
 1
10
0.0
20
0.0
30
0.000000
0
VERTEX
8
Parts
10
380.388638
20
185.954231
30
0.000000
0
VERTEX
8
Parts
10
380.388638
20
168.393617
30
0.000000
0
VERTEX
8
Parts
10
387.588638
20
168.393617
30
0.000000
0
VERTEX
8
Parts
10
387.588638
20
187.055681
30
0.000000
0
SEQEND
8
0
0
POLYLINE
8
Parts
6
Continuous
70
0
66
 1
10
0.0
20
0.0
30
0.000000
0
VERTEX
8
Parts
10
183.588638
20
180.734840
30
0.000000
0
VERTEX
8
Parts
10
183.588638
20
168.393617
30
0.000000
0
VERTEX
8
Parts
10
190.788638
20
168.393617
30
0.000000
0
VERTEX
8
Parts
10
190.788638
20
178.477073
30
0.000000
0
SEQEND
8
0
0
ENDSEC
0
EOF
