999
DXF-Datei erzeugt mit DXFOUT 12.1 (Rev.0) (c) 1994 RIB GmbH Stuttgart
  0
SECTION
  2
HEADER
  9
$ACADVER
  1
AC1009
  9
$FILLMODE
 70
     0
  9
$QTEXTMODE
 70
     0
  9
$PDMODE
 70
     0
  9
$PDSIZE
 40
0.000000
  9
$LTSCALE
 40
1.000000
  0
ENDSEC
  0
SECTION
  2
TABLES
  0
TABLE
  2
LTYPE
 70
 32767
  0
LTYPE
  2
CONTINUOUS
 70
    64
  3
CONTINUOUS
 72
    65
 73
     0
 40
0.000000
  0
LTYPE
  2
RIFLTYPE1
 70
    64
  3
RIFLTYPE1
 72
    65
 73
     0
 40
0.000000
  0
LTYPE
  2
RIFLTYPE2
 70
    64
  3
RIFLTYPE2
 72
    65
 73
     2
 40
3.000000
 49
1.000000
 49
-2.000000
  0
LTYPE
  2
RIFLTYPE3
 70
    64
  3
RIFLTYPE3
 72
    65
 73
     2
 40
2.000000
 49
1.000000
 49
-1.000000
  0
LTYPE
  2
RIFLTYPE4
 70
    64
  3
RIFLTYPE4
 72
    65
 73
     2
 40
4.000000
 49
1.000000
 49
-3.000000
  0
LTYPE
  2
RIFLTYPE5
 70
    64
  3
RIFLTYPE5
 72
    65
 73
     2
 40
2.000000
 49
1.000000
 49
1.000000
  0
ENDTAB
  0
TABLE
  2
LAYER
 70
 32767
  0
LAYER
  2
WINGLOAD
 70
    64
 62
     7
  6
CONTINUOUS
  0
LAYER
  2
WINGFORM
 70
    64
 62
     7
  6
CONTINUOUS
  0
LAYER
  2
WING
 70
    64
 62
     7
  6
CONTINUOUS
  0
LAYER
  2
VERTICAL
 70
    64
 62
     7
  6
CONTINUOUS
  0
LAYER
  2
TEXT
 70
    64
 62
     7
  6
CONTINUOUS
  0
LAYER
  2
HORIZONTAL
 70
    64
 62
     7
  6
CONTINUOUS
  0
LAYER
  2
FORMER
 70
    64
 62
     7
  6
CONTINUOUS
  0
LAYER
  2
CUTS
 70
    64
 62
     7
  6
CONTINUOUS
  0
LAYER
  2
COCKPIT
 70
    64
 62
     7
  6
CONTINUOUS
  0
LAYER
  2
0
 70
    64
 62
     7
  6
CONTINUOUS
  0
LAYER
  2
HIDDENLAYER
 70
    64
 62
    -7
  6
CONTINUOUS
  0
ENDTAB
  0
TABLE
  2
STYLE
 70
 32767
  0
STYLE
  2
TEXTSTYLE1
 70
    64
 40
3.500000
 41
0.785714
 50
0.000000
 71
     0
 42
3.500000
  3
TXT
  4

  0
STYLE
  2
TEXTSTYLE2
 70
    64
 40
350.000000
 41
0.785714
 50
0.000000
 71
     0
 42
350.000000
  3
TXT
  4

  0
STYLE
  2
TEXTSTYLE3
 70
    64
 40
6.000000
 41
1.100000
 50
0.000000
 71
     0
 42
6.000000
  3
TXT
  4

  0
STYLE
  2
TEXTSTYLE4
 70
    64
 40
5.000000
 41
1.100000
 50
0.000000
 71
     0
 42
5.000000
  3
TXT
  4

  0
STYLE
  2
TEXTSTYLE5
 70
    64
 40
8.000000
 41
1.100000
 50
0.000000
 71
     0
 42
8.000000
  3
TXT
  4

  0
ENDTAB
  0
ENDSEC
  0
SECTION
  2
BLOCKS
  0
ENDSEC
  0
SECTION
  2
ENTITIES
  0
LINE
  8
COCKPIT
  6
CONTINUOUS
 62
     1
 10
2825.859507
 20
7148.144516
 30
0.000000
 11
2828.069087
 21
7143.357094
 31
0.000000
  0
LINE
  8
COCKPIT
  6
CONTINUOUS
 62
     1
 10
2828.069087
 20
7143.357094
 30
0.000000
 11
2841.326565
 21
7139.306198
 31
0.000000
  0
LINE
  8
COCKPIT
  6
CONTINUOUS
 62
     1
 10
2841.326565
 20
7139.306198
 30
0.000000
 11
2852.006200
 21
7135.623565
 31
0.000000
  0
LINE
  8
COCKPIT
  6
CONTINUOUS
 62
     1
 10
2852.006200
 20
7135.623565
 30
0.000000
 11
2863.054098
 21
7130.467879
 31
0.000000
  0
LINE
  8
COCKPIT
  6
CONTINUOUS
 62
     1
 10
2863.054098
 20
7130.467879
 30
0.000000
 11
2869.682837
 21
7126.785247
 31
0.000000
  0
LINE
  8
COCKPIT
  6
CONTINUOUS
 62
     1
 10
2869.682837
 20
7126.785247
 30
0.000000
 11
2874.838522
 21
7126.048720
 31
0.000000
  0
LINE
  8
COCKPIT
  6
CONTINUOUS
 62
     1
 10
2874.838522
 20
7126.048720
 30
0.000000
 11
2885.149894
 21
7125.680457
 31
0.000000
  0
LINE
  8
COCKPIT
  6
CONTINUOUS
 62
     1
 10
2885.149894
 20
7125.680457
 30
0.000000
 11
2884.781631
 21
7132.309196
 31
0.000000
  0
LINE
  8
COCKPIT
  6
CONTINUOUS
 62
     1
 10
2884.781631
 20
7132.309196
 30
0.000000
 11
2872.997206
 21
7136.728355
 31
0.000000
  0
LINE
  8
COCKPIT
  6
CONTINUOUS
 62
     1
 10
2872.997206
 20
7136.728355
 30
0.000000
 11
2856.057096
 21
7140.779251
 31
0.000000
  0
LINE
  8
COCKPIT
  6
CONTINUOUS
 62
     1
 10
2856.057096
 20
7140.779251
 30
0.000000
 11
2841.326565
 21
7144.093620
 31
0.000000
  0
LINE
  8
COCKPIT
  6
CONTINUOUS
 62
     1
 10
2841.326565
 20
7144.093620
 30
0.000000
 11
2839.485248
 21
7145.934937
 31
0.000000
  0
LINE
  8
COCKPIT
  6
CONTINUOUS
 62
     1
 10
2839.485248
 20
7145.934937
 30
0.000000
 11
2838.380458
 21
7148.512780
 31
0.000000
  0
LINE
  8
COCKPIT
  6
CONTINUOUS
 62
     1
 10
2838.380458
 20
7148.512780
 30
0.000000
 11
2840.958301
 21
7151.090623
 31
0.000000
  0
LINE
  8
COCKPIT
  6
CONTINUOUS
 62
     1
 10
2838.380458
 20
7148.512780
 30
0.000000
 11
2852.006200
 21
7158.824151
 31
0.000000
  0
LINE
  8
COCKPIT
  6
CONTINUOUS
 62
     1
 10
2852.006200
 20
7158.824151
 30
0.000000
 11
2858.634938
 21
7162.875047
 31
0.000000
  0
LINE
  8
COCKPIT
  6
CONTINUOUS
 62
     1
 10
2858.634938
 20
7162.875047
 30
0.000000
 11
2864.895414
 21
7164.716364
 31
0.000000
  0
LINE
  8
COCKPIT
  6
CONTINUOUS
 62
     1
 10
2864.895414
 20
7164.716364
 30
0.000000
 11
2869.314573
 21
7163.611574
 31
0.000000
  0
LINE
  8
COCKPIT
  6
CONTINUOUS
 62
     1
 10
2869.314573
 20
7163.611574
 30
0.000000
 11
2871.892416
 21
7158.455888
 31
0.000000
  0
LINE
  8
COCKPIT
  6
CONTINUOUS
 62
     1
 10
2871.892416
 20
7158.455888
 30
0.000000
 11
2878.152892
 21
7144.830147
 31
0.000000
  0
LINE
  8
COCKPIT
  6
CONTINUOUS
 62
     1
 10
2878.152892
 20
7144.830147
 30
0.000000
 11
2880.730735
 21
7138.201408
 31
0.000000
  0
LINE
  8
COCKPIT
  6
CONTINUOUS
 62
     1
 10
2880.730735
 20
7138.201408
 30
0.000000
 11
2879.625945
 21
7135.623565
 31
0.000000
  0
LINE
  8
COCKPIT
  6
CONTINUOUS
 62
     1
 10
2865.711741
 20
7171.914568
 30
0.000000
 11
2867.889214
 21
7170.967617
 31
0.000000
  0
LINE
  8
COCKPIT
  6
CONTINUOUS
 62
     1
 10
2867.889214
 20
7170.967617
 30
0.000000
 11
2869.236300
 21
7169.812972
 31
0.000000
  0
LINE
  8
COCKPIT
  6
CONTINUOUS
 62
     1
 10
2869.236300
 20
7169.812972
 30
0.000000
 11
2870.390945
 21
7168.658327
 31
0.000000
  0
LINE
  8
COCKPIT
  6
CONTINUOUS
 62
     1
 10
2870.390945
 20
7168.658327
 30
0.000000
 11
2882.803380
 21
7138.156453
 31
0.000000
  0
LINE
  8
COCKPIT
  6
CONTINUOUS
 62
     1
 10
2882.803380
 20
7138.156453
 30
0.000000
 11
2882.803380
 21
7133.990108
 31
0.000000
  0
LINE
  8
COCKPIT
  6
CONTINUOUS
 62
     1
 10
2875.268620
 20
7172.231021
 30
0.000000
 11
2886.555977
 21
7142.553726
 31
0.000000
  0
LINE
  8
COCKPIT
  6
CONTINUOUS
 62
     1
 10
2886.555977
 20
7142.553726
 30
0.000000
 11
2889.153928
 21
7140.629317
 31
0.000000
  0
LINE
  8
COCKPIT
  6
CONTINUOUS
 62
     1
 10
2889.153928
 20
7140.629317
 30
0.000000
 11
2891.655659
 21
7138.897350
 31
0.000000
  0
LINE
  8
COCKPIT
  6
CONTINUOUS
 62
     1
 10
2891.655659
 20
7138.897350
 30
0.000000
 11
2899.257073
 21
7139.089791
 31
0.000000
  0
LINE
  8
COCKPIT
  6
CONTINUOUS
 62
     1
 10
2899.257073
 20
7139.089791
 30
0.000000
 11
2905.126518
 21
7139.186011
 31
0.000000
  0
LINE
  8
COCKPIT
  6
CONTINUOUS
 62
     1
 10
2905.126518
 20
7139.186011
 30
0.000000
 11
2927.911515
 21
7139.186011
 31
0.000000
  0
LINE
  8
COCKPIT
  6
CONTINUOUS
 62
     1
 10
2927.911515
 20
7139.186011
 30
0.000000
 11
2932.530095
 21
7140.244436
 31
0.000000
  0
LINE
  8
COCKPIT
  6
CONTINUOUS
 62
     1
 10
2932.530095
 20
7140.244436
 30
0.000000
 11
2933.492299
 21
7142.938608
 31
0.000000
  0
LINE
  8
COCKPIT
  6
CONTINUOUS
 62
     1
 10
2933.492299
 20
7142.938608
 30
0.000000
 11
2932.914977
 21
7164.876864
 31
0.000000
  0
LINE
  8
COCKPIT
  6
CONTINUOUS
 62
     1
 10
2932.914977
 20
7164.876864
 30
0.000000
 11
2932.626316
 21
7169.014343
 31
0.000000
  0
LINE
  8
COCKPIT
  6
CONTINUOUS
 62
     1
 10
2932.626316
 20
7169.014343
 30
0.000000
 11
2930.894348
 21
7170.842531
 31
0.000000
  0
LINE
  8
COCKPIT
  6
CONTINUOUS
 62
     1
 10
2930.894348
 20
7170.842531
 30
0.000000
 11
2925.024902
 21
7172.093396
 31
0.000000
  0
LINE
  8
COCKPIT
  6
CONTINUOUS
 62
     1
 10
2925.024902
 20
7172.093396
 30
0.000000
 11
2916.846166
 21
7173.055600
 31
0.000000
  0
LINE
  8
COCKPIT
  6
CONTINUOUS
 62
     1
 10
2916.846166
 20
7173.055600
 30
0.000000
 11
2909.340973
 21
7173.632923
 31
0.000000
  0
LINE
  8
COCKPIT
  6
CONTINUOUS
 62
     1
 10
2909.340973
 20
7173.632923
 30
0.000000
 11
2901.066017
 21
7173.632923
 31
0.000000
  0
LINE
  8
COCKPIT
  6
CONTINUOUS
 62
     1
 10
2901.066017
 20
7173.632923
 30
0.000000
 11
2894.234367
 21
7173.344262
 31
0.000000
  0
LINE
  8
COCKPIT
  6
CONTINUOUS
 62
     1
 10
2894.234367
 20
7173.344262
 30
0.000000
 11
2886.729173
 21
7172.574498
 31
0.000000
  0
LINE
  8
COCKPIT
  6
CONTINUOUS
 62
     1
 10
2886.729173
 20
7172.574498
 30
0.000000
 11
2881.725711
 21
7171.708514
 31
0.000000
  0
LINE
  8
COCKPIT
  6
CONTINUOUS
 62
     1
 10
2881.725711
 20
7171.708514
 30
0.000000
 11
2876.241147
 21
7170.072767
 31
0.000000
  0
LINE
  8
COCKPIT
  6
CONTINUOUS
 62
     1
 10
2942.017429
 20
7168.918122
 30
0.000000
 11
2951.158369
 21
7168.918122
 31
0.000000
  0
LINE
  8
COCKPIT
  6
CONTINUOUS
 62
     1
 10
2951.158369
 20
7168.918122
 30
0.000000
 11
2961.069073
 21
7168.918122
 31
0.000000
  0
LINE
  8
COCKPIT
  6
CONTINUOUS
 62
     1
 10
2961.069073
 20
7168.918122
 30
0.000000
 11
2969.440250
 21
7168.918122
 31
0.000000
  0
LINE
  8
COCKPIT
  6
CONTINUOUS
 62
     1
 10
2969.440250
 20
7168.918122
 30
0.000000
 11
2978.100088
 21
7169.110563
 31
0.000000
  0
LINE
  8
COCKPIT
  6
CONTINUOUS
 62
     1
 10
2978.100088
 20
7169.110563
 30
0.000000
 11
2980.601819
 21
7168.918122
 31
0.000000
  0
LINE
  8
COCKPIT
  6
CONTINUOUS
 62
     1
 10
2980.601819
 20
7168.918122
 30
0.000000
 11
2981.275362
 21
7167.859697
 31
0.000000
  0
LINE
  8
COCKPIT
  6
CONTINUOUS
 62
     1
 10
2981.275362
 20
7167.859697
 30
0.000000
 11
2981.564023
 21
7148.134511
 31
0.000000
  0
LINE
  8
COCKPIT
  6
CONTINUOUS
 62
     1
 10
2981.564023
 20
7148.134511
 30
0.000000
 11
2980.986701
 21
7147.460968
 31
0.000000
  0
LINE
  8
COCKPIT
  6
CONTINUOUS
 62
     1
 10
2980.986701
 20
7147.460968
 30
0.000000
 11
2981.467803
 21
7145.921441
 31
0.000000
  0
LINE
  8
COCKPIT
  6
CONTINUOUS
 62
     1
 10
2981.467803
 20
7145.921441
 30
0.000000
 11
2942.594752
 21
7145.344118
 31
0.000000
  0
LINE
  8
COCKPIT
  6
CONTINUOUS
 62
     1
 10
2942.594752
 20
7145.344118
 30
0.000000
 11
2941.728768
 21
7146.787425
 31
0.000000
  0
LINE
  8
COCKPIT
  6
CONTINUOUS
 62
     1
 10
2941.728768
 20
7146.787425
 30
0.000000
 11
2941.440107
 21
7167.763477
 31
0.000000
  0
LINE
  8
COCKPIT
  6
CONTINUOUS
 62
     1
 10
2941.440107
 20
7167.763477
 30
0.000000
 11
2942.017429
 21
7168.918122
 31
0.000000
  0
LINE
  8
COCKPIT
  6
CONTINUOUS
 62
     1
 10
2987.207980
 20
7169.985863
 30
0.000000
 11
2986.927951
 21
7141.982974
 31
0.000000
  0
LINE
  8
COCKPIT
  6
CONTINUOUS
 62
     1
 10
2986.927951
 20
7141.982974
 30
0.000000
 11
2942.123329
 21
7140.582829
 31
0.000000
  0
LINE
  8
COCKPIT
  6
CONTINUOUS
 62
     1
 10
2942.123329
 20
7140.582829
 30
0.000000
 11
2942.403358
 21
7136.382396
 31
0.000000
  0
LINE
  8
COCKPIT
  6
CONTINUOUS
 62
     1
 10
2936.242722
 20
7139.742742
 30
0.000000
 11
2932.322318
 21
7135.262280
 31
0.000000
  0
LINE
  8
COCKPIT
  6
CONTINUOUS
 62
     1
 10
2932.322318
 20
7135.262280
 30
0.000000
 11
2933.162404
 21
7132.181962
 31
0.000000
  0
LINE
  8
COCKPIT
  6
CONTINUOUS
 62
     1
 10
2928.961971
 20
7131.061847
 30
0.000000
 11
2928.681942
 21
7134.422193
 31
0.000000
  0
LINE
  8
COCKPIT
  6
CONTINUOUS
 62
     1
 10
2928.681942
 20
7134.422193
 30
0.000000
 11
2889.757926
 21
7133.582107
 31
0.000000
  0
LINE
  8
COCKPIT
  6
CONTINUOUS
 62
     1
 10
2889.757926
 20
7133.582107
 30
0.000000
 11
2889.757926
 21
7131.621905
 31
0.000000
  0
LINE
  8
CUTS
  6
CONTINUOUS
 62
     1
 10
3082.548117
 20
7099.849058
 30
0.000000
 11
3312.224757
 21
7125.368987
 31
0.000000
  0
LINE
  8
CUTS
  6
CONTINUOUS
 62
     1
 10
3082.548117
 20
7093.849058
 30
0.000000
 11
3312.224757
 21
7119.368987
 31
0.000000
  0
LINE
  8
CUTS
  6
CONTINUOUS
 62
     1
 10
3082.548117
 20
7099.849058
 30
0.000000
 11
2499.419569
 21
7099.849058
 31
0.000000
  0
LINE
  8
CUTS
  6
CONTINUOUS
 62
     1
 10
3082.548117
 20
7093.849058
 30
0.000000
 11
2499.419569
 21
7093.849058
 31
0.000000
  0
LINE
  8
CUTS
  6
CONTINUOUS
 62
     1
 10
2499.419569
 20
7099.849058
 30
0.000000
 11
2431.944918
 21
7099.849058
 31
0.000000
  0
LINE
  8
CUTS
  6
CONTINUOUS
 62
     1
 10
2499.419569
 20
7093.849058
 30
0.000000
 11
2430.865542
 21
7093.849058
 31
0.000000
  0
LINE
  8
CUTS
  6
CONTINUOUS
 62
     1
 10
3396.894131
 20
7125.368987
 30
0.000000
 11
3396.894131
 21
7119.368987
 31
0.000000
  0
LINE
  8
CUTS
  6
CONTINUOUS
 62
     1
 10
3312.224757
 20
7125.368987
 30
0.000000
 11
3396.894131
 21
7125.368987
 31
0.000000
  0
LINE
  8
CUTS
  6
CONTINUOUS
 62
     1
 10
3396.894131
 20
7119.368987
 30
0.000000
 11
3312.224757
 21
7119.368987
 31
0.000000
  0
LINE
  8
FORMER
  6
CONTINUOUS
 62
     1
 10
2499.419569
 20
6945.045332
 30
0.000000
 11
2499.419569
 21
7135.034025
 31
0.000000
  0
LINE
  8
FORMER
  6
CONTINUOUS
 62
     1
 10
2547.636284
 20
6953.099219
 30
0.000000
 11
2547.636284
 21
7148.941300
 31
0.000000
  0
LINE
  8
FORMER
  6
CONTINUOUS
 62
     1
 10
2831.012780
 20
6964.652908
 30
0.000000
 11
2831.012780
 21
7164.287258
 31
0.000000
  0
LINE
  8
FORMER
  6
CONTINUOUS
 62
     1
 10
2900.619423
 20
6993.228288
 30
0.000000
 11
2900.619423
 21
7189.368309
 31
0.000000
  0
LINE
  8
FORMER
  6
CONTINUOUS
 62
     1
 10
3082.548117
 20
6982.131375
 30
0.000000
 11
3082.548117
 21
7173.063228
 31
0.000000
  0
LINE
  8
FORMER
  6
CONTINUOUS
 62
     1
 10
3207.534351
 20
6974.242869
 30
0.000000
 11
3207.534351
 21
7171.624545
 31
0.000000
  0
LINE
  8
FORMER
  6
CONTINUOUS
 62
     1
 10
3303.265505
 20
6967.556335
 30
0.000000
 11
3303.265505
 21
7164.574995
 31
0.000000
  0
LINE
  8
FORMER
  6
CONTINUOUS
 62
     1
 10
2940.168653
 20
6799.573956
 30
0.000000
 11
2940.168653
 21
7198.582880
 31
0.000000
  0
LINE
  8
FORMER
  6
CONTINUOUS
 62
     1
 10
2729.480014
 20
6803.774753
 30
0.000000
 11
2729.480014
 21
7156.909346
 31
0.000000
  0
LINE
  8
FORMER
  6
CONTINUOUS
 62
     1
 10
2978.849723
 20
6973.866362
 30
0.000000
 11
2940.168653
 21
6973.866362
 31
0.000000
  0
LINE
  8
FORMER
  6
CONTINUOUS
 62
     1
 10
2738.425489
 20
6953.563871
 30
0.000000
 11
2729.480014
 21
6953.563871
 31
0.000000
  0
LINE
  8
FORMER
  6
CONTINUOUS
 62
     1
 10
2729.480014
 20
6953.563871
 30
0.000000
 11
2734.294211
 21
6954.814149
 31
0.000000
  0
LINE
  8
FORMER
  6
CONTINUOUS
 62
     1
 10
2734.294211
 20
6954.814149
 30
0.000000
 11
2732.671165
 21
6953.732119
 31
0.000000
  0
LINE
  8
FORMER
  6
CONTINUOUS
 62
     1
 10
2729.480014
 20
6953.563871
 30
0.000000
 11
2734.294211
 21
6952.313593
 31
0.000000
  0
LINE
  8
FORMER
  6
CONTINUOUS
 62
     1
 10
2734.294211
 20
6952.313593
 30
0.000000
 11
2732.671165
 21
6953.395624
 31
0.000000
  0
LINE
  8
FORMER
  6
CONTINUOUS
 62
     1
 10
2940.168653
 20
6973.866362
 30
0.000000
 11
2944.982849
 21
6975.116640
 31
0.000000
  0
LINE
  8
FORMER
  6
CONTINUOUS
 62
     1
 10
2944.982849
 20
6975.116640
 30
0.000000
 11
2943.359803
 21
6974.034610
 31
0.000000
  0
LINE
  8
FORMER
  6
CONTINUOUS
 62
     1
 10
2940.168653
 20
6973.866362
 30
0.000000
 11
2944.982849
 21
6972.616084
 31
0.000000
  0
LINE
  8
FORMER
  6
CONTINUOUS
 62
     1
 10
2944.982849
 20
6972.616084
 30
0.000000
 11
2943.359803
 21
6973.698115
 31
0.000000
  0
LINE
  8
FORMER
  6
CONTINUOUS
 62
     1
 10
2653.571378
 20
7154.648813
 30
0.000000
 11
2653.571378
 21
6962.500933
 31
0.000000
  0
LINE
  8
FORMER
  6
CONTINUOUS
 62
     1
 10
2537.318760
 20
6916.012115
 30
0.000000
 11
2499.726856
 21
6916.012115
 31
0.000000
  0
LINE
  8
FORMER
  6
CONTINUOUS
 62
     1
 10
2536.065715
 20
6910.008893
 30
0.000000
 11
2499.726856
 21
6910.008893
 31
0.000000
  0
LINE
  8
FORMER
  6
CONTINUOUS
 62
     1
 10
2604.832577
 20
6917.099219
 30
0.000000
 11
2547.636284
 21
6917.099219
 31
0.000000
  0
LINE
  8
FORMER
  6
CONTINUOUS
 62
     1
 10
2603.579531
 20
6911.095997
 30
0.000000
 11
2547.636284
 21
6911.095997
 31
0.000000
  0
LINE
  8
FORMER
  6
CONTINUOUS
 62
     1
 10
2653.606013
 20
6925.363937
 30
0.000000
 11
2704.103315
 21
6925.363937
 31
0.000000
  0
LINE
  8
FORMER
  6
CONTINUOUS
 62
     1
 10
2653.682144
 20
6919.364065
 30
0.000000
 11
2701.910454
 21
6919.364065
 31
0.000000
  0
LINE
  8
FORMER
  6
CONTINUOUS
 62
     1
 10
2800.918832
 20
6919.394703
 30
0.000000
 11
2743.267122
 21
6919.394703
 31
0.000000
  0
LINE
  8
FORMER
  6
CONTINUOUS
 62
     1
 10
2800.094971
 20
6913.391481
 30
0.000000
 11
2743.267122
 21
6913.391481
 31
0.000000
  0
LINE
  8
FORMER
  6
CONTINUOUS
 62
     1
 10
2879.968739
 20
6916.652908
 30
0.000000
 11
2831.012780
 21
6916.652908
 31
0.000000
  0
LINE
  8
FORMER
  6
CONTINUOUS
 62
     1
 10
2880.827588
 20
6910.649685
 30
0.000000
 11
2831.012780
 21
6910.649685
 31
0.000000
  0
LINE
  8
FORMER
  6
CONTINUOUS
 62
     1
 10
2955.445416
 20
6919.228288
 30
0.000000
 11
2900.619423
 21
6919.228288
 31
0.000000
  0
LINE
  8
FORMER
  6
CONTINUOUS
 62
     1
 10
2954.602250
 20
6913.225066
 30
0.000000
 11
2900.619423
 21
6913.225066
 31
0.000000
  0
LINE
  8
FORMER
  6
CONTINUOUS
 62
     1
 10
3030.835026
 20
6924.031749
 30
0.000000
 11
2984.192484
 21
6924.031749
 31
0.000000
  0
LINE
  8
FORMER
  6
CONTINUOUS
 62
     1
 10
3032.015459
 20
6918.028527
 30
0.000000
 11
2984.192484
 21
6918.028527
 31
0.000000
  0
LINE
  8
FORMER
  6
CONTINUOUS
 62
     1
 10
3127.761294
 20
6916.131375
 30
0.000000
 11
3082.548117
 21
6916.131375
 31
0.000000
  0
LINE
  8
FORMER
  6
CONTINUOUS
 62
     1
 10
3128.424069
 20
6910.128153
 30
0.000000
 11
3082.548117
 21
6910.128153
 31
0.000000
  0
LINE
  8
FORMER
  6
CONTINUOUS
 62
     1
 10
3240.005530
 20
6930.232174
 30
0.000000
 11
3208.018800
 21
6930.232174
 31
0.000000
  0
LINE
  8
FORMER
  6
CONTINUOUS
 62
     1
 10
3238.496914
 20
6924.228952
 30
0.000000
 11
3208.018800
 21
6924.228952
 31
0.000000
  0
LINE
  8
FORMER
  6
CONTINUOUS
 62
     1
 10
3325.238393
 20
6934.347253
 30
0.000000
 11
3297.526140
 21
6940.150866
 31
0.000000
  0
LINE
  8
FORMER
  6
CONTINUOUS
 62
     1
 10
3323.610546
 20
6928.378337
 30
0.000000
 11
3296.260231
 21
6934.106151
 31
0.000000
  0
LINE
  8
FORMER
  6
RIFLTYPE3
 62
     1
 10
3184.528208
 20
7029.013308
 30
0.000000
 11
3524.597727
 21
7029.013308
 31
0.000000
  0
LINE
  8
FORMER
  6
RIFLTYPE3
 62
     1
 10
3396.894131
 20
7122.368987
 30
0.000000
 11
3510.226337
 21
7122.368987
 31
0.000000
  0
LINE
  8
FORMER
  6
RIFLTYPE2
 62
     1
 10
2900.619423
 20
6846.940927
 30
0.000000
 11
2953.900846
 21
6848.548100
 31
0.000000
  0
LINE
  8
FORMER
  6
RIFLTYPE2
 62
     1
 10
2984.192484
 20
6848.744388
 30
0.000000
 11
3040.631833
 21
6850.475455
 31
0.000000
  0
LINE
  8
FORMER
  6
RIFLTYPE2
 62
     1
 10
2743.267122
 20
6855.107342
 30
0.000000
 11
2797.930794
 21
6856.777601
 31
0.000000
  0
LINE
  8
FORMER
  6
RIFLTYPE2
 62
     1
 10
2831.012780
 20
6851.365547
 30
0.000000
 11
2891.447960
 21
6852.039942
 31
0.000000
  0
LINE
  8
FORMER
  6
RIFLTYPE3
 62
     1
 10
2495.466171
 20
7095.067742
 30
0.000000
 11
2406.792388
 21
7095.067742
 31
0.000000
  0
TEXT
  8
FORMER
  6
CONTINUOUS
 62
     1
 10
2748.035850
 20
6844.971733
 30
0.000000
 40
6.000000
  1
~ cut line
 41
1.100000
  7
TEXTSTYLE3
  0
TEXT
  8
FORMER
  6
CONTINUOUS
 62
     1
 10
2835.031953
 20
6839.248305
 30
0.000000
 40
6.000000
  1
~ cut line
 41
1.100000
  7
TEXTSTYLE3
  0
TEXT
  8
FORMER
  6
CONTINUOUS
 62
     1
 10
2906.002458
 20
6836.958934
 30
0.000000
 40
6.000000
  1
~ cut line
 41
1.100000
  7
TEXTSTYLE3
  0
TEXT
  8
FORMER
  6
CONTINUOUS
 62
     1
 10
2984.985761
 20
6855.273903
 30
0.000000
 40
6.000000
  1
~ cut line
 41
1.100000
  7
TEXTSTYLE3
  0
TEXT
  8
FORMER
  6
CONTINUOUS
 62
     1
 10
2751.469907
 20
6810.631166
 30
0.000000
 40
6.000000
  1
~ depends on wingform
 41
1.100000
  7
TEXTSTYLE3
  0
POLYLINE
  8
FORMER
  6
CONTINUOUS
 62
     1
 66
     1
 70
     1
 40
0.000000
 41
0.000000
 10
0.000000
 20
0.000000
 30
0.000000
  0
VERTEX
  8
FORMER
 62
     0
 10
3303.265505
 20
6967.556335
 30
0.000000
 42
0.000000
 70
     0
  0
VERTEX
  8
FORMER
 62
     0
 10
3282.754298
 20
6869.615322
 30
0.000000
 42
0.000000
 70
     0
  0
VERTEX
  8
FORMER
 62
     0
 10
3288.415182
 20
6870.270987
 30
0.000000
 42
0.000000
 70
     0
  0
VERTEX
  8
FORMER
 62
     0
 10
3294.322325
 20
6872.102540
 30
0.000000
 42
0.000000
 70
     0
  0
VERTEX
  8
FORMER
 62
     0
 10
3298.247081
 20
6876.190443
 30
0.000000
 42
0.000000
 70
     0
  0
VERTEX
  8
FORMER
 62
     0
 10
3302.076412
 20
6882.753251
 30
0.000000
 42
0.000000
 70
     0
  0
VERTEX
  8
FORMER
 62
     0
 10
3306.582956
 20
6892.549751
 30
0.000000
 42
0.000000
 70
     0
  0
VERTEX
  8
FORMER
 62
     0
 10
3310.269149
 20
6902.824917
 30
0.000000
 42
0.000000
 70
     0
  0
VERTEX
  8
FORMER
 62
     0
 10
3312.779454
 20
6913.346343
 30
0.000000
 42
0.000000
 70
     0
  0
VERTEX
  8
FORMER
 62
     0
 10
3313.422806
 20
6919.348911
 30
0.000000
 42
0.000000
 70
     0
  0
VERTEX
  8
FORMER
 62
     0
 10
3313.102669
 20
6929.542504
 30
0.000000
 42
0.000000
 70
     0
  0
VERTEX
  8
FORMER
 62
     0
 10
3312.351578
 20
6937.678293
 30
0.000000
 42
0.000000
 70
     0
  0
VERTEX
  8
FORMER
 62
     0
 10
3310.657007
 20
6945.704804
 30
0.000000
 42
0.000000
 70
     0
  0
VERTEX
  8
FORMER
 62
     0
 10
3309.331824
 20
6955.495148
 30
0.000000
 42
0.000000
 70
     0
  0
VERTEX
  8
FORMER
 62
     0
 10
3306.632208
 20
6963.118410
 30
0.000000
 42
0.000000
 70
     0
  0
SEQEND
  8
FORMER
  0
POLYLINE
  8
FORMER
  6
CONTINUOUS
 62
     1
 66
     1
 70
     1
 40
0.000000
 41
0.000000
 10
0.000000
 20
0.000000
 30
0.000000
  0
VERTEX
  8
FORMER
 62
     0
 10
3082.548117
 20
6982.131375
 30
0.000000
 42
0.000000
 70
     0
  0
VERTEX
  8
FORMER
 62
     0
 10
3082.548117
 20
6844.070242
 30
0.000000
 42
0.000000
 70
     0
  0
VERTEX
  8
FORMER
 62
     0
 10
3086.826871
 20
6844.640742
 30
0.000000
 42
0.000000
 70
     0
  0
VERTEX
  8
FORMER
 62
     0
 10
3093.102377
 20
6846.637494
 30
0.000000
 42
0.000000
 70
     0
  0
VERTEX
  8
FORMER
 62
     0
 10
3102.515636
 20
6850.345748
 30
0.000000
 42
0.000000
 70
     0
  0
VERTEX
  8
FORMER
 62
     0
 10
3107.650141
 20
6854.624502
 30
0.000000
 42
0.000000
 70
     0
  0
VERTEX
  8
FORMER
 62
     0
 10
3113.069897
 20
6862.041009
 30
0.000000
 42
0.000000
 70
     0
  0
VERTEX
  8
FORMER
 62
     0
 10
3117.348651
 20
6873.165770
 30
0.000000
 42
0.000000
 70
     0
  0
VERTEX
  8
FORMER
 62
     0
 10
3119.915903
 20
6884.861031
 30
0.000000
 42
0.000000
 70
     0
  0
VERTEX
  8
FORMER
 62
     0
 10
3121.342155
 20
6895.415292
 30
0.000000
 42
0.000000
 70
     0
  0
VERTEX
  8
FORMER
 62
     0
 10
3121.342155
 20
6908.536804
 30
0.000000
 42
0.000000
 70
     0
  0
VERTEX
  8
FORMER
 62
     0
 10
3120.201153
 20
6921.373067
 30
0.000000
 42
0.000000
 70
     0
  0
VERTEX
  8
FORMER
 62
     0
 10
3117.063400
 20
6933.638829
 30
0.000000
 42
0.000000
 70
     0
  0
VERTEX
  8
FORMER
 62
     0
 10
3111.928895
 20
6944.763589
 30
0.000000
 42
0.000000
 70
     0
  0
VERTEX
  8
FORMER
 62
     0
 10
3105.938640
 20
6956.744101
 30
0.000000
 42
0.000000
 70
     0
  0
VERTEX
  8
FORMER
 62
     0
 10
3100.518884
 20
6966.157360
 30
0.000000
 42
0.000000
 70
     0
  0
VERTEX
  8
FORMER
 62
     0
 10
3094.528629
 20
6975.570619
 30
0.000000
 42
0.000000
 70
     0
  0
VERTEX
  8
FORMER
 62
     0
 10
3088.253123
 20
6980.990374
 30
0.000000
 42
0.000000
 70
     0
  0
SEQEND
  8
FORMER
  0
POLYLINE
  8
FORMER
  6
CONTINUOUS
 62
     1
 66
     1
 70
     1
 40
0.000000
 41
0.000000
 10
0.000000
 20
0.000000
 30
0.000000
  0
VERTEX
  8
FORMER
 62
     0
 10
3208.018800
 20
6974.232174
 30
0.000000
 42
0.000000
 70
     0
  0
VERTEX
  8
FORMER
 62
     0
 10
3207.534351
 20
6974.242869
 30
0.000000
 42
0.000000
 70
     0
  0
VERTEX
  8
FORMER
 62
     0
 10
3207.534351
 20
6860.144352
 30
0.000000
 42
0.000000
 70
     0
  0
VERTEX
  8
FORMER
 62
     0
 10
3207.776576
 20
6859.902128
 30
0.000000
 42
0.000000
 70
     0
  0
VERTEX
  8
FORMER
 62
     0
 10
3215.769990
 20
6862.566599
 30
0.000000
 42
0.000000
 70
     0
  0
VERTEX
  8
FORMER
 62
     0
 10
3223.036730
 20
6868.379991
 30
0.000000
 42
0.000000
 70
     0
  0
VERTEX
  8
FORMER
 62
     0
 10
3227.638999
 20
6875.888956
 30
0.000000
 42
0.000000
 70
     0
  0
VERTEX
  8
FORMER
 62
     0
 10
3231.999043
 20
6885.820168
 30
0.000000
 42
0.000000
 70
     0
  0
VERTEX
  8
FORMER
 62
     0
 10
3235.632413
 20
6900.353648
 30
0.000000
 42
0.000000
 70
     0
  0
VERTEX
  8
FORMER
 62
     0
 10
3235.390189
 20
6911.495983
 30
0.000000
 42
0.000000
 70
     0
  0
VERTEX
  8
FORMER
 62
     0
 10
3233.452391
 20
6926.271688
 30
0.000000
 42
0.000000
 70
     0
  0
VERTEX
  8
FORMER
 62
     0
 10
3232.483492
 20
6935.234001
 30
0.000000
 42
0.000000
 70
     0
  0
VERTEX
  8
FORMER
 62
     0
 10
3228.850122
 20
6944.196314
 30
0.000000
 42
0.000000
 70
     0
  0
VERTEX
  8
FORMER
 62
     0
 10
3224.490078
 20
6954.369751
 30
0.000000
 42
0.000000
 70
     0
  0
VERTEX
  8
FORMER
 62
     0
 10
3220.130034
 20
6964.300962
 30
0.000000
 42
0.000000
 70
     0
  0
VERTEX
  8
FORMER
 62
     0
 10
3215.285541
 20
6969.145456
 30
0.000000
 42
0.000000
 70
     0
  0
VERTEX
  8
FORMER
 62
     0
 10
3212.378845
 20
6972.536601
 30
0.000000
 42
0.000000
 70
     0
  0
SEQEND
  8
FORMER
  0
POLYLINE
  8
FORMER
  6
CONTINUOUS
 62
     1
 66
     1
 70
     1
 40
0.000000
 41
0.000000
 10
0.000000
 20
0.000000
 30
0.000000
  0
VERTEX
  8
FORMER
 62
     0
 10
2900.619423
 20
6993.228288
 30
0.000000
 42
0.000000
 70
     0
  0
VERTEX
  8
FORMER
 62
     0
 10
2900.619423
 20
6825.186559
 30
0.000000
 42
0.000000
 70
     0
  0
VERTEX
  8
FORMER
 62
     0
 10
2908.224027
 20
6826.387286
 30
0.000000
 42
0.000000
 70
     0
  0
VERTEX
  8
FORMER
 62
     0
 10
2915.828631
 20
6827.988255
 30
0.000000
 42
0.000000
 70
     0
  0
VERTEX
  8
FORMER
 62
     0
 10
2927.435657
 20
6831.190193
 30
0.000000
 42
0.000000
 70
     0
  0
VERTEX
  8
FORMER
 62
     0
 10
2935.440503
 20
6832.390920
 30
0.000000
 42
0.000000
 70
     0
  0
VERTEX
  8
FORMER
 62
     0
 10
2945.846803
 20
6830.389708
 30
0.000000
 42
0.000000
 70
     0
  0
VERTEX
  8
FORMER
 62
     0
 10
2960.655768
 20
6827.588012
 30
0.000000
 42
0.000000
 70
     0
  0
VERTEX
  8
FORMER
 62
     0
 10
2975.864976
 20
6826.787528
 30
0.000000
 42
0.000000
 70
     0
  0
VERTEX
  8
FORMER
 62
     0
 10
2975.864976
 20
6833.991889
 30
0.000000
 42
0.000000
 70
     0
  0
VERTEX
  8
FORMER
 62
     0
 10
2970.261583
 20
6835.993101
 30
0.000000
 42
0.000000
 70
     0
  0
VERTEX
  8
FORMER
 62
     0
 10
2961.056011
 20
6840.796008
 30
0.000000
 42
0.000000
 70
     0
  0
VERTEX
  8
FORMER
 62
     0
 10
2949.448984
 20
6848.400612
 30
0.000000
 42
0.000000
 70
     0
  0
VERTEX
  8
FORMER
 62
     0
 10
2943.445349
 20
6859.207154
 30
0.000000
 42
0.000000
 70
     0
  0
VERTEX
  8
FORMER
 62
     0
 10
2943.845592
 20
6870.814181
 30
0.000000
 42
0.000000
 70
     0
  0
VERTEX
  8
FORMER
 62
     0
 10
2945.446561
 20
6891.626780
 30
0.000000
 42
0.000000
 70
     0
  0
VERTEX
  8
FORMER
 62
     0
 10
2945.446561
 20
6913.640107
 30
0.000000
 42
0.000000
 70
     0
  0
VERTEX
  8
FORMER
 62
     0
 10
2943.845592
 20
6923.245922
 30
0.000000
 42
0.000000
 70
     0
  0
VERTEX
  8
FORMER
 62
     0
 10
2941.444138
 20
6933.652222
 30
0.000000
 42
0.000000
 70
     0
  0
VERTEX
  8
FORMER
 62
     0
 10
2934.640019
 20
6945.659491
 30
0.000000
 42
0.000000
 70
     0
  0
VERTEX
  8
FORMER
 62
     0
 10
2926.635173
 20
6956.065790
 30
0.000000
 42
0.000000
 70
     0
  0
VERTEX
  8
FORMER
 62
     0
 10
2923.433234
 20
6960.868698
 30
0.000000
 42
0.000000
 70
     0
  0
VERTEX
  8
FORMER
 62
     0
 10
2923.833477
 20
6969.273786
 30
0.000000
 42
0.000000
 70
     0
  0
VERTEX
  8
FORMER
 62
     0
 10
2922.232508
 20
6977.678875
 30
0.000000
 42
0.000000
 70
     0
  0
VERTEX
  8
FORMER
 62
     0
 10
2917.029358
 20
6986.484205
 30
0.000000
 42
0.000000
 70
     0
  0
VERTEX
  8
FORMER
 62
     0
 10
2908.224027
 20
6992.087597
 30
0.000000
 42
0.000000
 70
     0
  0
SEQEND
  8
FORMER
  0
POLYLINE
  8
FORMER
  6
CONTINUOUS
 62
     1
 66
     1
 70
     1
 40
0.000000
 41
0.000000
 10
0.000000
 20
0.000000
 30
0.000000
  0
VERTEX
  8
FORMER
 62
     0
 10
2831.012780
 20
6964.652908
 30
0.000000
 42
0.000000
 70
     0
  0
VERTEX
  8
FORMER
 62
     0
 10
2831.012780
 20
6822.356415
 30
0.000000
 42
0.000000
 70
     0
  0
VERTEX
  8
FORMER
 62
     0
 10
2833.365684
 20
6822.604089
 30
0.000000
 42
0.000000
 70
     0
  0
VERTEX
  8
FORMER
 62
     0
 10
2839.557538
 20
6823.223275
 30
0.000000
 42
0.000000
 70
     0
  0
VERTEX
  8
FORMER
 62
     0
 10
2843.767999
 20
6823.842460
 30
0.000000
 42
0.000000
 70
     0
  0
VERTEX
  8
FORMER
 62
     0
 10
2850.826713
 20
6825.080831
 30
0.000000
 42
0.000000
 70
     0
  0
VERTEX
  8
FORMER
 62
     0
 10
2861.972050
 20
6825.204668
 30
0.000000
 42
0.000000
 70
     0
  0
VERTEX
  8
FORMER
 62
     0
 10
2875.470292
 20
6825.204668
 30
0.000000
 42
0.000000
 70
     0
  0
VERTEX
  8
FORMER
 62
     0
 10
2894.541202
 20
6825.204668
 30
0.000000
 42
0.000000
 70
     0
  0
VERTEX
  8
FORMER
 62
     0
 10
2894.541202
 20
6849.006155
 30
0.000000
 42
0.000000
 70
     0
  0
VERTEX
  8
FORMER
 62
     0
 10
2892.312135
 20
6848.882318
 30
0.000000
 42
0.000000
 70
     0
  0
VERTEX
  8
FORMER
 62
     0
 10
2886.987140
 20
6851.235223
 30
0.000000
 42
0.000000
 70
     0
  0
VERTEX
  8
FORMER
 62
     0
 10
2881.785983
 20
6854.950335
 30
0.000000
 42
0.000000
 70
     0
  0
VERTEX
  8
FORMER
 62
     0
 10
2878.442382
 20
6860.770678
 30
0.000000
 42
0.000000
 70
     0
  0
VERTEX
  8
FORMER
 62
     0
 10
2876.708662
 20
6866.095672
 30
0.000000
 42
0.000000
 70
     0
  0
VERTEX
  8
FORMER
 62
     0
 10
2875.965640
 20
6872.535200
 30
0.000000
 42
0.000000
 70
     0
  0
VERTEX
  8
FORMER
 62
     0
 10
2875.965640
 20
6887.630941
 30
0.000000
 42
0.000000
 70
     0
  0
VERTEX
  8
FORMER
 62
     0
 10
2874.603432
 20
6918.206316
 30
0.000000
 42
0.000000
 70
     0
  0
VERTEX
  8
FORMER
 62
     0
 10
2873.984247
 20
6925.413634
 30
0.000000
 42
0.000000
 70
     0
  0
VERTEX
  8
FORMER
 62
     0
 10
2872.622039
 20
6933.834555
 30
0.000000
 42
0.000000
 70
     0
  0
VERTEX
  8
FORMER
 62
     0
 10
2869.030763
 20
6942.131640
 30
0.000000
 42
0.000000
 70
     0
  0
VERTEX
  8
FORMER
 62
     0
 10
2864.944140
 20
6948.075820
 30
0.000000
 42
0.000000
 70
     0
  0
VERTEX
  8
FORMER
 62
     0
 10
2859.371471
 20
6953.524651
 30
0.000000
 42
0.000000
 70
     0
  0
VERTEX
  8
FORMER
 62
     0
 10
2853.674965
 20
6958.354297
 30
0.000000
 42
0.000000
 70
     0
  0
VERTEX
  8
FORMER
 62
     0
 10
2848.349971
 20
6961.326387
 30
0.000000
 42
0.000000
 70
     0
  0
VERTEX
  8
FORMER
 62
     0
 10
2842.653465
 20
6963.555455
 30
0.000000
 42
0.000000
 70
     0
  0
VERTEX
  8
FORMER
 62
     0
 10
2837.947656
 20
6964.174640
 30
0.000000
 42
0.000000
 70
     0
  0
SEQEND
  8
FORMER
  0
POLYLINE
  8
FORMER
  6
CONTINUOUS
 62
     1
 66
     1
 70
     1
 40
0.000000
 41
0.000000
 10
0.000000
 20
0.000000
 30
0.000000
  0
VERTEX
  8
FORMER
 62
     0
 10
2499.726856
 20
6945.012115
 30
0.000000
 42
0.000000
 70
     0
  0
VERTEX
  8
FORMER
 62
     0
 10
2499.419569
 20
6945.045332
 30
0.000000
 42
0.000000
 70
     0
  0
VERTEX
  8
FORMER
 62
     0
 10
2499.419569
 20
6880.800694
 30
0.000000
 42
0.000000
 70
     0
  0
VERTEX
  8
FORMER
 62
     0
 10
2499.726856
 20
6880.800694
 30
0.000000
 42
0.000000
 70
     0
  0
VERTEX
  8
FORMER
 62
     0
 10
2501.953842
 20
6881.171858
 30
0.000000
 42
0.000000
 70
     0
  0
VERTEX
  8
FORMER
 62
     0
 10
2509.005963
 20
6882.656515
 30
0.000000
 42
0.000000
 70
     0
  0
VERTEX
  8
FORMER
 62
     0
 10
2516.800413
 20
6887.110487
 30
0.000000
 42
0.000000
 70
     0
  0
VERTEX
  8
FORMER
 62
     0
 10
2523.110206
 20
6892.677951
 30
0.000000
 42
0.000000
 70
     0
  0
VERTEX
  8
FORMER
 62
     0
 10
2526.821849
 20
6898.987744
 30
0.000000
 42
0.000000
 70
     0
  0
VERTEX
  8
FORMER
 62
     0
 10
2528.677670
 20
6904.555208
 30
0.000000
 42
0.000000
 70
     0
  0
VERTEX
  8
FORMER
 62
     0
 10
2529.048835
 20
6910.493837
 30
0.000000
 42
0.000000
 70
     0
  0
VERTEX
  8
FORMER
 62
     0
 10
2529.419999
 20
6914.576644
 30
0.000000
 42
0.000000
 70
     0
  0
VERTEX
  8
FORMER
 62
     0
 10
2527.564178
 20
6922.371094
 30
0.000000
 42
0.000000
 70
     0
  0
VERTEX
  8
FORMER
 62
     0
 10
2522.739042
 20
6931.279037
 30
0.000000
 42
0.000000
 70
     0
  0
VERTEX
  8
FORMER
 62
     0
 10
2516.800413
 20
6937.588830
 30
0.000000
 42
0.000000
 70
     0
  0
VERTEX
  8
FORMER
 62
     0
 10
2509.005963
 20
6942.413965
 30
0.000000
 42
0.000000
 70
     0
  0
SEQEND
  8
FORMER
  0
POLYLINE
  8
FORMER
  6
CONTINUOUS
 62
     1
 66
     1
 70
     1
 40
0.000000
 41
0.000000
 10
0.000000
 20
0.000000
 30
0.000000
  0
VERTEX
  8
FORMER
 62
     0
 10
2549.317085
 20
6953.136034
 30
0.000000
 42
0.000000
 70
     0
  0
VERTEX
  8
FORMER
 62
     0
 10
2547.636284
 20
6953.099219
 30
0.000000
 42
0.000000
 70
     0
  0
VERTEX
  8
FORMER
 62
     0
 10
2547.636284
 20
6849.743321
 30
0.000000
 42
0.000000
 70
     0
  0
VERTEX
  8
FORMER
 62
     0
 10
2548.127975
 20
6849.743321
 30
0.000000
 42
0.000000
 70
     0
  0
VERTEX
  8
FORMER
 62
     0
 10
2552.389291
 20
6850.398909
 30
0.000000
 42
0.000000
 70
     0
  0
VERTEX
  8
FORMER
 62
     0
 10
2560.748028
 20
6854.004638
 30
0.000000
 42
0.000000
 70
     0
  0
VERTEX
  8
FORMER
 62
     0
 10
2569.434557
 20
6860.544120
 30
0.000000
 42
0.000000
 70
     0
  0
VERTEX
  8
FORMER
 62
     0
 10
2574.843152
 20
6867.263889
 30
0.000000
 42
0.000000
 70
     0
  0
VERTEX
  8
FORMER
 62
     0
 10
2580.743436
 20
6876.769902
 30
0.000000
 42
0.000000
 70
     0
  0
VERTEX
  8
FORMER
 62
     0
 10
2583.529682
 20
6886.767607
 30
0.000000
 42
0.000000
 70
     0
  0
VERTEX
  8
FORMER
 62
     0
 10
2584.840856
 20
6898.551786
 30
0.000000
 42
0.000000
 70
     0
  0
VERTEX
  8
FORMER
 62
     0
 10
2584.840856
 20
6907.238316
 30
0.000000
 42
0.000000
 70
     0
  0
VERTEX
  8
FORMER
 62
     0
 10
2584.513062
 20
6917.236020
 30
0.000000
 42
0.000000
 70
     0
  0
VERTEX
  8
FORMER
 62
     0
 10
2583.943625
 20
6938.075419
 30
0.000000
 42
0.000000
 70
     0
  0
VERTEX
  8
FORMER
 62
     0
 10
2585.230857
 20
6939.040843
 30
0.000000
 42
0.000000
 70
     0
  0
VERTEX
  8
FORMER
 62
     0
 10
2586.067558
 20
6940.714245
 30
0.000000
 42
0.000000
 70
     0
  0
VERTEX
  8
FORMER
 62
     0
 10
2586.067558
 20
6942.194562
 30
0.000000
 42
0.000000
 70
     0
  0
VERTEX
  8
FORMER
 62
     0
 10
2585.295219
 20
6945.541365
 30
0.000000
 42
0.000000
 70
     0
  0
VERTEX
  8
FORMER
 62
     0
 10
2583.943625
 20
6947.407851
 30
0.000000
 42
0.000000
 70
     0
  0
VERTEX
  8
FORMER
 62
     0
 10
2582.463309
 20
6948.501998
 30
0.000000
 42
0.000000
 70
     0
  0
VERTEX
  8
FORMER
 62
     0
 10
2576.670765
 20
6950.304123
 30
0.000000
 42
0.000000
 70
     0
  0
VERTEX
  8
FORMER
 62
     0
 10
2568.432480
 20
6951.848802
 30
0.000000
 42
0.000000
 70
     0
  0
VERTEX
  8
FORMER
 62
     0
 10
2556.332499
 20
6952.878587
 30
0.000000
 42
0.000000
 70
     0
  0
SEQEND
  8
FORMER
  0
POLYLINE
  8
FORMER
  6
CONTINUOUS
 62
     1
 66
     1
 70
     1
 40
0.000000
 41
0.000000
 10
0.000000
 20
0.000000
 30
0.000000
  0
VERTEX
  8
FORMER
 62
     0
 10
2744.836802
 20
6966.386497
 30
0.000000
 42
0.000000
 70
     0
  0
VERTEX
  8
FORMER
 62
     0
 10
2743.267122
 20
6966.394703
 30
0.000000
 42
0.000000
 70
     0
  0
VERTEX
  8
FORMER
 62
     0
 10
2743.267122
 20
6827.862264
 30
0.000000
 42
0.000000
 70
     0
  0
VERTEX
  8
FORMER
 62
     0
 10
2745.621642
 20
6829.824364
 30
0.000000
 42
0.000000
 70
     0
  0
VERTEX
  8
FORMER
 62
     0
 10
2749.938261
 20
6832.963723
 30
0.000000
 42
0.000000
 70
     0
  0
VERTEX
  8
FORMER
 62
     0
 10
2761.710859
 20
6832.963723
 30
0.000000
 42
0.000000
 70
     0
  0
VERTEX
  8
FORMER
 62
     0
 10
2800.168011
 20
6832.963723
 30
0.000000
 42
0.000000
 70
     0
  0
VERTEX
  8
FORMER
 62
     0
 10
2799.775591
 20
6856.901338
 30
0.000000
 42
0.000000
 70
     0
  0
VERTEX
  8
FORMER
 62
     0
 10
2796.243812
 20
6857.293758
 30
0.000000
 42
0.000000
 70
     0
  0
VERTEX
  8
FORMER
 62
     0
 10
2788.395414
 20
6861.217958
 30
0.000000
 42
0.000000
 70
     0
  0
VERTEX
  8
FORMER
 62
     0
 10
2788.395414
 20
6869.851196
 30
0.000000
 42
0.000000
 70
     0
  0
VERTEX
  8
FORMER
 62
     0
 10
2790.357513
 20
6881.231374
 30
0.000000
 42
0.000000
 70
     0
  0
VERTEX
  8
FORMER
 62
     0
 10
2791.927193
 20
6894.966071
 30
0.000000
 42
0.000000
 70
     0
  0
VERTEX
  8
FORMER
 62
     0
 10
2793.104453
 20
6909.878028
 30
0.000000
 42
0.000000
 70
     0
  0
VERTEX
  8
FORMER
 62
     0
 10
2790.749933
 20
6925.574825
 30
0.000000
 42
0.000000
 70
     0
  0
VERTEX
  8
FORMER
 62
     0
 10
2786.433314
 20
6936.562583
 30
0.000000
 42
0.000000
 70
     0
  0
VERTEX
  8
FORMER
 62
     0
 10
2778.977335
 20
6947.157921
 30
0.000000
 42
0.000000
 70
     0
  0
VERTEX
  8
FORMER
 62
     0
 10
2768.381997
 20
6957.360839
 30
0.000000
 42
0.000000
 70
     0
  0
VERTEX
  8
FORMER
 62
     0
 10
2755.432140
 20
6964.031977
 30
0.000000
 42
0.000000
 70
     0
  0
SEQEND
  8
FORMER
  0
POLYLINE
  8
FORMER
  6
CONTINUOUS
 62
     1
 66
     1
 70
     1
 40
0.000000
 41
0.000000
 10
0.000000
 20
0.000000
 30
0.000000
  0
VERTEX
  8
FORMER
 62
     0
 10
2984.192484
 20
6992.031749
 30
0.000000
 42
0.000000
 70
     0
  0
VERTEX
  8
FORMER
 62
     0
 10
2984.192484
 20
6992.301008
 30
0.000000
 42
0.000000
 70
     0
  0
VERTEX
  8
FORMER
 62
     0
 10
2984.192484
 20
6839.244446
 30
0.000000
 42
0.000000
 70
     0
  0
VERTEX
  8
FORMER
 62
     0
 10
2985.693552
 20
6839.244446
 30
0.000000
 42
0.000000
 70
     0
  0
VERTEX
  8
FORMER
 62
     0
 10
2987.569888
 20
6838.869179
 30
0.000000
 42
0.000000
 70
     0
  0
VERTEX
  8
FORMER
 62
     0
 10
2992.448360
 20
6839.244446
 30
0.000000
 42
0.000000
 70
     0
  0
VERTEX
  8
FORMER
 62
     0
 10
3001.079502
 20
6841.496048
 30
0.000000
 42
0.000000
 70
     0
  0
VERTEX
  8
FORMER
 62
     0
 10
3009.710644
 20
6843.372383
 30
0.000000
 42
0.000000
 70
     0
  0
VERTEX
  8
FORMER
 62
     0
 10
3017.215985
 20
6844.873452
 30
0.000000
 42
0.000000
 70
     0
  0
VERTEX
  8
FORMER
 62
     0
 10
3021.343923
 20
6844.122917
 30
0.000000
 42
0.000000
 70
     0
  0
VERTEX
  8
FORMER
 62
     0
 10
3025.847128
 20
6841.871315
 30
0.000000
 42
0.000000
 70
     0
  0
VERTEX
  8
FORMER
 62
     0
 10
3037.105140
 20
6839.244446
 30
0.000000
 42
0.000000
 70
     0
  0
VERTEX
  8
FORMER
 62
     0
 10
3047.612617
 20
6837.743377
 30
0.000000
 42
0.000000
 70
     0
  0
VERTEX
  8
FORMER
 62
     0
 10
3054.742691
 20
6836.617576
 30
0.000000
 42
0.000000
 70
     0
  0
VERTEX
  8
FORMER
 62
     0
 10
3055.493226
 20
6836.992843
 30
0.000000
 42
0.000000
 70
     0
  0
VERTEX
  8
FORMER
 62
     0
 10
3053.616890
 20
6839.244446
 30
0.000000
 42
0.000000
 70
     0
  0
VERTEX
  8
FORMER
 62
     0
 10
3043.484680
 20
6844.873452
 30
0.000000
 42
0.000000
 70
     0
  0
VERTEX
  8
FORMER
 62
     0
 10
3035.979338
 20
6854.630395
 30
0.000000
 42
0.000000
 70
     0
  0
VERTEX
  8
FORMER
 62
     0
 10
3030.725600
 20
6866.263674
 30
0.000000
 42
0.000000
 70
     0
  0
VERTEX
  8
FORMER
 62
     0
 10
3029.224531
 20
6885.402294
 30
0.000000
 42
0.000000
 70
     0
  0
VERTEX
  8
FORMER
 62
     0
 10
3029.599798
 20
6901.163511
 30
0.000000
 42
0.000000
 70
     0
  0
VERTEX
  8
FORMER
 62
     0
 10
3030.350333
 20
6915.423659
 30
0.000000
 42
0.000000
 70
     0
  0
VERTEX
  8
FORMER
 62
     0
 10
3027.723463
 20
6927.807472
 30
0.000000
 42
0.000000
 70
     0
  0
VERTEX
  8
FORMER
 62
     0
 10
3023.595526
 20
6940.941819
 30
0.000000
 42
0.000000
 70
     0
  0
VERTEX
  8
FORMER
 62
     0
 10
3016.090184
 20
6952.199831
 30
0.000000
 42
0.000000
 70
     0
  0
VERTEX
  8
FORMER
 62
     0
 10
3010.836445
 20
6958.204104
 30
0.000000
 42
0.000000
 70
     0
  0
VERTEX
  8
FORMER
 62
     0
 10
3004.081638
 20
6967.585780
 30
0.000000
 42
0.000000
 70
     0
  0
VERTEX
  8
FORMER
 62
     0
 10
3000.328968
 20
6975.841656
 30
0.000000
 42
0.000000
 70
     0
  0
VERTEX
  8
FORMER
 62
     0
 10
2994.324695
 20
6986.724400
 30
0.000000
 42
0.000000
 70
     0
  0
VERTEX
  8
FORMER
 62
     0
 10
2988.320422
 20
6990.852338
 30
0.000000
 42
0.000000
 70
     0
  0
SEQEND
  8
FORMER
  0
POLYLINE
  8
FORMER
  6
CONTINUOUS
 62
     1
 66
     1
 70
     1
 40
0.000000
 41
0.000000
 10
0.000000
 20
0.000000
 30
0.000000
  0
VERTEX
  8
FORMER
 62
     0
 10
2654.213367
 20
6969.435091
 30
0.000000
 42
0.000000
 70
     0
  0
VERTEX
  8
FORMER
 62
     0
 10
2653.591660
 20
6969.366012
 30
0.000000
 42
0.000000
 70
     0
  0
VERTEX
  8
FORMER
 62
     0
 10
2653.831225
 20
6836.980774
 30
0.000000
 42
0.000000
 70
     0
  0
VERTEX
  8
FORMER
 62
     0
 10
2661.140731
 20
6836.980774
 30
0.000000
 42
0.000000
 70
     0
  0
VERTEX
  8
FORMER
 62
     0
 10
2666.589327
 20
6837.193591
 30
0.000000
 42
0.000000
 70
     0
  0
VERTEX
  8
FORMER
 62
     0
 10
2673.207339
 20
6837.900369
 30
0.000000
 42
0.000000
 70
     0
  0
VERTEX
  8
FORMER
 62
     0
 10
2680.500613
 20
6842.444215
 30
0.000000
 42
0.000000
 70
     0
  0
VERTEX
  8
FORMER
 62
     0
 10
2687.112080
 20
6849.918047
 30
0.000000
 42
0.000000
 70
     0
  0
VERTEX
  8
FORMER
 62
     0
 10
2693.436092
 20
6861.416251
 30
0.000000
 42
0.000000
 70
     0
  0
VERTEX
  8
FORMER
 62
     0
 10
2699.472649
 20
6874.351730
 30
0.000000
 42
0.000000
 70
     0
  0
VERTEX
  8
FORMER
 62
     0
 10
2701.772290
 20
6907.840248
 30
0.000000
 42
0.000000
 70
     0
  0
VERTEX
  8
FORMER
 62
     0
 10
2699.185194
 20
6923.362822
 30
0.000000
 42
0.000000
 70
     0
  0
VERTEX
  8
FORMER
 62
     0
 10
2698.897739
 20
6928.249559
 30
0.000000
 42
0.000000
 70
     0
  0
VERTEX
  8
FORMER
 62
     0
 10
2693.148637
 20
6942.047403
 30
0.000000
 42
0.000000
 70
     0
  0
VERTEX
  8
FORMER
 62
     0
 10
2689.411721
 20
6949.808690
 30
0.000000
 42
0.000000
 70
     0
  0
VERTEX
  8
FORMER
 62
     0
 10
2690.274086
 20
6952.683241
 30
0.000000
 42
0.000000
 70
     0
  0
VERTEX
  8
FORMER
 62
     0
 10
2692.286272
 20
6954.120517
 30
0.000000
 42
0.000000
 70
     0
  0
VERTEX
  8
FORMER
 62
     0
 10
2692.573727
 20
6955.845247
 30
0.000000
 42
0.000000
 70
     0
  0
VERTEX
  8
FORMER
 62
     0
 10
2691.711362
 20
6958.719798
 30
0.000000
 42
0.000000
 70
     0
  0
VERTEX
  8
FORMER
 62
     0
 10
2687.399535
 20
6961.881804
 30
0.000000
 42
0.000000
 70
     0
  0
VERTEX
  8
FORMER
 62
     0
 10
2680.213158
 20
6965.331265
 30
0.000000
 42
0.000000
 70
     0
  0
VERTEX
  8
FORMER
 62
     0
 10
2673.314236
 20
6967.343451
 30
0.000000
 42
0.000000
 70
     0
  0
VERTEX
  8
FORMER
 62
     0
 10
2663.540763
 20
6969.068181
 30
0.000000
 42
0.000000
 70
     0
  0
SEQEND
  8
FORMER
  0
LINE
  8
HORIZONTAL
  6
CONTINUOUS
 62
     1
 10
2633.794853
 20
7116.090954
 30
0.000000
 11
2646.706433
 21
7118.345357
 31
0.000000
  0
LINE
  8
HORIZONTAL
  6
CONTINUOUS
 62
     1
 10
2646.706433
 20
7118.345357
 30
0.000000
 11
2647.116325
 21
7119.779977
 31
0.000000
  0
LINE
  8
HORIZONTAL
  6
CONTINUOUS
 62
     1
 10
2647.116325
 20
7119.779977
 30
0.000000
 11
2650.190510
 21
7119.575032
 31
0.000000
  0
LINE
  8
HORIZONTAL
  6
CONTINUOUS
 62
     1
 10
2650.190510
 20
7119.575032
 30
0.000000
 11
2650.190510
 21
7106.868397
 31
0.000000
  0
LINE
  8
HORIZONTAL
  6
CONTINUOUS
 62
     1
 10
2650.190510
 20
7106.868397
 30
0.000000
 11
2647.526216
 21
7106.458506
 31
0.000000
  0
LINE
  8
HORIZONTAL
  6
CONTINUOUS
 62
     1
 10
2647.526216
 20
7106.458506
 30
0.000000
 11
2647.526216
 21
7107.893126
 31
0.000000
  0
LINE
  8
HORIZONTAL
  6
CONTINUOUS
 62
     1
 10
2647.526216
 20
7107.893126
 30
0.000000
 11
2633.999799
 21
7109.122800
 31
0.000000
  0
LINE
  8
HORIZONTAL
  6
CONTINUOUS
 62
     1
 10
2615.807360
 20
7115.487427
 30
0.000000
 11
2628.718940
 21
7117.741829
 31
0.000000
  0
LINE
  8
HORIZONTAL
  6
CONTINUOUS
 62
     1
 10
2597.819867
 20
7114.883899
 30
0.000000
 11
2610.731447
 21
7117.138302
 31
0.000000
  0
LINE
  8
HORIZONTAL
  6
CONTINUOUS
 62
     1
 10
2579.832373
 20
7114.280371
 30
0.000000
 11
2592.743953
 21
7116.534774
 31
0.000000
  0
LINE
  8
HORIZONTAL
  6
CONTINUOUS
 62
     1
 10
2561.844880
 20
7113.676843
 30
0.000000
 11
2574.756460
 21
7115.931246
 31
0.000000
  0
LINE
  8
HORIZONTAL
  6
CONTINUOUS
 62
     1
 10
2543.857387
 20
7113.073316
 30
0.000000
 11
2556.768967
 21
7115.327719
 31
0.000000
  0
LINE
  8
HORIZONTAL
  6
CONTINUOUS
 62
     1
 10
2628.718940
 20
7117.741829
 30
0.000000
 11
2629.128831
 21
7119.176449
 31
0.000000
  0
LINE
  8
HORIZONTAL
  6
CONTINUOUS
 62
     1
 10
2610.731447
 20
7117.138302
 30
0.000000
 11
2611.141338
 21
7118.572922
 31
0.000000
  0
LINE
  8
HORIZONTAL
  6
CONTINUOUS
 62
     1
 10
2592.743953
 20
7116.534774
 30
0.000000
 11
2593.153845
 21
7117.969394
 31
0.000000
  0
LINE
  8
HORIZONTAL
  6
CONTINUOUS
 62
     1
 10
2574.756460
 20
7115.931246
 30
0.000000
 11
2575.166352
 21
7117.365866
 31
0.000000
  0
LINE
  8
HORIZONTAL
  6
CONTINUOUS
 62
     1
 10
2556.768967
 20
7115.327719
 30
0.000000
 11
2557.178858
 21
7116.762339
 31
0.000000
  0
LINE
  8
HORIZONTAL
  6
CONTINUOUS
 62
     1
 10
2629.128831
 20
7119.176449
 30
0.000000
 11
2632.203017
 21
7118.971504
 31
0.000000
  0
LINE
  8
HORIZONTAL
  6
CONTINUOUS
 62
     1
 10
2611.141338
 20
7118.572922
 30
0.000000
 11
2614.215524
 21
7118.367976
 31
0.000000
  0
LINE
  8
HORIZONTAL
  6
CONTINUOUS
 62
     1
 10
2593.153845
 20
7117.969394
 30
0.000000
 11
2596.228031
 21
7117.764448
 31
0.000000
  0
LINE
  8
HORIZONTAL
  6
CONTINUOUS
 62
     1
 10
2575.166352
 20
7117.365866
 30
0.000000
 11
2578.240537
 21
7117.160921
 31
0.000000
  0
LINE
  8
HORIZONTAL
  6
CONTINUOUS
 62
     1
 10
2557.178858
 20
7116.762339
 30
0.000000
 11
2560.253044
 21
7116.557393
 31
0.000000
  0
LINE
  8
HORIZONTAL
  6
CONTINUOUS
 62
     1
 10
2632.203017
 20
7118.971504
 30
0.000000
 11
2632.203017
 21
7106.264869
 31
0.000000
  0
LINE
  8
HORIZONTAL
  6
CONTINUOUS
 62
     1
 10
2614.215524
 20
7118.367976
 30
0.000000
 11
2614.215524
 21
7105.661342
 31
0.000000
  0
LINE
  8
HORIZONTAL
  6
CONTINUOUS
 62
     1
 10
2596.228031
 20
7117.764448
 30
0.000000
 11
2596.228031
 21
7105.057814
 31
0.000000
  0
LINE
  8
HORIZONTAL
  6
CONTINUOUS
 62
     1
 10
2578.240537
 20
7117.160921
 30
0.000000
 11
2578.240537
 21
7104.454286
 31
0.000000
  0
LINE
  8
HORIZONTAL
  6
CONTINUOUS
 62
     1
 10
2560.253044
 20
7116.557393
 30
0.000000
 11
2560.253044
 21
7103.850759
 31
0.000000
  0
LINE
  8
HORIZONTAL
  6
CONTINUOUS
 62
     1
 10
2632.203017
 20
7106.264869
 30
0.000000
 11
2629.538723
 21
7105.854978
 31
0.000000
  0
LINE
  8
HORIZONTAL
  6
CONTINUOUS
 62
     1
 10
2614.215524
 20
7105.661342
 30
0.000000
 11
2611.551229
 21
7105.251450
 31
0.000000
  0
LINE
  8
HORIZONTAL
  6
CONTINUOUS
 62
     1
 10
2596.228031
 20
7105.057814
 30
0.000000
 11
2593.563736
 21
7104.647923
 31
0.000000
  0
LINE
  8
HORIZONTAL
  6
CONTINUOUS
 62
     1
 10
2578.240537
 20
7104.454286
 30
0.000000
 11
2575.576243
 21
7104.044395
 31
0.000000
  0
LINE
  8
HORIZONTAL
  6
CONTINUOUS
 62
     1
 10
2560.253044
 20
7103.850759
 30
0.000000
 11
2557.588750
 21
7103.440867
 31
0.000000
  0
LINE
  8
HORIZONTAL
  6
CONTINUOUS
 62
     1
 10
2629.538723
 20
7105.854978
 30
0.000000
 11
2629.538723
 21
7107.289598
 31
0.000000
  0
LINE
  8
HORIZONTAL
  6
CONTINUOUS
 62
     1
 10
2611.551229
 20
7105.251450
 30
0.000000
 11
2611.551229
 21
7106.686070
 31
0.000000
  0
LINE
  8
HORIZONTAL
  6
CONTINUOUS
 62
     1
 10
2593.563736
 20
7104.647923
 30
0.000000
 11
2593.563736
 21
7106.082543
 31
0.000000
  0
LINE
  8
HORIZONTAL
  6
CONTINUOUS
 62
     1
 10
2575.576243
 20
7104.044395
 30
0.000000
 11
2575.576243
 21
7105.479015
 31
0.000000
  0
LINE
  8
HORIZONTAL
  6
CONTINUOUS
 62
     1
 10
2557.588750
 20
7103.440867
 30
0.000000
 11
2557.588750
 21
7104.875487
 31
0.000000
  0
LINE
  8
HORIZONTAL
  6
CONTINUOUS
 62
     1
 10
2629.538723
 20
7107.289598
 30
0.000000
 11
2616.012306
 21
7108.519272
 31
0.000000
  0
LINE
  8
HORIZONTAL
  6
CONTINUOUS
 62
     1
 10
2611.551229
 20
7106.686070
 30
0.000000
 11
2598.024812
 21
7107.915745
 31
0.000000
  0
LINE
  8
HORIZONTAL
  6
CONTINUOUS
 62
     1
 10
2593.563736
 20
7106.082543
 30
0.000000
 11
2580.037319
 21
7107.312217
 31
0.000000
  0
LINE
  8
HORIZONTAL
  6
CONTINUOUS
 62
     1
 10
2575.576243
 20
7105.479015
 30
0.000000
 11
2562.049826
 21
7106.708689
 31
0.000000
  0
LINE
  8
HORIZONTAL
  6
CONTINUOUS
 62
     1
 10
2557.588750
 20
7104.875487
 30
0.000000
 11
2544.062333
 21
7106.105161
 31
0.000000
  0
LINE
  8
HORIZONTAL
  6
CONTINUOUS
 62
     1
 10
3401.378478
 20
6658.176699
 30
0.000000
 11
3364.583339
 21
6618.281145
 31
0.000000
  0
LINE
  8
HORIZONTAL
  6
CONTINUOUS
 62
     1
 10
3400.025306
 20
6799.154082
 30
0.000000
 11
3401.378478
 21
6658.176699
 31
0.000000
  0
LINE
  8
HORIZONTAL
  6
CONTINUOUS
 62
     1
 10
2431.098643
 20
6792.863951
 30
0.000000
 11
2699.756358
 21
6792.863951
 31
0.000000
  0
POLYLINE
  8
HORIZONTAL
  6
CONTINUOUS
 62
     1
 66
     1
 70
     1
 40
0.000000
 41
0.000000
 10
0.000000
 20
0.000000
 30
0.000000
  0
VERTEX
  8
HORIZONTAL
 62
     0
 10
2431.098643
 20
6792.863951
 30
0.000000
 42
0.000000
 70
     0
  0
VERTEX
  8
HORIZONTAL
 62
     0
 10
3419.839811
 20
6792.863951
 30
0.000000
 42
0.000000
 70
     0
  0
VERTEX
  8
HORIZONTAL
 62
     0
 10
3420.216177
 20
6785.463298
 30
0.000000
 42
0.000000
 70
     0
  0
VERTEX
  8
HORIZONTAL
 62
     0
 10
3454.411636
 20
6762.563503
 30
0.000000
 42
0.000000
 70
     0
  0
VERTEX
  8
HORIZONTAL
 62
     0
 10
3453.346725
 20
6732.589670
 30
0.000000
 42
0.000000
 70
     0
  0
VERTEX
  8
HORIZONTAL
 62
     0
 10
3452.365853
 20
6718.672449
 30
0.000000
 42
0.000000
 70
     0
  0
VERTEX
  8
HORIZONTAL
 62
     0
 10
3451.075815
 20
6693.226034
 30
0.000000
 42
0.000000
 70
     0
  0
VERTEX
  8
HORIZONTAL
 62
     0
 10
3447.150805
 20
6664.754454
 30
0.000000
 42
0.000000
 70
     0
  0
VERTEX
  8
HORIZONTAL
 62
     0
 10
3441.140022
 20
6647.613516
 30
0.000000
 42
0.000000
 70
     0
  0
VERTEX
  8
HORIZONTAL
 62
     0
 10
3430.569025
 20
6631.596697
 30
0.000000
 42
0.000000
 70
     0
  0
VERTEX
  8
HORIZONTAL
 62
     0
 10
3418.956870
 20
6621.462763
 30
0.000000
 42
0.000000
 70
     0
  0
VERTEX
  8
HORIZONTAL
 62
     0
 10
3405.203635
 20
6615.697404
 30
0.000000
 42
0.000000
 70
     0
  0
VERTEX
  8
HORIZONTAL
 62
     0
 10
3393.235854
 20
6615.574898
 30
0.000000
 42
0.000000
 70
     0
  0
VERTEX
  8
HORIZONTAL
 62
     0
 10
3378.688408
 20
6619.389294
 30
0.000000
 42
0.000000
 70
     0
  0
VERTEX
  8
HORIZONTAL
 62
     0
 10
3370.455521
 20
6623.806263
 30
0.000000
 42
0.000000
 70
     0
  0
VERTEX
  8
HORIZONTAL
 62
     0
 10
3369.801099
 20
6623.593884
 30
0.000000
 42
0.000000
 70
     0
  0
VERTEX
  8
HORIZONTAL
 62
     0
 10
3356.433499
 20
6637.614210
 30
0.000000
 42
0.000000
 70
     0
  0
VERTEX
  8
HORIZONTAL
 62
     0
 10
3347.173280
 20
6649.654581
 30
0.000000
 42
0.000000
 70
     0
  0
VERTEX
  8
HORIZONTAL
 62
     0
 10
3336.393185
 20
6668.941505
 30
0.000000
 42
0.000000
 70
     0
  0
VERTEX
  8
HORIZONTAL
 62
     0
 10
3327.839239
 20
6687.721193
 30
0.000000
 42
0.000000
 70
     0
  0
VERTEX
  8
HORIZONTAL
 62
     0
 10
3319.862062
 20
6713.371775
 30
0.000000
 42
0.000000
 70
     0
  0
VERTEX
  8
HORIZONTAL
 62
     0
 10
3314.642446
 20
6741.045686
 30
0.000000
 42
0.000000
 70
     0
  0
VERTEX
  8
HORIZONTAL
 62
     0
 10
3312.452799
 20
6773.536646
 30
0.000000
 42
0.000000
 70
     0
  0
VERTEX
  8
HORIZONTAL
 62
     0
 10
3117.195693
 20
6756.811192
 30
0.000000
 42
0.000000
 70
     0
  0
VERTEX
  8
HORIZONTAL
 62
     0
 10
3088.888099
 20
6753.989972
 30
0.000000
 42
0.000000
 70
     0
  0
VERTEX
  8
HORIZONTAL
 62
     0
 10
3010.983535
 20
6749.800366
 30
0.000000
 42
0.000000
 70
     0
  0
VERTEX
  8
HORIZONTAL
 62
     0
 10
2927.400708
 20
6745.677627
 30
0.000000
 42
0.000000
 70
     0
  0
VERTEX
  8
HORIZONTAL
 62
     0
 10
2829.196006
 20
6744.216710
 30
0.000000
 42
0.000000
 70
     0
  0
VERTEX
  8
HORIZONTAL
 62
     0
 10
2734.682491
 20
6744.532370
 30
0.000000
 42
0.000000
 70
     0
  0
VERTEX
  8
HORIZONTAL
 62
     0
 10
2714.098461
 20
6744.391280
 30
0.000000
 42
0.000000
 70
     0
  0
VERTEX
  8
HORIZONTAL
 62
     0
 10
2673.059902
 20
6743.977525
 30
0.000000
 42
0.000000
 70
     0
  0
VERTEX
  8
HORIZONTAL
 62
     0
 10
2645.639850
 20
6743.325037
 30
0.000000
 42
0.000000
 70
     0
  0
VERTEX
  8
HORIZONTAL
 62
     0
 10
2628.882192
 20
6742.805426
 30
0.000000
 42
0.000000
 70
     0
  0
VERTEX
  8
HORIZONTAL
 62
     0
 10
2607.122276
 20
6742.543130
 30
0.000000
 42
0.000000
 70
     0
  0
VERTEX
  8
HORIZONTAL
 62
     0
 10
2589.936401
 20
6742.897233
 30
0.000000
 42
0.000000
 70
     0
  0
VERTEX
  8
HORIZONTAL
 62
     0
 10
2564.493442
 20
6744.622401
 30
0.000000
 42
0.000000
 70
     0
  0
VERTEX
  8
HORIZONTAL
 62
     0
 10
2548.874994
 20
6746.454464
 30
0.000000
 42
0.000000
 70
     0
  0
VERTEX
  8
HORIZONTAL
 62
     0
 10
2532.789041
 20
6748.322878
 30
0.000000
 42
0.000000
 70
     0
  0
VERTEX
  8
HORIZONTAL
 62
     0
 10
2513.681380
 20
6753.261392
 30
0.000000
 42
0.000000
 70
     0
  0
VERTEX
  8
HORIZONTAL
 62
     0
 10
2499.805640
 20
6759.463814
 30
0.000000
 42
0.000000
 70
     0
  0
VERTEX
  8
HORIZONTAL
 62
     0
 10
2499.575977
 20
6757.942591
 30
0.000000
 42
0.000000
 70
     0
  0
VERTEX
  8
HORIZONTAL
 62
     0
 10
2498.267132
 20
6757.517831
 30
0.000000
 42
0.000000
 70
     0
  0
VERTEX
  8
HORIZONTAL
 62
     0
 10
2490.225884
 20
6758.669603
 30
0.000000
 42
0.000000
 70
     0
  0
VERTEX
  8
HORIZONTAL
 62
     0
 10
2478.282300
 20
6761.593001
 30
0.000000
 42
0.000000
 70
     0
  0
VERTEX
  8
HORIZONTAL
 62
     0
 10
2466.136706
 20
6766.476209
 30
0.000000
 42
0.000000
 70
     0
  0
VERTEX
  8
HORIZONTAL
 62
     0
 10
2457.249396
 20
6770.680798
 30
0.000000
 42
0.000000
 70
     0
  0
VERTEX
  8
HORIZONTAL
 62
     0
 10
2447.718034
 20
6775.978395
 30
0.000000
 42
0.000000
 70
     0
  0
VERTEX
  8
HORIZONTAL
 62
     0
 10
2439.714810
 20
6781.916588
 30
0.000000
 42
0.000000
 70
     0
  0
VERTEX
  8
HORIZONTAL
 62
     0
 10
2434.103067
 20
6787.618204
 30
0.000000
 42
0.000000
 70
     0
  0
SEQEND
  8
HORIZONTAL
  0
LINE
  8
TEXT
  6
CONTINUOUS
 62
     1
 10
2288.585535
 20
6627.124614
 30
0.000000
 11
2288.585535
 21
6610.340483
 31
0.000000
  0
ARC
  8
TEXT
  6
CONTINUOUS
 62
     1
 10
2288.585535
 20
6610.340483
 30
0.000000
 40
16.784131
 50
-2.014539
 51
180.000000
  0
LINE
  8
TEXT
  6
CONTINUOUS
 62
     1
 10
2264.337498
 20
6636.004418
 30
0.000000
 11
2288.585535
 21
6610.340483
 31
0.000000
  0
LINE
  8
TEXT
  6
CONTINUOUS
 62
     1
 10
2365.571168
 20
7176.125424
 30
0.000000
 11
2365.571168
 21
7166.125424
 31
0.000000
  0
LINE
  8
TEXT
  6
CONTINUOUS
 62
     1
 10
2375.571168
 20
7176.125424
 30
0.000000
 11
2375.571168
 21
7166.125424
 31
0.000000
  0
LINE
  8
TEXT
  6
CONTINUOUS
 62
     1
 10
2385.571168
 20
7176.125424
 30
0.000000
 11
2385.571168
 21
7166.125424
 31
0.000000
  0
LINE
  8
TEXT
  6
CONTINUOUS
 62
     1
 10
2395.571168
 20
7176.125424
 30
0.000000
 11
2395.571168
 21
7166.125424
 31
0.000000
  0
LINE
  8
TEXT
  6
CONTINUOUS
 62
     1
 10
2405.571168
 20
7176.125424
 30
0.000000
 11
2405.571168
 21
7166.125424
 31
0.000000
  0
LINE
  8
TEXT
  6
CONTINUOUS
 62
     1
 10
2415.571168
 20
7176.125424
 30
0.000000
 11
2415.571168
 21
7166.125424
 31
0.000000
  0
LINE
  8
TEXT
  6
CONTINUOUS
 62
     1
 10
2425.571168
 20
7176.125424
 30
0.000000
 11
2425.571168
 21
7166.125424
 31
0.000000
  0
LINE
  8
TEXT
  6
CONTINUOUS
 62
     1
 10
2435.571168
 20
7176.125424
 30
0.000000
 11
2435.571168
 21
7166.125424
 31
0.000000
  0
LINE
  8
TEXT
  6
CONTINUOUS
 62
     1
 10
2445.571168
 20
7176.125424
 30
0.000000
 11
2445.571168
 21
7166.125424
 31
0.000000
  0
LINE
  8
TEXT
  6
CONTINUOUS
 62
     1
 10
2455.571168
 20
7176.125424
 30
0.000000
 11
2455.571168
 21
7166.125424
 31
0.000000
  0
LINE
  8
TEXT
  6
CONTINUOUS
 62
     1
 10
2465.571168
 20
7176.125424
 30
0.000000
 11
2465.571168
 21
7166.125424
 31
0.000000
  0
LINE
  8
TEXT
  6
CONTINUOUS
 62
     1
 10
2365.571168
 20
7151.739631
 30
0.000000
 11
2365.571168
 21
7141.739631
 31
0.000000
  0
LINE
  8
TEXT
  6
CONTINUOUS
 62
     1
 10
2390.971168
 20
7151.739631
 30
0.000000
 11
2390.971168
 21
7141.739631
 31
0.000000
  0
LINE
  8
TEXT
  6
CONTINUOUS
 62
     1
 10
2416.371168
 20
7151.739631
 30
0.000000
 11
2416.371168
 21
7141.739631
 31
0.000000
  0
LINE
  8
TEXT
  6
CONTINUOUS
 62
     1
 10
2441.771168
 20
7151.739631
 30
0.000000
 11
2441.771168
 21
7141.739631
 31
0.000000
  0
LINE
  8
TEXT
  6
CONTINUOUS
 62
     1
 10
2467.171168
 20
7151.739631
 30
0.000000
 11
2467.171168
 21
7141.739631
 31
0.000000
  0
LINE
  8
TEXT
  6
CONTINUOUS
 62
     1
 10
2492.571168
 20
7151.739631
 30
0.000000
 11
2492.571168
 21
7141.739631
 31
0.000000
  0
LINE
  8
TEXT
  6
RIFLTYPE4
 62
     1
 10
2288.585535
 20
6610.340483
 30
0.000000
 11
2288.585535
 21
7110.340483
 31
0.000000
  0
LINE
  8
TEXT
  6
RIFLTYPE4
 62
     1
 10
3374.308492
 20
6644.138844
 30
0.000000
 11
3374.308492
 21
6792.863951
 31
0.000000
  0
TEXT
  8
TEXT
  6
CONTINUOUS
 62
     1
 10
2203.625242
 20
6634.363546
 30
0.000000
 40
5.000000
  1
C of G point
 41
1.100000
  7
TEXTSTYLE4
  0
TEXT
  8
TEXT
  6
CONTINUOUS
 62
     1
 10
2175.730421
 20
6953.923325
 30
0.000000
 40
5.000000
  1
aileron +/- 2,5 cm
 50
90.000000
 41
1.100000
  7
TEXTSTYLE4
  0
TEXT
  8
TEXT
  6
CONTINUOUS
 62
     1
 10
3419.809177
 20
6685.086670
 30
0.000000
 40
5.000000
  1
elevator +/- 1cm
 50
90.000000
 41
1.100000
  7
TEXTSTYLE4
  0
TEXT
  8
TEXT
  6
CONTINUOUS
 62
     1
 10
2347.713186
 20
7194.980688
 30
0.000000
 40
8.000000
  1
only for privat use
 41
1.100000
  7
TEXTSTYLE5
  0
TEXT
  8
TEXT
  6
CONTINUOUS
 62
     1
 10
2413.299314
 20
6619.610714
 30
0.000000
 40
8.000000
  1
Ottenweg 6, 29308 Winsen (Aller), Germany
 41
1.100000
  7
TEXTSTYLE5
  0
TEXT
  8
TEXT
  6
CONTINUOUS
 62
     1
 10
2374.512625
 20
7129.385987
 30
0.000000
 40
8.000000
  1
5 inc
 41
1.100000
  7
TEXTSTYLE5
  0
TEXT
  8
TEXT
  6
CONTINUOUS
 62
     1
 10
2473.071874
 20
7169.012901
 30
0.000000
 40
8.000000
  1
10 cm
 41
1.100000
  7
TEXTSTYLE5
  0
TEXT
  8
TEXT
  6
CONTINUOUS
 62
     1
 10
2313.216973
 20
6682.307613
 30
0.000000
 40
8.000000
  1
verztical wingprofile and carbontube
 50
90.000000
 41
1.100000
  7
TEXTSTYLE5
  0
TEXT
  8
TEXT
  6
CONTINUOUS
 62
     1
 10
2545.370651
 20
6771.377760
 30
0.000000
 40
8.000000
  1
use 6mm depron for the formers, vertical and horizontal profiles
 41
1.100000
  7
TEXTSTYLE5
  0
TEXT
  8
TEXT
  6
CONTINUOUS
 62
     1
 10
2363.594840
 20
6623.360315
 30
0.000000
 40
8.000000
  1
use  3mm depron for top and bottom of the wing
 50
90.000000
 41
1.100000
  7
TEXTSTYLE5
  0
TEXT
  8
TEXT
  6
CONTINUOUS
 62
     1
 10
3368.150798
 20
6670.822185
 30
0.000000
 40
8.000000
  1
carbon tube
 50
90.000000
 41
1.100000
  7
TEXTSTYLE5
  0
TEXT
  8
TEXT
  6
CONTINUOUS
 62
     1
 10
2415.774973
 20
6634.464673
 30
0.000000
 40
8.000000
  1
done under pressure :-) 2007 by Dipl.-Ing. Hans-Joachim Walter
 41
1.100000
  7
TEXTSTYLE5
  0
TEXT
  8
TEXT
  6
CONTINUOUS
 62
     1
 10
2414.648895
 20
6721.551989
 30
0.000000
 40
8.000000
  1
you can find a build thread under www.rcgroups.com   foamies (scratchbuild)
 41
1.100000
  7
TEXTSTYLE5
  0
TEXT
  8
TEXT
  6
CONTINUOUS
 62
     1
 10
2346.573652
 20
7210.191619
 30
0.000000
 40
8.000000
  1
SPITFIRE MK Vb, scale 1/9, for park 480, 3s1p ( ~25 A), 11x7 prop
 41
1.100000
  7
TEXTSTYLE5
  0
POLYLINE
  8
TEXT
  6
CONTINUOUS
 62
     1
 66
     1
 70
     1
 40
0.000000
 41
0.000000
 10
0.000000
 20
0.000000
 30
0.000000
  0
VERTEX
  8
TEXT
 62
     0
 10
3494.152994
 20
6598.980880
 30
0.000000
 42
0.000000
 70
     0
  0
VERTEX
  8
TEXT
 62
     0
 10
3494.152994
 20
7298.980880
 30
0.000000
 42
0.000000
 70
     0
  0
VERTEX
  8
TEXT
 62
     0
 10
2044.152994
 20
7298.980880
 30
0.000000
 42
0.000000
 70
     0
  0
VERTEX
  8
TEXT
 62
     0
 10
2044.152994
 20
6598.980880
 30
0.000000
 42
0.000000
 70
     0
  0
SEQEND
  8
TEXT
  0
LINE
  8
VERTICAL
  6
CONTINUOUS
 62
     1
 10
2661.478129
 20
7011.513308
 30
0.000000
 11
2661.478129
 21
7178.096000
 31
0.000000
  0
LINE
  8
VERTICAL
  6
RIFLTYPE5
 62
     1
 10
2661.478129
 20
7011.513308
 30
0.000000
 11
2761.478129
 21
7011.513308
 31
0.000000
  0
LINE
  8
VERTICAL
  6
CONTINUOUS
 62
     1
 10
2661.478129
 20
7029.013308
 30
0.000000
 11
2989.478129
 21
7029.013308
 31
0.000000
  0
LINE
  8
VERTICAL
  6
RIFLTYPE2
 62
     1
 10
2661.478129
 20
7029.013308
 30
0.000000
 11
2670.951940
 21
7035.275038
 31
0.000000
  0
LINE
  8
VERTICAL
  6
RIFLTYPE2
 62
     1
 10
2670.951940
 20
7035.275038
 30
0.000000
 11
2685.687704
 21
7039.204575
 31
0.000000
  0
LINE
  8
VERTICAL
  6
RIFLTYPE2
 62
     1
 10
2685.687704
 20
7039.204575
 30
0.000000
 11
2710.247312
 21
7043.134112
 31
0.000000
  0
LINE
  8
VERTICAL
  6
RIFLTYPE2
 62
     1
 10
2710.247312
 20
7043.134112
 30
0.000000
 11
2736.771688
 21
7045.098881
 31
0.000000
  0
LINE
  8
VERTICAL
  6
RIFLTYPE2
 62
     1
 10
2736.771688
 20
7045.098881
 30
0.000000
 11
2761.331295
 21
7047.063650
 31
0.000000
  0
LINE
  8
VERTICAL
  6
RIFLTYPE2
 62
     1
 10
2761.331295
 20
7047.063650
 30
0.000000
 11
2817.327199
 21
7045.098881
 31
0.000000
  0
LINE
  8
VERTICAL
  6
RIFLTYPE2
 62
     1
 10
2817.327199
 20
7045.098881
 30
0.000000
 11
2989.478129
 21
7029.013308
 31
0.000000
  0
LINE
  8
VERTICAL
  6
CONTINUOUS
 62
     1
 10
2661.478129
 20
7029.013308
 30
0.000000
 11
2989.478129
 21
7029.013308
 31
0.000000
  0
LINE
  8
VERTICAL
  6
RIFLTYPE2
 62
     1
 10
2661.478129
 20
7029.013308
 30
0.000000
 11
2670.951940
 21
7022.751578
 31
0.000000
  0
LINE
  8
VERTICAL
  6
RIFLTYPE2
 62
     1
 10
2670.951940
 20
7022.751578
 30
0.000000
 11
2685.687704
 21
7018.822041
 31
0.000000
  0
LINE
  8
VERTICAL
  6
RIFLTYPE2
 62
     1
 10
2685.687704
 20
7018.822041
 30
0.000000
 11
2710.247312
 21
7014.892504
 31
0.000000
  0
LINE
  8
VERTICAL
  6
RIFLTYPE2
 62
     1
 10
2710.247312
 20
7014.892504
 30
0.000000
 11
2736.771688
 21
7012.927735
 31
0.000000
  0
LINE
  8
VERTICAL
  6
RIFLTYPE2
 62
     1
 10
2736.771688
 20
7012.927735
 30
0.000000
 11
2761.331295
 21
7010.962967
 31
0.000000
  0
LINE
  8
VERTICAL
  6
RIFLTYPE2
 62
     1
 10
2761.331295
 20
7010.962967
 30
0.000000
 11
2817.327199
 21
7012.927735
 31
0.000000
  0
LINE
  8
VERTICAL
  6
RIFLTYPE2
 62
     1
 10
2817.327199
 20
7012.927735
 30
0.000000
 11
2989.478129
 21
7029.013308
 31
0.000000
  0
LINE
  8
VERTICAL
  6
CONTINUOUS
 62
     1
 10
2989.478129
 20
7029.013308
 30
0.000000
 11
3184.528208
 21
7029.013308
 31
0.000000
  0
LINE
  8
VERTICAL
  6
CONTINUOUS
 62
     1
 10
2661.478129
 20
7029.013308
 30
0.000000
 11
2604.665345
 21
7029.013308
 31
0.000000
  0
POLYLINE
  8
VERTICAL
  6
RIFLTYPE5
 62
     1
 66
     1
 70
     1
 40
0.000000
 41
0.000000
 10
0.000000
 20
0.000000
 30
0.000000
  0
VERTEX
  8
VERTICAL
 62
     0
 10
2431.348452
 20
7094.747522
 30
0.000000
 42
0.000000
 70
     0
  0
VERTEX
  8
VERTICAL
 62
     0
 10
2432.971077
 20
7089.204197
 30
0.000000
 42
0.000000
 70
     0
  0
VERTEX
  8
VERTICAL
 62
     0
 10
2436.576089
 20
7084.841313
 30
0.000000
 42
0.000000
 70
     0
  0
VERTEX
  8
VERTICAL
 62
     0
 10
2441.082354
 20
7081.154369
 30
0.000000
 42
0.000000
 70
     0
  0
VERTEX
  8
VERTICAL
 62
     0
 10
2449.275562
 20
7076.238444
 30
0.000000
 42
0.000000
 70
     0
  0
VERTEX
  8
VERTICAL
 62
     0
 10
2464.432998
 20
7069.274217
 30
0.000000
 42
0.000000
 70
     0
  0
VERTEX
  8
VERTICAL
 62
     0
 10
2483.687038
 20
7063.538971
 30
0.000000
 42
0.000000
 70
     0
  0
VERTEX
  8
VERTICAL
 62
     0
 10
2495.976851
 20
7060.261688
 30
0.000000
 42
0.000000
 70
     0
  0
VERTEX
  8
VERTICAL
 62
     0
 10
2496.386511
 20
7063.538971
 30
0.000000
 42
0.000000
 70
     0
  0
VERTEX
  8
VERTICAL
 62
     0
 10
2506.628022
 20
7062.309990
 30
0.000000
 42
0.000000
 70
     0
  0
VERTEX
  8
VERTICAL
 62
     0
 10
2509.823373
 20
7061.244873
 30
0.000000
 42
0.000000
 70
     0
  0
VERTEX
  8
VERTICAL
 62
     0
 10
2515.968280
 20
7053.051664
 30
0.000000
 42
0.000000
 70
     0
  0
VERTEX
  8
VERTICAL
 62
     0
 10
2527.029111
 20
7043.629474
 30
0.000000
 42
0.000000
 70
     0
  0
VERTEX
  8
VERTICAL
 62
     0
 10
2538.335739
 20
7036.542349
 30
0.000000
 42
0.000000
 70
     0
  0
VERTEX
  8
VERTICAL
 62
     0
 10
2555.541477
 20
7028.758801
 30
0.000000
 42
0.000000
 70
     0
  0
VERTEX
  8
VERTICAL
 62
     0
 10
2570.289252
 20
7023.842876
 30
0.000000
 42
0.000000
 70
     0
  0
VERTEX
  8
VERTICAL
 62
     0
 10
2588.314311
 20
7019.746271
 30
0.000000
 42
0.000000
 70
     0
  0
VERTEX
  8
VERTICAL
 62
     0
 10
2616.580881
 20
7015.240007
 30
0.000000
 42
0.000000
 70
     0
  0
VERTEX
  8
VERTICAL
 62
     0
 10
2649.763375
 20
7011.962723
 30
0.000000
 42
0.000000
 70
     0
  0
VERTEX
  8
VERTICAL
 62
     0
 10
2681.798821
 20
7010.733742
 30
0.000000
 42
0.000000
 70
     0
  0
VERTEX
  8
VERTICAL
 62
     0
 10
2680.979500
 20
7006.637138
 30
0.000000
 42
0.000000
 70
     0
  0
VERTEX
  8
VERTICAL
 62
     0
 10
2671.147649
 20
7003.359854
 30
0.000000
 42
0.000000
 70
     0
  0
VERTEX
  8
VERTICAL
 62
     0
 10
2672.786291
 20
6994.347325
 30
0.000000
 42
0.000000
 70
     0
  0
VERTEX
  8
VERTICAL
 62
     0
 10
2680.160179
 20
6993.118344
 30
0.000000
 42
0.000000
 70
     0
  0
VERTEX
  8
VERTICAL
 62
     0
 10
2694.907954
 20
6993.118344
 30
0.000000
 42
0.000000
 70
     0
  0
VERTEX
  8
VERTICAL
 62
     0
 10
2702.691502
 20
6993.118344
 30
0.000000
 42
0.000000
 70
     0
  0
VERTEX
  8
VERTICAL
 62
     0
 10
2723.174524
 20
6995.985967
 30
0.000000
 42
0.000000
 70
     0
  0
VERTEX
  8
VERTICAL
 62
     0
 10
2744.476866
 20
7000.082571
 30
0.000000
 42
0.000000
 70
     0
  0
VERTEX
  8
VERTICAL
 62
     0
 10
2745.296187
 20
7003.769515
 30
0.000000
 42
0.000000
 70
     0
  0
VERTEX
  8
VERTICAL
 62
     0
 10
2760.863283
 20
7002.950194
 30
0.000000
 42
0.000000
 70
     0
  0
VERTEX
  8
VERTICAL
 62
     0
 10
2771.842182
 20
7000.901892
 30
0.000000
 42
0.000000
 70
     0
  0
VERTEX
  8
VERTICAL
 62
     0
 10
2772.721130
 20
7000.887622
 30
0.000000
 42
0.000000
 70
     0
  0
VERTEX
  8
VERTICAL
 62
     0
 10
2773.316858
 20
7000.877950
 30
0.000000
 42
0.000000
 70
     0
  0
VERTEX
  8
VERTICAL
 62
     0
 10
2775.873910
 20
7000.836436
 30
0.000000
 42
0.000000
 70
     0
  0
VERTEX
  8
VERTICAL
 62
     0
 10
2786.139319
 20
7000.669776
 30
0.000000
 42
0.000000
 70
     0
  0
VERTEX
  8
VERTICAL
 62
     0
 10
2804.602481
 20
7001.144247
 30
0.000000
 42
0.000000
 70
     0
  0
VERTEX
  8
VERTICAL
 62
     0
 10
2825.094015
 20
7002.272346
 30
0.000000
 42
0.000000
 70
     0
  0
VERTEX
  8
VERTICAL
 62
     0
 10
2855.111304
 20
7004.300541
 30
0.000000
 42
0.000000
 70
     0
  0
VERTEX
  8
VERTICAL
 62
     0
 10
2858.912779
 20
7004.601177
 30
0.000000
 42
0.000000
 70
     0
  0
VERTEX
  8
VERTICAL
 62
     0
 10
2892.114258
 20
7007.339791
 30
0.000000
 42
0.000000
 70
     0
  0
VERTEX
  8
VERTICAL
 62
     0
 10
2891.468286
 20
7007.286508
 30
0.000000
 42
0.000000
 70
     0
  0
VERTEX
  8
VERTICAL
 62
     0
 10
2893.326647
 20
7007.439794
 30
0.000000
 42
0.000000
 70
     0
  0
VERTEX
  8
VERTICAL
 62
     0
 10
2886.711544
 20
7006.894150
 30
0.000000
 42
0.000000
 70
     0
  0
VERTEX
  8
VERTICAL
 62
     0
 10
2895.185008
 20
7007.593081
 30
0.000000
 42
0.000000
 70
     0
  0
VERTEX
  8
VERTICAL
 62
     0
 10
2903.752840
 20
7008.275779
 30
0.000000
 42
0.000000
 70
     0
  0
VERTEX
  8
VERTICAL
 62
     0
 10
2911.913869
 20
7008.972955
 30
0.000000
 42
0.000000
 70
     0
  0
VERTEX
  8
VERTICAL
 62
     0
 10
2938.812368
 20
7010.555220
 30
0.000000
 42
0.000000
 70
     0
  0
VERTEX
  8
VERTICAL
 62
     0
 10
2966.027319
 20
7013.403296
 30
0.000000
 42
0.000000
 70
     0
  0
VERTEX
  8
VERTICAL
 62
     0
 10
3020.077480
 20
7019.194385
 30
0.000000
 42
0.000000
 70
     0
  0
VERTEX
  8
VERTICAL
 62
     0
 10
3030.520426
 20
7020.460197
 30
0.000000
 42
0.000000
 70
     0
  0
VERTEX
  8
VERTICAL
 62
     0
 10
3037.165938
 20
7018.877932
 30
0.000000
 42
0.000000
 70
     0
  0
VERTEX
  8
VERTICAL
 62
     0
 10
3041.912732
 20
7017.928573
 30
0.000000
 42
0.000000
 70
     0
  0
VERTEX
  8
VERTICAL
 62
     0
 10
3046.343073
 20
7019.194385
 30
0.000000
 42
0.000000
 70
     0
  0
VERTEX
  8
VERTICAL
 62
     0
 10
3052.355678
 20
7022.042461
 30
0.000000
 42
0.000000
 70
     0
  0
VERTEX
  8
VERTICAL
 62
     0
 10
3060.583454
 20
7023.624726
 30
0.000000
 42
0.000000
 70
     0
  0
VERTEX
  8
VERTICAL
 62
     0
 10
3150.645958
 20
7034.811337
 30
0.000000
 42
0.000000
 70
     0
  0
VERTEX
  8
VERTICAL
 62
     0
 10
3291.783964
 20
7054.114966
 30
0.000000
 42
0.000000
 70
     0
  0
VERTEX
  8
VERTICAL
 62
     0
 10
3369.188350
 20
7063.925006
 30
0.000000
 42
0.000000
 70
     0
  0
VERTEX
  8
VERTICAL
 62
     0
 10
3370.201000
 20
7060.444024
 30
0.000000
 42
0.000000
 70
     0
  0
VERTEX
  8
VERTICAL
 62
     0
 10
3389.124885
 20
7045.887189
 30
0.000000
 42
0.000000
 70
     0
  0
VERTEX
  8
VERTICAL
 62
     0
 10
3387.542620
 20
7045.887189
 30
0.000000
 42
0.000000
 70
     0
  0
VERTEX
  8
VERTICAL
 62
     0
 10
3389.757791
 20
7043.672019
 30
0.000000
 42
0.000000
 70
     0
  0
VERTEX
  8
VERTICAL
 62
     0
 10
3399.251379
 20
7034.811337
 30
0.000000
 42
0.000000
 70
     0
  0
VERTEX
  8
VERTICAL
 62
     0
 10
3401.466549
 20
7035.127790
 30
0.000000
 42
0.000000
 70
     0
  0
VERTEX
  8
VERTICAL
 62
     0
 10
3403.681720
 20
7034.811337
 30
0.000000
 42
0.000000
 70
     0
  0
VERTEX
  8
VERTICAL
 62
     0
 10
3404.947531
 20
7034.178431
 30
0.000000
 42
0.000000
 70
     0
  0
VERTEX
  8
VERTICAL
 62
     0
 10
3410.960137
 20
7029.748090
 30
0.000000
 42
0.000000
 70
     0
  0
VERTEX
  8
VERTICAL
 62
     0
 10
3417.922101
 20
7029.115184
 30
0.000000
 42
0.000000
 70
     0
  0
VERTEX
  8
VERTICAL
 62
     0
 10
3426.149877
 20
7030.380996
 30
0.000000
 42
0.000000
 70
     0
  0
VERTEX
  8
VERTICAL
 62
     0
 10
3432.478936
 20
7035.127790
 30
0.000000
 42
0.000000
 70
     0
  0
VERTEX
  8
VERTICAL
 62
     0
 10
3435.327012
 20
7043.039113
 30
0.000000
 42
0.000000
 70
     0
  0
VERTEX
  8
VERTICAL
 62
     0
 10
3434.061201
 20
7052.532701
 30
0.000000
 42
0.000000
 70
     0
  0
VERTEX
  8
VERTICAL
 62
     0
 10
3428.048595
 20
7060.444024
 30
0.000000
 42
0.000000
 70
     0
  0
VERTEX
  8
VERTICAL
 62
     0
 10
3417.922101
 20
7062.342742
 30
0.000000
 42
0.000000
 70
     0
  0
VERTEX
  8
VERTICAL
 62
     0
 10
3408.428513
 20
7060.444024
 30
0.000000
 42
0.000000
 70
     0
  0
VERTEX
  8
VERTICAL
 62
     0
 10
3403.048814
 20
7055.380777
 30
0.000000
 42
0.000000
 70
     0
  0
VERTEX
  8
VERTICAL
 62
     0
 10
3401.466549
 20
7050.001078
 30
0.000000
 42
0.000000
 70
     0
  0
VERTEX
  8
VERTICAL
 62
     0
 10
3388.808432
 20
7061.076930
 30
0.000000
 42
0.000000
 70
     0
  0
VERTEX
  8
VERTICAL
 62
     0
 10
3389.124885
 20
7062.975648
 30
0.000000
 42
0.000000
 70
     0
  0
VERTEX
  8
VERTICAL
 62
     0
 10
3398.934926
 20
7065.190818
 30
0.000000
 42
0.000000
 70
     0
  0
VERTEX
  8
VERTICAL
 62
     0
 10
3418.871460
 20
7067.089536
 30
0.000000
 42
0.000000
 70
     0
  0
VERTEX
  8
VERTICAL
 62
     0
 10
3440.706712
 20
7071.519877
 30
0.000000
 42
0.000000
 70
     0
  0
VERTEX
  8
VERTICAL
 62
     0
 10
3457.795170
 20
7079.114747
 30
0.000000
 42
0.000000
 70
     0
  0
VERTEX
  8
VERTICAL
 62
     0
 10
3469.187476
 20
7089.557694
 30
0.000000
 42
0.000000
 70
     0
  0
VERTEX
  8
VERTICAL
 62
     0
 10
3477.478542
 20
7101.535437
 30
0.000000
 42
0.000000
 70
     0
  0
VERTEX
  8
VERTICAL
 62
     0
 10
3480.959525
 20
7109.446760
 30
0.000000
 42
0.000000
 70
     0
  0
VERTEX
  8
VERTICAL
 62
     0
 10
3482.858242
 20
7118.307442
 30
0.000000
 42
0.000000
 70
     0
  0
VERTEX
  8
VERTICAL
 62
     0
 10
3486.972130
 20
7119.889707
 30
0.000000
 42
0.000000
 70
     0
  0
VERTEX
  8
VERTICAL
 62
     0
 10
3486.972130
 20
7122.737783
 30
0.000000
 42
0.000000
 70
     0
  0
VERTEX
  8
VERTICAL
 62
     0
 10
3484.124054
 20
7127.801030
 30
0.000000
 42
0.000000
 70
     0
  0
VERTEX
  8
VERTICAL
 62
     0
 10
3483.807601
 20
7150.269188
 30
0.000000
 42
0.000000
 70
     0
  0
VERTEX
  8
VERTICAL
 62
     0
 10
3480.643072
 20
7181.914481
 30
0.000000
 42
0.000000
 70
     0
  0
VERTEX
  8
VERTICAL
 62
     0
 10
3476.529184
 20
7201.534562
 30
0.000000
 42
0.000000
 70
     0
  0
VERTEX
  8
VERTICAL
 62
     0
 10
3468.934313
 20
7219.888832
 30
0.000000
 42
0.000000
 70
     0
  0
VERTEX
  8
VERTICAL
 62
     0
 10
3460.706537
 20
7232.863402
 30
0.000000
 42
0.000000
 70
     0
  0
VERTEX
  8
VERTICAL
 62
     0
 10
3450.263591
 20
7245.837972
 30
0.000000
 42
0.000000
 70
     0
  0
VERTEX
  8
VERTICAL
 62
     0
 10
3436.592824
 20
7253.749296
 30
0.000000
 42
0.000000
 70
     0
  0
VERTEX
  8
VERTICAL
 62
     0
 10
3426.466330
 20
7255.964466
 30
0.000000
 42
0.000000
 70
     0
  0
VERTEX
  8
VERTICAL
 62
     0
 10
3426.149877
 20
7258.812542
 30
0.000000
 42
0.000000
 70
     0
  0
VERTEX
  8
VERTICAL
 62
     0
 10
3415.706931
 20
7258.496089
 30
0.000000
 42
0.000000
 70
     0
  0
VERTEX
  8
VERTICAL
 62
     0
 10
3415.074025
 20
7256.913825
 30
0.000000
 42
0.000000
 70
     0
  0
VERTEX
  8
VERTICAL
 62
     0
 10
3409.820906
 20
7253.432843
 30
0.000000
 42
0.000000
 70
     0
  0
VERTEX
  8
VERTICAL
 62
     0
 10
3399.377960
 20
7247.736690
 30
0.000000
 42
0.000000
 70
     0
  0
VERTEX
  8
VERTICAL
 62
     0
 10
3392.415995
 20
7241.407631
 30
0.000000
 42
0.000000
 70
     0
  0
VERTEX
  8
VERTICAL
 62
     0
 10
3381.340143
 20
7228.116608
 30
0.000000
 42
0.000000
 70
     0
  0
VERTEX
  8
VERTICAL
 62
     0
 10
3372.479461
 20
7215.458491
 30
0.000000
 42
0.000000
 70
     0
  0
VERTEX
  8
VERTICAL
 62
     0
 10
3363.935232
 20
7200.268751
 30
0.000000
 42
0.000000
 70
     0
  0
VERTEX
  8
VERTICAL
 62
     0
 10
3356.213780
 20
7179.699310
 30
0.000000
 42
0.000000
 70
     0
  0
VERTEX
  8
VERTICAL
 62
     0
 10
3349.251816
 20
7170.522175
 30
0.000000
 42
0.000000
 70
     0
  0
VERTEX
  8
VERTICAL
 62
     0
 10
3339.758228
 20
7160.395682
 30
0.000000
 42
0.000000
 70
     0
  0
VERTEX
  8
VERTICAL
 62
     0
 10
3324.884940
 20
7151.851453
 30
0.000000
 42
0.000000
 70
     0
  0
VERTEX
  8
VERTICAL
 62
     0
 10
3312.226823
 20
7151.535000
 30
0.000000
 42
0.000000
 70
     0
  0
VERTEX
  8
VERTICAL
 62
     0
 10
3311.720499
 20
7149.319829
 30
0.000000
 42
0.000000
 70
     0
  0
VERTEX
  8
VERTICAL
 62
     0
 10
3257.227304
 20
7153.750170
 30
0.000000
 42
0.000000
 70
     0
  0
VERTEX
  8
VERTICAL
 62
     0
 10
3207.417613
 20
7157.864058
 30
0.000000
 42
0.000000
 70
     0
  0
VERTEX
  8
VERTICAL
 62
     0
 10
3152.671257
 20
7161.661493
 30
0.000000
 42
0.000000
 70
     0
  0
VERTEX
  8
VERTICAL
 62
     0
 10
3118.114597
 20
7163.243758
 30
0.000000
 42
0.000000
 70
     0
  0
VERTEX
  8
VERTICAL
 62
     0
 10
3104.823574
 20
7164.509570
 30
0.000000
 42
0.000000
 70
     0
  0
VERTEX
  8
VERTICAL
 62
     0
 10
3058.937899
 20
7166.724740
 30
0.000000
 42
0.000000
 70
     0
  0
VERTEX
  8
VERTICAL
 62
     0
 10
3009.824405
 20
7168.623458
 30
0.000000
 42
0.000000
 70
     0
  0
VERTEX
  8
VERTICAL
 62
     0
 10
3005.077611
 20
7244.572161
 30
0.000000
 42
0.000000
 70
     0
  0
VERTEX
  8
VERTICAL
 62
     0
 10
3002.545987
 20
7244.572161
 30
0.000000
 42
0.000000
 70
     0
  0
VERTEX
  8
VERTICAL
 62
     0
 10
3000.330817
 20
7170.205722
 30
0.000000
 42
0.000000
 70
     0
  0
VERTEX
  8
VERTICAL
 62
     0
 10
2993.368852
 20
7169.889269
 30
0.000000
 42
0.000000
 70
     0
  0
VERTEX
  8
VERTICAL
 62
     0
 10
2993.432143
 20
7173.813286
 30
0.000000
 42
0.000000
 70
     0
  0
VERTEX
  8
VERTICAL
 62
     0
 10
2986.470179
 20
7173.496833
 30
0.000000
 42
0.000000
 70
     0
  0
VERTEX
  8
VERTICAL
 62
     0
 10
2983.938555
 20
7173.180380
 30
0.000000
 42
0.000000
 70
     0
  0
VERTEX
  8
VERTICAL
 62
     0
 10
2981.723385
 20
7171.598115
 30
0.000000
 42
0.000000
 70
     0
  0
VERTEX
  8
VERTICAL
 62
     0
 10
2936.976941
 20
7171.914568
 30
0.000000
 42
0.000000
 70
     0
  0
VERTEX
  8
VERTICAL
 62
     0
 10
2934.128864
 20
7173.496833
 30
0.000000
 42
0.000000
 70
     0
  0
VERTEX
  8
VERTICAL
 62
     0
 10
2922.736559
 20
7175.712003
 30
0.000000
 42
0.000000
 70
     0
  0
VERTEX
  8
VERTICAL
 62
     0
 10
2909.445536
 20
7176.661362
 30
0.000000
 42
0.000000
 70
     0
  0
VERTEX
  8
VERTICAL
 62
     0
 10
2897.103872
 20
7176.344909
 30
0.000000
 42
0.000000
 70
     0
  0
VERTEX
  8
VERTICAL
 62
     0
 10
2883.496396
 20
7174.762645
 30
0.000000
 42
0.000000
 70
     0
  0
VERTEX
  8
VERTICAL
 62
     0
 10
2875.268620
 20
7172.231021
 30
0.000000
 42
0.000000
 70
     0
  0
VERTEX
  8
VERTICAL
 62
     0
 10
2874.319261
 20
7173.496833
 30
0.000000
 42
0.000000
 70
     0
  0
VERTEX
  8
VERTICAL
 62
     0
 10
2872.104090
 20
7178.243627
 30
0.000000
 42
0.000000
 70
     0
  0
VERTEX
  8
VERTICAL
 62
     0
 10
2866.724391
 20
7176.028456
 30
0.000000
 42
0.000000
 70
     0
  0
VERTEX
  8
VERTICAL
 62
     0
 10
2865.711741
 20
7171.914568
 30
0.000000
 42
0.000000
 70
     0
  0
VERTEX
  8
VERTICAL
 62
     0
 10
2832.231021
 20
7149.984380
 30
0.000000
 42
0.000000
 70
     0
  0
VERTEX
  8
VERTICAL
 62
     0
 10
2831.977859
 20
7148.117308
 30
0.000000
 42
0.000000
 70
     0
  0
VERTEX
  8
VERTICAL
 62
     0
 10
2826.281706
 20
7147.800855
 30
0.000000
 42
0.000000
 70
     0
  0
VERTEX
  8
VERTICAL
 62
     0
 10
2733.371126
 20
7146.645802
 30
0.000000
 42
0.000000
 70
     0
  0
VERTEX
  8
VERTICAL
 62
     0
 10
2721.029462
 20
7146.329349
 30
0.000000
 42
0.000000
 70
     0
  0
VERTEX
  8
VERTICAL
 62
     0
 10
2704.637201
 20
7145.696443
 30
0.000000
 42
0.000000
 70
     0
  0
VERTEX
  8
VERTICAL
 62
     0
 10
2675.586822
 20
7145.063537
 30
0.000000
 42
0.000000
 70
     0
  0
VERTEX
  8
VERTICAL
 62
     0
 10
2655.080672
 20
7143.797726
 30
0.000000
 42
0.000000
 70
     0
  0
VERTEX
  8
VERTICAL
 62
     0
 10
2628.878369
 20
7142.531914
 30
0.000000
 42
0.000000
 70
     0
  0
VERTEX
  8
VERTICAL
 62
     0
 10
2607.422861
 20
7141.266102
 30
0.000000
 42
0.000000
 70
     0
  0
VERTEX
  8
VERTICAL
 62
     0
 10
2574.258594
 20
7138.734479
 30
0.000000
 42
0.000000
 70
     0
  0
VERTEX
  8
VERTICAL
 62
     0
 10
2539.258900
 20
7134.937044
 30
0.000000
 42
0.000000
 70
     0
  0
VERTEX
  8
VERTICAL
 62
     0
 10
2527.550142
 20
7133.354779
 30
0.000000
 42
0.000000
 70
     0
  0
VERTEX
  8
VERTICAL
 62
     0
 10
2514.259119
 20
7131.772514
 30
0.000000
 42
0.000000
 70
     0
  0
VERTEX
  8
VERTICAL
 62
     0
 10
2494.322584
 20
7127.975079
 30
0.000000
 42
0.000000
 70
     0
  0
VERTEX
  8
VERTICAL
 62
     0
 10
2494.955490
 20
7129.873797
 30
0.000000
 42
0.000000
 70
     0
  0
VERTEX
  8
VERTICAL
 62
     0
 10
2491.158055
 20
7129.240891
 30
0.000000
 42
0.000000
 70
     0
  0
VERTEX
  8
VERTICAL
 62
     0
 10
2483.879638
 20
7127.658626
 30
0.000000
 42
0.000000
 70
     0
  0
VERTEX
  8
VERTICAL
 62
     0
 10
2474.386050
 20
7124.810550
 30
0.000000
 42
0.000000
 70
     0
  0
VERTEX
  8
VERTICAL
 62
     0
 10
2468.056991
 20
7122.595379
 30
0.000000
 42
0.000000
 70
     0
  0
VERTEX
  8
VERTICAL
 62
     0
 10
2461.095027
 20
7119.114397
 30
0.000000
 42
0.000000
 70
     0
  0
VERTEX
  8
VERTICAL
 62
     0
 10
2455.715327
 20
7116.582774
 30
0.000000
 42
0.000000
 70
     0
  0
VERTEX
  8
VERTICAL
 62
     0
 10
2449.702721
 20
7114.051150
 30
0.000000
 42
0.000000
 70
     0
  0
VERTEX
  8
VERTICAL
 62
     0
 10
2443.373663
 20
7109.304356
 30
0.000000
 42
0.000000
 70
     0
  0
VERTEX
  8
VERTICAL
 62
     0
 10
2437.044604
 20
7104.557562
 30
0.000000
 42
0.000000
 70
     0
  0
VERTEX
  8
VERTICAL
 62
     0
 10
2432.297810
 20
7099.810768
 30
0.000000
 42
0.000000
 70
     0
  0
SEQEND
  8
VERTICAL
  0
LINE
  8
WING
  6
CONTINUOUS
 62
     1
 10
2225.731463
 20
7147.157048
 30
0.000000
 11
2194.008488
 21
7147.924059
 31
0.000000
  0
LINE
  8
WING
  6
CONTINUOUS
 62
     1
 10
2190.296563
 20
6924.239861
 30
0.000000
 11
2225.731463
 21
7147.157048
 31
0.000000
  0
LINE
  8
WING
  6
CONTINUOUS
 62
     1
 10
2124.156249
 20
6921.918460
 30
0.000000
 11
2190.296563
 21
6924.239861
 31
0.000000
  0
LINE
  8
WING
  6
RIFLTYPE3
 62
     1
 10
2637.202731
 20
6610.340483
 30
0.000000
 11
2001.801836
 21
6610.340483
 31
0.000000
  0
LINE
  8
WING
  6
RIFLTYPE3
 62
     1
 10
3165.503582
 20
6708.616029
 30
0.000000
 11
3165.503582
 21
6616.928341
 31
0.000000
  0
LINE
  8
WING
  6
CONTINUOUS
 62
     1
 10
2632.615073
 20
6997.056439
 30
0.000000
 11
2661.920499
 21
6998.016985
 31
0.000000
  0
LINE
  8
WING
  6
CONTINUOUS
 62
     1
 10
2661.920499
 20
6998.016985
 30
0.000000
 11
2649.739100
 21
6999.562394
 31
0.000000
  0
LINE
  8
WING
  6
CONTINUOUS
 62
     1
 10
2661.920499
 20
6998.016985
 30
0.000000
 11
2650.992077
 21
6994.968143
 31
0.000000
  0
LINE
  8
WING
  6
CONTINUOUS
 62
     1
 10
2661.478129
 20
7011.513308
 30
0.000000
 11
2661.478129
 21
6993.096446
 31
0.000000
  0
TEXT
  8
WING
  6
CONTINUOUS
 62
     1
 10
2555.468975
 20
6979.866415
 30
0.000000
 40
8.000000
  1
wing leading edge
 41
1.100000
  7
TEXTSTYLE5
  0
POLYLINE
  8
WING
  6
CONTINUOUS
 62
     1
 66
     1
 70
     1
 40
0.000000
 41
0.000000
 10
0.000000
 20
0.000000
 30
0.000000
  0
VERTEX
  8
WING
 62
     0
 10
2286.172688
 20
7234.670492
 30
0.000000
 42
0.000000
 70
     0
  0
VERTEX
  8
WING
 62
     0
 10
2281.581099
 20
7235.345056
 30
0.000000
 42
0.000000
 70
     0
  0
VERTEX
  8
WING
 62
     0
 10
2274.960751
 20
7234.106347
 30
0.000000
 42
0.000000
 70
     0
  0
VERTEX
  8
WING
 62
     0
 10
2263.320787
 20
7227.743585
 30
0.000000
 42
0.000000
 70
     0
  0
VERTEX
  8
WING
 62
     0
 10
2250.951981
 20
7218.271369
 30
0.000000
 42
0.000000
 70
     0
  0
VERTEX
  8
WING
 62
     0
 10
2235.531111
 20
7200.164206
 30
0.000000
 42
0.000000
 70
     0
  0
VERTEX
  8
WING
 62
     0
 10
2220.142375
 20
7178.935915
 30
0.000000
 42
0.000000
 70
     0
  0
VERTEX
  8
WING
 62
     0
 10
2202.404631
 20
7149.001879
 30
0.000000
 42
0.000000
 70
     0
  0
VERTEX
  8
WING
 62
     0
 10
2193.209950
 20
7132.519550
 30
0.000000
 42
0.000000
 70
     0
  0
VERTEX
  8
WING
 62
     0
 10
2173.718452
 20
7092.910443
 30
0.000000
 42
0.000000
 70
     0
  0
VERTEX
  8
WING
 62
     0
 10
2158.940782
 20
7050.228408
 30
0.000000
 42
0.000000
 70
     0
  0
VERTEX
  8
WING
 62
     0
 10
2143.913558
 20
6993.887418
 30
0.000000
 42
0.000000
 70
     0
  0
VERTEX
  8
WING
 62
     0
 10
2127.132504
 20
6922.194201
 30
0.000000
 42
0.000000
 70
     0
  0
VERTEX
  8
WING
 62
     0
 10
2118.669393
 20
6872.553896
 30
0.000000
 42
0.000000
 70
     0
  0
VERTEX
  8
WING
 62
     0
 10
2111.477126
 20
6813.172114
 30
0.000000
 42
0.000000
 70
     0
  0
VERTEX
  8
WING
 62
     0
 10
2106.442386
 20
6760.250556
 30
0.000000
 42
0.000000
 70
     0
  0
VERTEX
  8
WING
 62
     0
 10
2105.243334
 20
6725.121790
 30
0.000000
 42
0.000000
 70
     0
  0
VERTEX
  8
WING
 62
     0
 10
2100.802649
 20
6701.665123
 30
0.000000
 42
0.000000
 70
     0
  0
VERTEX
  8
WING
 62
     0
 10
2088.535042
 20
6680.468966
 30
0.000000
 42
0.000000
 70
     0
  0
VERTEX
  8
WING
 62
     0
 10
2074.602433
 20
6669.400410
 30
0.000000
 42
0.000000
 70
     0
  0
VERTEX
  8
WING
 62
     0
 10
2061.023814
 20
6661.847141
 30
0.000000
 42
0.000000
 70
     0
  0
VERTEX
  8
WING
 62
     0
 10
2060.773751
 20
6610.340483
 30
0.000000
 42
0.000000
 70
     0
  0
VERTEX
  8
WING
 62
     0
 10
2388.585535
 20
6610.340483
 30
0.000000
 42
0.000000
 70
     0
  0
VERTEX
  8
WING
 62
     0
 10
2389.467654
 20
6645.934205
 30
0.000000
 42
0.000000
 70
     0
  0
VERTEX
  8
WING
 62
     0
 10
2389.306981
 20
6661.539849
 30
0.000000
 42
0.000000
 70
     0
  0
VERTEX
  8
WING
 62
     0
 10
2389.806087
 20
6688.857759
 30
0.000000
 42
0.000000
 70
     0
  0
VERTEX
  8
WING
 62
     0
 10
2388.804105
 20
6831.654219
 30
0.000000
 42
0.000000
 70
     0
  0
VERTEX
  8
WING
 62
     0
 10
2393.855855
 20
6833.657143
 30
0.000000
 42
0.000000
 70
     0
  0
VERTEX
  8
WING
 62
     0
 10
2413.765101
 20
6832.691577
 30
0.000000
 42
0.000000
 70
     0
  0
VERTEX
  8
WING
 62
     0
 10
2415.735891
 20
6830.760955
 30
0.000000
 42
0.000000
 70
     0
  0
VERTEX
  8
WING
 62
     0
 10
2426.257650
 20
6832.039832
 30
0.000000
 42
0.000000
 70
     0
  0
VERTEX
  8
WING
 62
     0
 10
2428.952486
 20
6835.579220
 30
0.000000
 42
0.000000
 70
     0
  0
VERTEX
  8
WING
 62
     0
 10
2487.851741
 20
6837.356181
 30
0.000000
 42
0.000000
 70
     0
  0
VERTEX
  8
WING
 62
     0
 10
2486.691863
 20
6843.899304
 30
0.000000
 42
0.000000
 70
     0
  0
VERTEX
  8
WING
 62
     0
 10
2427.760474
 20
6845.243472
 30
0.000000
 42
0.000000
 70
     0
  0
VERTEX
  8
WING
 62
     0
 10
2427.744407
 20
6846.804036
 30
0.000000
 42
0.000000
 70
     0
  0
VERTEX
  8
WING
 62
     0
 10
2414.865734
 20
6847.061623
 30
0.000000
 42
0.000000
 70
     0
  0
VERTEX
  8
WING
 62
     0
 10
2414.101519
 20
6845.493025
 30
0.000000
 42
0.000000
 70
     0
  0
VERTEX
  8
WING
 62
     0
 10
2394.208340
 20
6844.898026
 30
0.000000
 42
0.000000
 70
     0
  0
VERTEX
  8
WING
 62
     0
 10
2388.352207
 20
6845.227915
 30
0.000000
 42
0.000000
 70
     0
  0
VERTEX
  8
WING
 62
     0
 10
2387.459454
 20
6856.143832
 30
0.000000
 42
0.000000
 70
     0
  0
VERTEX
  8
WING
 62
     0
 10
2394.079803
 20
6857.382541
 30
0.000000
 42
0.000000
 70
     0
  0
VERTEX
  8
WING
 62
     0
 10
2396.018458
 20
6858.573049
 30
0.000000
 42
0.000000
 70
     0
  0
VERTEX
  8
WING
 62
     0
 10
2397.538854
 20
6862.490527
 30
0.000000
 42
0.000000
 70
     0
  0
VERTEX
  8
WING
 62
     0
 10
2397.104528
 20
6866.778062
 30
0.000000
 42
0.000000
 70
     0
  0
VERTEX
  8
WING
 62
     0
 10
2393.959298
 20
6869.086774
 30
0.000000
 42
0.000000
 70
     0
  0
VERTEX
  8
WING
 62
     0
 10
2386.944792
 20
6868.234189
 30
0.000000
 42
0.000000
 70
     0
  0
VERTEX
  8
WING
 62
     0
 10
2384.974003
 20
6870.164811
 30
0.000000
 42
0.000000
 70
     0
  0
VERTEX
  8
WING
 62
     0
 10
2381.330689
 20
6920.851018
 30
0.000000
 42
0.000000
 70
     0
  0
VERTEX
  8
WING
 62
     0
 10
2378.105634
 20
6968.810255
 30
0.000000
 42
0.000000
 70
     0
  0
VERTEX
  8
WING
 62
     0
 10
2370.302023
 20
7029.442300
 30
0.000000
 42
0.000000
 70
     0
  0
VERTEX
  8
WING
 62
     0
 10
2361.639094
 20
7075.004455
 30
0.000000
 42
0.000000
 70
     0
  0
VERTEX
  8
WING
 62
     0
 10
2350.170362
 20
7120.225576
 30
0.000000
 42
0.000000
 70
     0
  0
VERTEX
  8
WING
 62
     0
 10
2336.069558
 20
7163.390649
 30
0.000000
 42
0.000000
 70
     0
  0
VERTEX
  8
WING
 62
     0
 10
2322.467349
 20
7196.025929
 30
0.000000
 42
0.000000
 70
     0
  0
VERTEX
  8
WING
 62
     0
 10
2308.583453
 20
7218.123383
 30
0.000000
 42
0.000000
 70
     0
  0
VERTEX
  8
WING
 62
     0
 10
2296.750682
 20
7230.487394
 30
0.000000
 42
0.000000
 70
     0
  0
SEQEND
  8
WING
  0
POLYLINE
  8
WINGFORM
  6
CONTINUOUS
 62
     1
 66
     1
 70
     1
 40
0.000000
 41
0.000000
 10
0.000000
 20
0.000000
 30
0.000000
  0
VERTEX
  8
WINGFORM
 62
     0
 10
3164.319447
 20
6673.199728
 30
0.000000
 42
0.000000
 70
     0
  0
VERTEX
  8
WINGFORM
 62
     0
 10
3165.503582
 20
6673.134232
 30
0.000000
 42
0.000000
 70
     0
  0
VERTEX
  8
WINGFORM
 62
     0
 10
3165.503582
 20
6638.586541
 30
0.000000
 42
0.000000
 70
     0
  0
VERTEX
  8
WINGFORM
 62
     0
 10
3102.562235
 20
6638.131104
 30
0.000000
 42
0.000000
 70
     0
  0
VERTEX
  8
WINGFORM
 62
     0
 10
3103.017672
 20
6634.943048
 30
0.000000
 42
0.000000
 70
     0
  0
VERTEX
  8
WINGFORM
 62
     0
 10
3101.651362
 20
6617.636454
 30
0.000000
 42
0.000000
 70
     0
  0
VERTEX
  8
WINGFORM
 62
     0
 10
3099.829615
 20
6611.260341
 30
0.000000
 42
0.000000
 70
     0
  0
VERTEX
  8
WINGFORM
 62
     0
 10
3097.552432
 20
6610.349468
 30
0.000000
 42
0.000000
 70
     0
  0
VERTEX
  8
WINGFORM
 62
     0
 10
3031.514115
 20
6613.537524
 30
0.000000
 42
0.000000
 70
     0
  0
VERTEX
  8
WINGFORM
 62
     0
 10
3030.603242
 20
6614.903834
 30
0.000000
 42
0.000000
 70
     0
  0
VERTEX
  8
WINGFORM
 62
     0
 10
3029.236932
 20
6645.418091
 30
0.000000
 42
0.000000
 70
     0
  0
VERTEX
  8
WINGFORM
 62
     0
 10
3035.613045
 20
6644.507218
 30
0.000000
 42
0.000000
 70
     0
  0
VERTEX
  8
WINGFORM
 62
     0
 10
2929.587389
 20
6656.804008
 30
0.000000
 42
0.000000
 70
     0
  0
VERTEX
  8
WINGFORM
 62
     0
 10
2827.114139
 20
6669.100798
 30
0.000000
 42
0.000000
 70
     0
  0
VERTEX
  8
WINGFORM
 62
     0
 10
2750.145342
 20
6678.664968
 30
0.000000
 42
0.000000
 70
     0
  0
VERTEX
  8
WINGFORM
 62
     0
 10
2631.276372
 20
6691.872631
 30
0.000000
 42
0.000000
 70
     0
  0
VERTEX
  8
WINGFORM
 62
     0
 10
2554.307575
 20
6700.981364
 30
0.000000
 42
0.000000
 70
     0
  0
VERTEX
  8
WINGFORM
 62
     0
 10
2554.307575
 20
6702.803111
 30
0.000000
 42
0.000000
 70
     0
  0
VERTEX
  8
WINGFORM
 62
     0
 10
2633.098119
 20
6701.892238
 30
0.000000
 42
0.000000
 70
     0
  0
VERTEX
  8
WINGFORM
 62
     0
 10
2730.015041
 20
6699.159618
 30
0.000000
 42
0.000000
 70
     0
  0
VERTEX
  8
WINGFORM
 62
     0
 10
2781.023948
 20
6696.882434
 30
0.000000
 42
0.000000
 70
     0
  0
VERTEX
  8
WINGFORM
 62
     0
 10
2883.861547
 20
6690.961758
 30
0.000000
 42
0.000000
 70
     0
  0
VERTEX
  8
WINGFORM
 62
     0
 10
2908.910564
 20
6689.595448
 30
0.000000
 42
0.000000
 70
     0
  0
VERTEX
  8
WINGFORM
 62
     0
 10
2969.483641
 20
6684.585644
 30
0.000000
 42
0.000000
 70
     0
  0
VERTEX
  8
WINGFORM
 62
     0
 10
3062.757070
 20
6675.476911
 30
0.000000
 42
0.000000
 70
     0
  0
VERTEX
  8
WINGFORM
 62
     0
 10
3106.478990
 20
6673.655164
 30
0.000000
 42
0.000000
 70
     0
  0
SEQEND
  8
WINGFORM
  0
LINE
  8
WINGLOAD
  6
CONTINUOUS
 62
     1
 10
2773.212296
 20
7009.449580
 30
0.000000
 11
2899.364666
 21
7009.449580
 31
0.000000
  0
LINE
  8
WINGLOAD
  6
CONTINUOUS
 62
     1
 10
2899.364666
 20
7009.449580
 30
0.000000
 11
2895.182819
 21
6992.489869
 31
0.000000
  0
LINE
  8
WINGLOAD
  6
CONTINUOUS
 62
     1
 10
2895.182819
 20
6992.489869
 30
0.000000
 11
2857.546201
 21
6982.732227
 31
0.000000
  0
LINE
  8
WINGLOAD
  6
CONTINUOUS
 62
     1
 10
2857.546201
 20
6982.732227
 30
0.000000
 11
2809.919615
 21
6977.853406
 31
0.000000
  0
LINE
  8
WINGLOAD
  6
CONTINUOUS
 62
     1
 10
2809.919615
 20
6977.853406
 30
0.000000
 11
2791.101306
 21
6978.318056
 31
0.000000
  0
LINE
  8
WINGLOAD
  6
CONTINUOUS
 62
     1
 10
2791.101306
 20
6978.318056
 30
0.000000
 11
2774.373920
 21
6980.176654
 31
0.000000
  0
LINE
  8
WINGLOAD
  6
CONTINUOUS
 62
     1
 10
2774.373920
 20
6980.176654
 30
0.000000
 11
2773.316858
 21
7000.877950
 31
0.000000
  0
LINE
  8
WINGLOAD
  6
CONTINUOUS
 62
     1
 10
2772.721130
 20
7000.887622
 30
0.000000
 11
2773.212296
 21
7009.449580
 31
0.000000
  0
LINE
  8
WINGLOAD
  6
CONTINUOUS
 62
     1
 10
3116.232243
 20
7177.028768
 30
0.000000
 11
3097.870543
 21
7164.787635
 31
0.000000
  0
LINE
  8
WINGLOAD
  6
CONTINUOUS
 62
     1
 10
2278.906226
 20
6745.490120
 30
0.000000
 11
2278.168535
 21
6686.195861
 31
0.000000
  0
LINE
  8
WINGLOAD
  6
CONTINUOUS
 62
     1
 10
2278.168535
 20
6686.195861
 30
0.000000
 11
2241.832022
 21
6672.488094
 31
0.000000
  0
LINE
  8
WINGLOAD
  6
CONTINUOUS
 62
     1
 10
2278.962691
 20
6686.187985
 30
0.000000
 11
2278.112087
 21
6745.480731
 31
0.000000
  0
LINE
  8
WINGLOAD
  6
CONTINUOUS
 62
     1
 10
2278.112087
 20
6745.480731
 30
0.000000
 11
2241.749535
 21
6759.119277
 31
0.000000
  0
LINE
  8
WINGLOAD
  6
CONTINUOUS
 62
     1
 10
2241.749535
 20
6759.119277
 30
0.000000
 11
2206.383915
 21
6759.232348
 31
0.000000
  0
LINE
  8
WINGLOAD
  6
CONTINUOUS
 62
     1
 10
2241.832022
 20
6672.488094
 30
0.000000
 11
2206.466681
 21
6672.307676
 31
0.000000
  0
LINE
  8
WINGLOAD
  6
CONTINUOUS
 62
     1
 10
2206.383915
 20
6759.232348
 30
0.000000
 11
2169.439757
 21
6753.629499
 31
0.000000
  0
LINE
  8
WINGLOAD
  6
CONTINUOUS
 62
     1
 10
2206.466681
 20
6672.307676
 30
0.000000
 11
2169.511920
 21
6677.840162
 31
0.000000
  0
LINE
  8
WINGLOAD
  6
CONTINUOUS
 62
     1
 10
2169.511920
 20
6677.840162
 30
0.000000
 11
2141.907960
 21
6685.500720
 31
0.000000
  0
LINE
  8
WINGLOAD
  6
CONTINUOUS
 62
     1
 10
2141.907960
 20
6685.500720
 30
0.000000
 11
2152.293612
 21
6688.674255
 31
0.000000
  0
LINE
  8
WINGLOAD
  6
CONTINUOUS
 62
     1
 10
2169.439757
 20
6753.629499
 30
0.000000
 11
2141.850435
 21
6745.916388
 31
0.000000
  0
LINE
  8
WINGLOAD
  6
CONTINUOUS
 62
     1
 10
2141.850435
 20
6745.916388
 30
0.000000
 11
2152.242111
 21
6742.762636
 31
0.000000
  0
LINE
  8
WINGLOAD
  6
CONTINUOUS
 62
     1
 10
3035.613045
 20
6644.507218
 30
0.000000
 11
3102.562235
 21
6638.131104
 31
0.000000
  0
TEXT
  8
WINGLOAD
  6
CONTINUOUS
 62
     1
 10
3119.866968
 20
7177.692393
 30
0.000000
 40
6.000000
  1
cut this line for 2-3mm skin
 41
1.100000
  7
TEXTSTYLE3
  0
ENDSEC
  0
EOF
