  0
SECTION
  2
HEADER
  9
$ACADVER
  1
AC1009
  9
$INSBASE
 10
0.0
 20
0.0
 30
0.0
  9
$EXTMIN
 10
2453.226968188304
 20
-26.68446422340276
 30
0.0
  9
$EXTMAX
 10
2527.8432172871999
 20
41.147811455431111
 30
0.0
  9
$LIMMIN
 10
0.0
 20
0.0
  9
$LIMMAX
 10
420.0
 20
297.0
  9
$ORTHOMODE
 70
     1
  9
$REGENMODE
 70
     1
  9
$FILLMODE
 70
     1
  9
$QTEXTMODE
 70
     0
  9
$MIRRTEXT
 70
     0
  9
$DRAGMODE
 70
     2
  9
$LTSCALE
 40
1.0
  9
$OSMODE
 70
   679
  9
$ATTMODE
 70
     1
  9
$TEXTSIZE
 40
2.5
  9
$TRACEWID
 40
1.0
  9
$TEXTSTYLE
  7
STANDARD
  9
$CLAYER
  8
0
  9
$CELTYPE
  6
BYLAYER
  9
$CECOLOR
 62
   256
  9
$DIMSCALE
 40
1.0
  9
$DIMASZ
 40
2.5
  9
$DIMEXO
 40
0.625
  9
$DIMDLI
 40
3.75
  9
$DIMRND
 40
0.0
  9
$DIMDLE
 40
0.0
  9
$DIMEXE
 40
1.25
  9
$DIMTP
 40
0.0
  9
$DIMTM
 40
0.0
  9
$DIMTXT
 40
2.5
  9
$DIMCEN
 40
2.5
  9
$DIMTSZ
 40
0.0
  9
$DIMTOL
 70
     0
  9
$DIMLIM
 70
     0
  9
$DIMTIH
 70
     0
  9
$DIMTOH
 70
     0
  9
$DIMSE1
 70
     0
  9
$DIMSE2
 70
     0
  9
$DIMTAD
 70
     1
  9
$DIMZIN
 70
     8
  9
$DIMBLK
  1

  9
$DIMASO
 70
     1
  9
$DIMSHO
 70
     1
  9
$DIMPOST
  1

  9
$DIMAPOST
  1

  9
$DIMALT
 70
     0
  9
$DIMALTD
 70
     3
  9
$DIMALTF
 40
0.03937007874016
  9
$DIMLFAC
 40
1.0
  9
$DIMTOFL
 70
     1
  9
$DIMTVP
 40
0.0
  9
$DIMTIX
 70
     0
  9
$DIMSOXD
 70
     0
  9
$DIMSAH
 70
     0
  9
$DIMBLK1
  1

  9
$DIMBLK2
  1

  9
$DIMSTYLE
  2
ISO-25
  9
$DIMCLRD
 70
     0
  9
$DIMCLRE
 70
     0
  9
$DIMCLRT
 70
     0
  9
$DIMTFAC
 40
1.0
  9
$DIMGAP
 40
0.625
  9
$LUNITS
 70
     2
  9
$LUPREC
 70
     4
  9
$SKETCHINC
 40
1.0
  9
$FILLETRAD
 40
0.0
  9
$AUNITS
 70
     0
  9
$AUPREC
 70
     0
  9
$MENU
  1
.
  9
$ELEVATION
 40
0.0
  9
$PELEVATION
 40
0.0
  9
$THICKNESS
 40
0.0
  9
$LIMCHECK
 70
     0
  9
$BLIPMODE
 70
     0
  9
$CHAMFERA
 40
0.0
  9
$CHAMFERB
 40
0.0
  9
$SKPOLY
 70
     0
  9
$TDCREATE
 40
2457725.4392935191
  9
$TDUPDATE
 40
2457725.5053838892
  9
$TDINDWG
 40
0.0447002431
  9
$TDUSRTIMER
 40
0.0446980324
  9
$USRTIMER
 70
     1
  9
$ANGBASE
 50
0.0
  9
$ANGDIR
 70
     0
  9
$PDMODE
 70
     0
  9
$PDSIZE
 40
0.0
  9
$PLINEWID
 40
0.0
  9
$COORDS
 70
     1
  9
$SPLFRAME
 70
     0
  9
$SPLINETYPE
 70
     6
  9
$SPLINESEGS
 70
     8
  9
$ATTDIA
 70
     0
  9
$ATTREQ
 70
     1
  9
$HANDLING
 70
     1
  9
$HANDSEED
  5
431
  9
$SURFTAB1
 70
     6
  9
$SURFTAB2
 70
     6
  9
$SURFTYPE
 70
     6
  9
$SURFU
 70
     6
  9
$SURFV
 70
     6
  9
$UCSNAME
  2

  9
$UCSORG
 10
0.0
 20
0.0
 30
0.0
  9
$UCSXDIR
 10
1.0
 20
0.0
 30
0.0
  9
$UCSYDIR
 10
0.0
 20
1.0
 30
0.0
  9
$PUCSNAME
  2

  9
$PUCSORG
 10
0.0
 20
0.0
 30
0.0
  9
$PUCSXDIR
 10
1.0
 20
0.0
 30
0.0
  9
$PUCSYDIR
 10
0.0
 20
1.0
 30
0.0
  9
$USERI1
 70
     0
  9
$USERI2
 70
     0
  9
$USERI3
 70
     0
  9
$USERI4
 70
     0
  9
$USERI5
 70
     0
  9
$USERR1
 40
0.0
  9
$USERR2
 40
0.0
  9
$USERR3
 40
0.0
  9
$USERR4
 40
0.0
  9
$USERR5
 40
0.0
  9
$WORLDVIEW
 70
     1
  9
$SHADEDGE
 70
     3
  9
$SHADEDIF
 70
    70
  9
$TILEMODE
 70
     1
  9
$MAXACTVP
 70
    64
  9
$PLIMCHECK
 70
     0
  9
$PEXTMIN
 10
0.0
 20
0.0
 30
0.0
  9
$PEXTMAX
 10
0.0
 20
0.0
 30
0.0
  9
$PLIMMIN
 10
0.0
 20
0.0
  9
$PLIMMAX
 10
12.0
 20
9.0
  9
$UNITMODE
 70
     0
  9
$VISRETAIN
 70
     1
  9
$PLINEGEN
 70
     0
  9
$PSLTSCALE
 70
     1
  0
ENDSEC
  0
SECTION
  2
TABLES
  0
TABLE
  2
VPORT
 70
     1
  0
VPORT
  2
*ACTIVE
 70
     0
 10
0.0
 20
0.0
 11
1.0
 21
1.0
 12
2476.0598396239352
 22
10.60094813223634
 13
0.0
 23
0.0
 14
10.0
 24
10.0
 15
10.0
 25
10.0
 16
0.0
 26
0.0
 36
1.0
 17
0.0
 27
0.0
 37
0.0
 40
84.382140289522681
 41
2.3584474885844751
 42
50.0
 43
0.0
 44
0.0
 50
0.0
 51
0.0
 71
     0
 72
  1000
 73
     1
 74
     3
 75
     0
 76
     0
 77
     0
 78
     0
  0
ENDTAB
  0
TABLE
  2
LTYPE
 70
     2
  0
LTYPE
  2
CONTINUOUS
 70
     0
  3
Solid line
 72
    65
 73
     0
 40
0.0
  0
ENDTAB
  0
TABLE
  2
LAYER
 70
     2
  0
LAYER
  2
0
 70
     0
 62
     7
  6
CONTINUOUS
  0
LAYER
  2
DEFPOINTS
 70
     0
 62
     7
  6
CONTINUOUS
  0
ENDTAB
  0
TABLE
  2
STYLE
 70
     2
  0
STYLE
  2
STANDARD
 70
     0
 40
0.0
 41
1.0
 50
0.0
 71
     0
 42
2.5
  3
txt.shx
  4

  0
STYLE
  2
АННОТАТИВНЫЙ
 70
     0
 40
0.0
 41
1.0
 50
0.0
 71
     0
 42
2.5
  3
txt.shx
  4

  0
ENDTAB
  0
TABLE
  2
VIEW
 70
     2
  0
ENDTAB
  0
TABLE
  2
UCS
 70
     0
  0
ENDTAB
  0
TABLE
  2
APPID
 70
     8
  0
APPID
  2
ACAD
 70
     0
  0
APPID
  2
ACAD_PSEXT
 70
     0
  0
APPID
  2
ACADANNOPO
 70
     0
  0
APPID
  2
ACADANNOTATIVE
 70
     0
  0
APPID
  2
ACAD_DSTYLE_DIMJAG
 70
     0
  0
APPID
  2
ACAD_DSTYLE_DIMTALN
 70
     0
  0
APPID
  2
ACAD_MLEADERVER
 70
     0
  0
APPID
  2
ACAD_EXEMPT_FROM_CAD_STANDARDS
 70
     0
  0
ENDTAB
  0
TABLE
  2
DIMSTYLE
 70
     3
  0
DIMSTYLE
  2
ISO-25
 70
     0
  3

  4

  5

  6

  7

 40
1.0
 41
2.5
 42
0.625
 43
3.75
 44
1.25
 45
0.0
 46
0.0
 47
0.0
 48
0.0
140
2.5
141
2.5
142
0.0
143
0.03937007874016
144
1.0
145
0.0
146
1.0
147
0.625
 71
     0
 72
     0
 73
     0
 74
     0
 75
     0
 76
     0
 77
     1
 78
     8
170
     0
171
     3
172
     1
173
     0
174
     0
175
     0
176
     0
177
     0
178
     0
  0
DIMSTYLE
  2
АННОТАТИВНЫЙ
 70
     0
  3

  4

  5

  6

  7

 40
0.0
 41
2.5
 42
0.625
 43
3.75
 44
1.25
 45
0.0
 46
0.0
 47
0.0
 48
0.0
140
2.5
141
2.5
142
0.0
143
0.03937007874016
144
1.0
145
0.0
146
1.0
147
0.625
 71
     0
 72
     0
 73
     0
 74
     0
 75
     0
 76
     0
 77
     1
 78
     8
170
     0
171
     3
172
     1
173
     0
174
     0
175
     0
176
     0
177
     0
178
     0
  0
ENDTAB
  0
ENDSEC
  0
SECTION
  2
BLOCKS
  0
BLOCK
  8
0
  2
$MODEL_SPACE
 70
     0
 10
0.0
 20
0.0
 30
0.0
  3
$MODEL_SPACE
  1

  0
ENDBLK
  5
21
  8
0
  0
BLOCK
 67
     1
  8
0
  2
$PAPER_SPACE
 70
     0
 10
0.0
 20
0.0
 30
0.0
  3
$PAPER_SPACE
  1

  0
ENDBLK
  5
D5
 67
     1
  8
0
  0
ENDSEC
  0
SECTION
  2
ENTITIES
  0
LINE
  5
1C6
  8
0
 10
2463.2269681883049
 20
41.147811455431111
 30
0.0
 11
2463.2269681883049
 21
31.147811455431111
 31
0.0
  0
POLYLINE
  5
1D9
  8
0
 10
2463.2269681883049
 20
21.147811455431111
 30
0.0
 66
     1
 70
     8
  0
VERTEX
  8
0
  5
2AB
 10
2463.23
 20
21.1478
 30
0.000000
  70
    32
  0
VERTEX
  8
0
  5
2AC
 10
2463.47
 20
21.1493
 30
0.000000
  70
    32
  0
VERTEX
  8
0
  5
2AD
 10
2463.72
 20
21.1538
 30
0.000000
  70
    32
  0
VERTEX
  8
0
  5
2AE
 10
2463.96
 20
21.1614
 30
0.000000
  70
    32
  0
VERTEX
  8
0
  5
2AF
 10
2464.21
 20
21.1719
 30
0.000000
  70
    32
  0
VERTEX
  8
0
  5
2B0
 10
2464.45
 20
21.1854
 30
0.000000
  70
    32
  0
VERTEX
  8
0
  5
2B1
 10
2464.69
 20
21.2019
 30
0.000000
  70
    32
  0
VERTEX
  8
0
  5
2B2
 10
2464.94
 20
21.2214
 30
0.000000
  70
    32
  0
VERTEX
  8
0
  5
2B3
 10
2465.18
 20
21.2439
 30
0.000000
  70
    32
  0
VERTEX
  8
0
  5
2B4
 10
2465.42
 20
21.2693
 30
0.000000
  70
    32
  0
VERTEX
  8
0
  5
2B5
 10
2465.66
 20
21.2977
 30
0.000000
  70
    32
  0
VERTEX
  8
0
  5
2B6
 10
2465.89
 20
21.3289
 30
0.000000
  70
    32
  0
VERTEX
  8
0
  5
2B7
 10
2466.13
 20
21.3631
 30
0.000000
  70
    32
  0
VERTEX
  8
0
  5
2B8
 10
2466.36
 20
21.4002
 30
0.000000
  70
    32
  0
VERTEX
  8
0
  5
2B9
 10
2466.60
 20
21.4401
 30
0.000000
  70
    32
  0
VERTEX
  8
0
  5
2BA
 10
2466.83
 20
21.4828
 30
0.000000
  70
    32
  0
VERTEX
  8
0
  5
2BB
 10
2467.05
 20
21.5284
 30
0.000000
  70
    32
  0
VERTEX
  8
0
  5
2BC
 10
2467.28
 20
21.5768
 30
0.000000
  70
    32
  0
VERTEX
  8
0
  5
2BD
 10
2467.50
 20
21.6279
 30
0.000000
  70
    32
  0
VERTEX
  8
0
  5
2BE
 10
2467.72
 20
21.6817
 30
0.000000
  70
    32
  0
VERTEX
  8
0
  5
2BF
 10
2467.94
 20
21.7382
 30
0.000000
  70
    32
  0
VERTEX
  8
0
  5
2C0
 10
2468.16
 20
21.7974
 30
0.000000
  70
    32
  0
VERTEX
  8
0
  5
2C1
 10
2468.37
 20
21.8592
 30
0.000000
  70
    32
  0
VERTEX
  8
0
  5
2C2
 10
2468.58
 20
21.9235
 30
0.000000
  70
    32
  0
VERTEX
  8
0
  5
2C3
 10
2468.78
 20
21.9905
 30
0.000000
  70
    32
  0
VERTEX
  8
0
  5
2C4
 10
2468.99
 20
22.0599
 30
0.000000
  70
    32
  0
VERTEX
  8
0
  5
2C5
 10
2469.18
 20
22.1318
 30
0.000000
  70
    32
  0
VERTEX
  8
0
  5
2C6
 10
2469.38
 20
22.2061
 30
0.000000
  70
    32
  0
VERTEX
  8
0
  5
2C7
 10
2469.57
 20
22.2828
 30
0.000000
  70
    32
  0
VERTEX
  8
0
  5
2C8
 10
2469.76
 20
22.3618
 30
0.000000
  70
    32
  0
VERTEX
  8
0
  5
2C9
 10
2469.94
 20
22.4431
 30
0.000000
  70
    32
  0
VERTEX
  8
0
  5
2CA
 10
2470.12
 20
22.5266
 30
0.000000
  70
    32
  0
VERTEX
  8
0
  5
2CB
 10
2470.30
 20
22.6123
 30
0.000000
  70
    32
  0
VERTEX
  8
0
  5
2CC
 10
2470.47
 20
22.7001
 30
0.000000
  70
    32
  0
VERTEX
  8
0
  5
2CD
 10
2470.64
 20
22.7900
 30
0.000000
  70
    32
  0
VERTEX
  8
0
  5
2CE
 10
2470.80
 20
22.8819
 30
0.000000
  70
    32
  0
VERTEX
  8
0
  5
2CF
 10
2470.96
 20
22.9758
 30
0.000000
  70
    32
  0
VERTEX
  8
0
  5
2D0
 10
2471.11
 20
23.0717
 30
0.000000
  70
    32
  0
VERTEX
  8
0
  5
2D1
 10
2471.26
 20
23.1693
 30
0.000000
  70
    32
  0
VERTEX
  8
0
  5
2D2
 10
2471.40
 20
23.2688
 30
0.000000
  70
    32
  0
VERTEX
  8
0
  5
2D3
 10
2471.54
 20
23.3700
 30
0.000000
  70
    32
  0
VERTEX
  8
0
  5
2D4
 10
2471.68
 20
23.4728
 30
0.000000
  70
    32
  0
VERTEX
  8
0
  5
2D5
 10
2471.80
 20
23.5773
 30
0.000000
  70
    32
  0
VERTEX
  8
0
  5
2D6
 10
2471.93
 20
23.6833
 30
0.000000
  70
    32
  0
VERTEX
  8
0
  5
2D7
 10
2472.05
 20
23.7908
 30
0.000000
  70
    32
  0
VERTEX
  8
0
  5
2D8
 10
2472.16
 20
23.8998
 30
0.000000
  70
    32
  0
VERTEX
  8
0
  5
2D9
 10
2472.27
 20
24.0100
 30
0.000000
  70
    32
  0
VERTEX
  8
0
  5
2DA
 10
2472.37
 20
24.1216
 30
0.000000
  70
    32
  0
VERTEX
  8
0
  5
2DB
 10
2472.47
 20
24.2344
 30
0.000000
  70
    32
  0
VERTEX
  8
0
  5
2DC
 10
2472.56
 20
24.3483
 30
0.000000
  70
    32
  0
VERTEX
  8
0
  5
2DD
 10
2472.64
 20
24.4634
 30
0.000000
  70
    32
  0
VERTEX
  8
0
  5
2DE
 10
2472.72
 20
24.5794
 30
0.000000
  70
    32
  0
VERTEX
  8
0
  5
2DF
 10
2472.80
 20
24.6964
 30
0.000000
  70
    32
  0
VERTEX
  8
0
  5
2E0
 10
2472.86
 20
24.8142
 30
0.000000
  70
    32
  0
VERTEX
  8
0
  5
2E1
 10
2472.93
 20
24.9329
 30
0.000000
  70
    32
  0
VERTEX
  8
0
  5
2E2
 10
2472.98
 20
25.0523
 30
0.000000
  70
    32
  0
VERTEX
  8
0
  5
2E3
 10
2473.03
 20
25.1724
 30
0.000000
  70
    32
  0
VERTEX
  8
0
  5
2E4
 10
2473.08
 20
25.2930
 30
0.000000
  70
    32
  0
VERTEX
  8
0
  5
2E5
 10
2473.12
 20
25.4142
 30
0.000000
  70
    32
  0
VERTEX
  8
0
  5
2E6
 10
2473.15
 20
25.5358
 30
0.000000
  70
    32
  0
VERTEX
  8
0
  5
2E7
 10
2473.18
 20
25.6577
 30
0.000000
  70
    32
  0
VERTEX
  8
0
  5
2E8
 10
2473.20
 20
25.7800
 30
0.000000
  70
    32
  0
VERTEX
  8
0
  5
2E9
 10
2473.21
 20
25.9025
 30
0.000000
  70
    32
  0
VERTEX
  8
0
  5
2EA
 10
2473.22
 20
26.0251
 30
0.000000
  70
    32
  0
VERTEX
  8
0
  5
2EB
 10
2473.23
 20
26.1478
 30
0.000000
  70
    32
  0
VERTEX
  8
0
  5
2EC
 10
2473.22
 20
26.2705
 30
0.000000
  70
    32
  0
VERTEX
  8
0
  5
2ED
 10
2473.21
 20
26.3931
 30
0.000000
  70
    32
  0
VERTEX
  8
0
  5
2EE
 10
2473.20
 20
26.5156
 30
0.000000
  70
    32
  0
VERTEX
  8
0
  5
2EF
 10
2473.18
 20
26.6379
 30
0.000000
  70
    32
  0
VERTEX
  8
0
  5
2F0
 10
2473.15
 20
26.7599
 30
0.000000
  70
    32
  0
VERTEX
  8
0
  5
2F1
 10
2473.12
 20
26.8815
 30
0.000000
  70
    32
  0
VERTEX
  8
0
  5
2F2
 10
2473.08
 20
27.0026
 30
0.000000
  70
    32
  0
VERTEX
  8
0
  5
2F3
 10
2473.03
 20
27.1233
 30
0.000000
  70
    32
  0
VERTEX
  8
0
  5
2F4
 10
2472.98
 20
27.2433
 30
0.000000
  70
    32
  0
VERTEX
  8
0
  5
2F5
 10
2472.93
 20
27.3627
 30
0.000000
  70
    32
  0
VERTEX
  8
0
  5
2F6
 10
2472.86
 20
27.4814
 30
0.000000
  70
    32
  0
VERTEX
  8
0
  5
2F7
 10
2472.80
 20
27.5992
 30
0.000000
  70
    32
  0
VERTEX
  8
0
  5
2F8
 10
2472.72
 20
27.7162
 30
0.000000
  70
    32
  0
VERTEX
  8
0
  5
2F9
 10
2472.64
 20
27.8323
 30
0.000000
  70
    32
  0
VERTEX
  8
0
  5
2FA
 10
2472.56
 20
27.9473
 30
0.000000
  70
    32
  0
VERTEX
  8
0
  5
2FB
 10
2472.47
 20
28.0612
 30
0.000000
  70
    32
  0
VERTEX
  8
0
  5
2FC
 10
2472.37
 20
28.1740
 30
0.000000
  70
    32
  0
VERTEX
  8
0
  5
2FD
 10
2472.27
 20
28.2856
 30
0.000000
  70
    32
  0
VERTEX
  8
0
  5
2FE
 10
2472.16
 20
28.3959
 30
0.000000
  70
    32
  0
VERTEX
  8
0
  5
2FF
 10
2472.05
 20
28.5048
 30
0.000000
  70
    32
  0
VERTEX
  8
0
  5
300
 10
2471.93
 20
28.6123
 30
0.000000
  70
    32
  0
VERTEX
  8
0
  5
301
 10
2471.80
 20
28.7183
 30
0.000000
  70
    32
  0
VERTEX
  8
0
  5
302
 10
2471.68
 20
28.8228
 30
0.000000
  70
    32
  0
VERTEX
  8
0
  5
303
 10
2471.54
 20
28.9257
 30
0.000000
  70
    32
  0
VERTEX
  8
0
  5
304
 10
2471.40
 20
29.0269
 30
0.000000
  70
    32
  0
VERTEX
  8
0
  5
305
 10
2471.26
 20
29.1263
 30
0.000000
  70
    32
  0
VERTEX
  8
0
  5
306
 10
2471.11
 20
29.2240
 30
0.000000
  70
    32
  0
VERTEX
  8
0
  5
307
 10
2470.96
 20
29.3198
 30
0.000000
  70
    32
  0
VERTEX
  8
0
  5
308
 10
2470.80
 20
29.4137
 30
0.000000
  70
    32
  0
VERTEX
  8
0
  5
309
 10
2470.64
 20
29.5056
 30
0.000000
  70
    32
  0
VERTEX
  8
0
  5
30A
 10
2470.47
 20
29.5955
 30
0.000000
  70
    32
  0
VERTEX
  8
0
  5
30B
 10
2470.30
 20
29.6833
 30
0.000000
  70
    32
  0
VERTEX
  8
0
  5
30C
 10
2470.12
 20
29.7690
 30
0.000000
  70
    32
  0
VERTEX
  8
0
  5
30D
 10
2469.94
 20
29.8526
 30
0.000000
  70
    32
  0
VERTEX
  8
0
  5
30E
 10
2469.76
 20
29.9339
 30
0.000000
  70
    32
  0
VERTEX
  8
0
  5
30F
 10
2469.57
 20
30.0129
 30
0.000000
  70
    32
  0
VERTEX
  8
0
  5
310
 10
2469.38
 20
30.0895
 30
0.000000
  70
    32
  0
VERTEX
  8
0
  5
311
 10
2469.18
 20
30.1638
 30
0.000000
  70
    32
  0
VERTEX
  8
0
  5
312
 10
2468.99
 20
30.2357
 30
0.000000
  70
    32
  0
VERTEX
  8
0
  5
313
 10
2468.78
 20
30.3052
 30
0.000000
  70
    32
  0
VERTEX
  8
0
  5
314
 10
2468.58
 20
30.3721
 30
0.000000
  70
    32
  0
VERTEX
  8
0
  5
315
 10
2468.37
 20
30.4365
 30
0.000000
  70
    32
  0
VERTEX
  8
0
  5
316
 10
2468.16
 20
30.4982
 30
0.000000
  70
    32
  0
VERTEX
  8
0
  5
317
 10
2467.94
 20
30.5574
 30
0.000000
  70
    32
  0
VERTEX
  8
0
  5
318
 10
2467.72
 20
30.6139
 30
0.000000
  70
    32
  0
VERTEX
  8
0
  5
319
 10
2467.50
 20
30.6678
 30
0.000000
  70
    32
  0
VERTEX
  8
0
  5
31A
 10
2467.28
 20
30.7189
 30
0.000000
  70
    32
  0
VERTEX
  8
0
  5
31B
 10
2467.05
 20
30.7672
 30
0.000000
  70
    32
  0
VERTEX
  8
0
  5
31C
 10
2466.83
 20
30.8128
 30
0.000000
  70
    32
  0
VERTEX
  8
0
  5
31D
 10
2466.60
 20
30.8555
 30
0.000000
  70
    32
  0
VERTEX
  8
0
  5
31E
 10
2466.36
 20
30.8955
 30
0.000000
  70
    32
  0
VERTEX
  8
0
  5
31F
 10
2466.13
 20
30.9325
 30
0.000000
  70
    32
  0
VERTEX
  8
0
  5
320
 10
2465.89
 20
30.9667
 30
0.000000
  70
    32
  0
VERTEX
  8
0
  5
321
 10
2465.66
 20
30.9980
 30
0.000000
  70
    32
  0
VERTEX
  8
0
  5
322
 10
2465.42
 20
31.0263
 30
0.000000
  70
    32
  0
VERTEX
  8
0
  5
323
 10
2465.18
 20
31.0517
 30
0.000000
  70
    32
  0
VERTEX
  8
0
  5
324
 10
2464.94
 20
31.0742
 30
0.000000
  70
    32
  0
VERTEX
  8
0
  5
325
 10
2464.69
 20
31.0937
 30
0.000000
  70
    32
  0
VERTEX
  8
0
  5
326
 10
2464.45
 20
31.1102
 30
0.000000
  70
    32
  0
VERTEX
  8
0
  5
327
 10
2464.21
 20
31.1237
 30
0.000000
  70
    32
  0
VERTEX
  8
0
  5
328
 10
2463.96
 20
31.1343
 30
0.000000
  70
    32
  0
VERTEX
  8
0
  5
329
 10
2463.72
 20
31.1418
 30
0.000000
  70
    32
  0
VERTEX
  8
0
  5
32A
 10
2463.47
 20
31.1463
 30
0.000000
  70
    32
  0
VERTEX
  8
0
  5
32B
 10
2463.23
 20
31.1478
 30
0.000000
  70
    32
  0
SEQEND
  8
0
  5
32C
  0
LINE
  5
1F1
  8
0
 10
2463.2269681883049
 20
8.6478114554311105
 30
0.0
 11
2473.2269681883049
 21
8.6478114554311123
 31
0.0
  0
POLYLINE
  5
1F2
  8
0
 10
2463.2269681883049
 20
15.980087134264979
 30
0.0
 66
     1
 70
     8
  0
VERTEX
  8
0
  5
32D
 10
2463.23
 20
15.9801
 30
0.000000
  70
    32
  0
VERTEX
  8
0
  5
32E
 10
2463.35
 20
15.9795
 30
0.000000
  70
    32
  0
VERTEX
  8
0
  5
32F
 10
2463.47
 20
15.9779
 30
0.000000
  70
    32
  0
VERTEX
  8
0
  5
330
 10
2463.60
 20
15.9751
 30
0.000000
  70
    32
  0
VERTEX
  8
0
  5
331
 10
2463.72
 20
15.9713
 30
0.000000
  70
    32
  0
VERTEX
  8
0
  5
332
 10
2463.84
 20
15.9663
 30
0.000000
  70
    32
  0
VERTEX
  8
0
  5
333
 10
2463.96
 20
15.9602
 30
0.000000
  70
    32
  0
VERTEX
  8
0
  5
334
 10
2464.08
 20
15.9531
 30
0.000000
  70
    32
  0
VERTEX
  8
0
  5
335
 10
2464.21
 20
15.9448
 30
0.000000
  70
    32
  0
VERTEX
  8
0
  5
336
 10
2464.33
 20
15.9354
 30
0.000000
  70
    32
  0
VERTEX
  8
0
  5
337
 10
2464.45
 20
15.9249
 30
0.000000
  70
    32
  0
VERTEX
  8
0
  5
338
 10
2464.57
 20
15.9134
 30
0.000000
  70
    32
  0
VERTEX
  8
0
  5
339
 10
2464.69
 20
15.9007
 30
0.000000
  70
    32
  0
VERTEX
  8
0
  5
33A
 10
2464.82
 20
15.8870
 30
0.000000
  70
    32
  0
VERTEX
  8
0
  5
33B
 10
2464.94
 20
15.8721
 30
0.000000
  70
    32
  0
VERTEX
  8
0
  5
33C
 10
2465.06
 20
15.8562
 30
0.000000
  70
    32
  0
VERTEX
  8
0
  5
33D
 10
2465.18
 20
15.8392
 30
0.000000
  70
    32
  0
VERTEX
  8
0
  5
33E
 10
2465.30
 20
15.8211
 30
0.000000
  70
    32
  0
VERTEX
  8
0
  5
33F
 10
2465.42
 20
15.8019
 30
0.000000
  70
    32
  0
VERTEX
  8
0
  5
340
 10
2465.54
 20
15.7817
 30
0.000000
  70
    32
  0
VERTEX
  8
0
  5
341
 10
2465.66
 20
15.7603
 30
0.000000
  70
    32
  0
VERTEX
  8
0
  5
342
 10
2465.78
 20
15.7379
 30
0.000000
  70
    32
  0
VERTEX
  8
0
  5
343
 10
2465.89
 20
15.7145
 30
0.000000
  70
    32
  0
VERTEX
  8
0
  5
344
 10
2466.01
 20
15.6900
 30
0.000000
  70
    32
  0
VERTEX
  8
0
  5
345
 10
2466.13
 20
15.6644
 30
0.000000
  70
    32
  0
VERTEX
  8
0
  5
346
 10
2466.25
 20
15.6377
 30
0.000000
  70
    32
  0
VERTEX
  8
0
  5
347
 10
2466.36
 20
15.6100
 30
0.000000
  70
    32
  0
VERTEX
  8
0
  5
348
 10
2466.48
 20
15.5813
 30
0.000000
  70
    32
  0
VERTEX
  8
0
  5
349
 10
2466.60
 20
15.5515
 30
0.000000
  70
    32
  0
VERTEX
  8
0
  5
34A
 10
2466.71
 20
15.5206
 30
0.000000
  70
    32
  0
VERTEX
  8
0
  5
34B
 10
2466.83
 20
15.4888
 30
0.000000
  70
    32
  0
VERTEX
  8
0
  5
34C
 10
2466.94
 20
15.4559
 30
0.000000
  70
    32
  0
VERTEX
  8
0
  5
34D
 10
2467.05
 20
15.4220
 30
0.000000
  70
    32
  0
VERTEX
  8
0
  5
34E
 10
2467.17
 20
15.3870
 30
0.000000
  70
    32
  0
VERTEX
  8
0
  5
34F
 10
2467.28
 20
15.3510
 30
0.000000
  70
    32
  0
VERTEX
  8
0
  5
350
 10
2467.39
 20
15.3141
 30
0.000000
  70
    32
  0
VERTEX
  8
0
  5
351
 10
2467.50
 20
15.2761
 30
0.000000
  70
    32
  0
VERTEX
  8
0
  5
352
 10
2467.61
 20
15.2371
 30
0.000000
  70
    32
  0
VERTEX
  8
0
  5
353
 10
2467.72
 20
15.1972
 30
0.000000
  70
    32
  0
VERTEX
  8
0
  5
354
 10
2467.83
 20
15.1562
 30
0.000000
  70
    32
  0
VERTEX
  8
0
  5
355
 10
2467.94
 20
15.1143
 30
0.000000
  70
    32
  0
VERTEX
  8
0
  5
356
 10
2468.05
 20
15.0714
 30
0.000000
  70
    32
  0
VERTEX
  8
0
  5
357
 10
2468.16
 20
15.0275
 30
0.000000
  70
    32
  0
VERTEX
  8
0
  5
358
 10
2468.26
 20
14.9827
 30
0.000000
  70
    32
  0
VERTEX
  8
0
  5
359
 10
2468.37
 20
14.9369
 30
0.000000
  70
    32
  0
VERTEX
  8
0
  5
35A
 10
2468.47
 20
14.8902
 30
0.000000
  70
    32
  0
VERTEX
  8
0
  5
35B
 10
2468.58
 20
14.8425
 30
0.000000
  70
    32
  0
VERTEX
  8
0
  5
35C
 10
2468.68
 20
14.7939
 30
0.000000
  70
    32
  0
VERTEX
  8
0
  5
35D
 10
2468.78
 20
14.7444
 30
0.000000
  70
    32
  0
VERTEX
  8
0
  5
35E
 10
2468.88
 20
14.6939
 30
0.000000
  70
    32
  0
VERTEX
  8
0
  5
35F
 10
2468.99
 20
14.6426
 30
0.000000
  70
    32
  0
VERTEX
  8
0
  5
360
 10
2469.08
 20
14.5903
 30
0.000000
  70
    32
  0
VERTEX
  8
0
  5
361
 10
2469.18
 20
14.5372
 30
0.000000
  70
    32
  0
VERTEX
  8
0
  5
362
 10
2469.28
 20
14.4831
 30
0.000000
  70
    32
  0
VERTEX
  8
0
  5
363
 10
2469.38
 20
14.4282
 30
0.000000
  70
    32
  0
VERTEX
  8
0
  5
364
 10
2469.48
 20
14.3724
 30
0.000000
  70
    32
  0
VERTEX
  8
0
  5
365
 10
2469.57
 20
14.3157
 30
0.000000
  70
    32
  0
VERTEX
  8
0
  5
366
 10
2469.67
 20
14.2582
 30
0.000000
  70
    32
  0
VERTEX
  8
0
  5
367
 10
2469.76
 20
14.1999
 30
0.000000
  70
    32
  0
VERTEX
  8
0
  5
368
 10
2469.85
 20
14.1407
 30
0.000000
  70
    32
  0
VERTEX
  8
0
  5
369
 10
2469.94
 20
14.0807
 30
0.000000
  70
    32
  0
VERTEX
  8
0
  5
36A
 10
2470.03
 20
14.0198
 30
0.000000
  70
    32
  0
VERTEX
  8
0
  5
36B
 10
2470.12
 20
13.9582
 30
0.000000
  70
    32
  0
VERTEX
  8
0
  5
36C
 10
2470.21
 20
13.8957
 30
0.000000
  70
    32
  0
VERTEX
  8
0
  5
36D
 10
2470.30
 20
13.8325
 30
0.000000
  70
    32
  0
VERTEX
  8
0
  5
36E
 10
2470.38
 20
13.7685
 30
0.000000
  70
    32
  0
VERTEX
  8
0
  5
36F
 10
2470.47
 20
13.7037
 30
0.000000
  70
    32
  0
VERTEX
  8
0
  5
370
 10
2470.55
 20
13.6382
 30
0.000000
  70
    32
  0
VERTEX
  8
0
  5
371
 10
2470.64
 20
13.5719
 30
0.000000
  70
    32
  0
VERTEX
  8
0
  5
372
 10
2470.72
 20
13.5048
 30
0.000000
  70
    32
  0
VERTEX
  8
0
  5
373
 10
2470.80
 20
13.4371
 30
0.000000
  70
    32
  0
VERTEX
  8
0
  5
374
 10
2470.88
 20
13.3686
 30
0.000000
  70
    32
  0
VERTEX
  8
0
  5
375
 10
2470.96
 20
13.2994
 30
0.000000
  70
    32
  0
VERTEX
  8
0
  5
376
 10
2471.03
 20
13.2295
 30
0.000000
  70
    32
  0
VERTEX
  8
0
  5
377
 10
2471.11
 20
13.1589
 30
0.000000
  70
    32
  0
VERTEX
  8
0
  5
378
 10
2471.19
 20
13.0876
 30
0.000000
  70
    32
  0
VERTEX
  8
0
  5
379
 10
2471.26
 20
13.0156
 30
0.000000
  70
    32
  0
VERTEX
  8
0
  5
37A
 10
2471.33
 20
12.9430
 30
0.000000
  70
    32
  0
VERTEX
  8
0
  5
37B
 10
2471.40
 20
12.8698
 30
0.000000
  70
    32
  0
VERTEX
  8
0
  5
37C
 10
2471.47
 20
12.7959
 30
0.000000
  70
    32
  0
VERTEX
  8
0
  5
37D
 10
2471.54
 20
12.7214
 30
0.000000
  70
    32
  0
VERTEX
  8
0
  5
37E
 10
2471.61
 20
12.6463
 30
0.000000
  70
    32
  0
VERTEX
  8
0
  5
37F
 10
2471.68
 20
12.5706
 30
0.000000
  70
    32
  0
VERTEX
  8
0
  5
380
 10
2471.74
 20
12.4942
 30
0.000000
  70
    32
  0
VERTEX
  8
0
  5
381
 10
2471.80
 20
12.4174
 30
0.000000
  70
    32
  0
VERTEX
  8
0
  5
382
 10
2471.87
 20
12.3399
 30
0.000000
  70
    32
  0
VERTEX
  8
0
  5
383
 10
2471.93
 20
12.2619
 30
0.000000
  70
    32
  0
VERTEX
  8
0
  5
384
 10
2471.99
 20
12.1833
 30
0.000000
  70
    32
  0
VERTEX
  8
0
  5
385
 10
2472.05
 20
12.1042
 30
0.000000
  70
    32
  0
VERTEX
  8
0
  5
386
 10
2472.10
 20
12.0246
 30
0.000000
  70
    32
  0
VERTEX
  8
0
  5
387
 10
2472.16
 20
11.9445
 30
0.000000
  70
    32
  0
VERTEX
  8
0
  5
388
 10
2472.21
 20
11.8639
 30
0.000000
  70
    32
  0
VERTEX
  8
0
  5
389
 10
2472.27
 20
11.7828
 30
0.000000
  70
    32
  0
VERTEX
  8
0
  5
38A
 10
2472.32
 20
11.7012
 30
0.000000
  70
    32
  0
VERTEX
  8
0
  5
38B
 10
2472.37
 20
11.6192
 30
0.000000
  70
    32
  0
VERTEX
  8
0
  5
38C
 10
2472.42
 20
11.5367
 30
0.000000
  70
    32
  0
VERTEX
  8
0
  5
38D
 10
2472.47
 20
11.4538
 30
0.000000
  70
    32
  0
VERTEX
  8
0
  5
38E
 10
2472.51
 20
11.3704
 30
0.000000
  70
    32
  0
VERTEX
  8
0
  5
38F
 10
2472.56
 20
11.2867
 30
0.000000
  70
    32
  0
VERTEX
  8
0
  5
390
 10
2472.60
 20
11.2025
 30
0.000000
  70
    32
  0
VERTEX
  8
0
  5
391
 10
2472.64
 20
11.1180
 30
0.000000
  70
    32
  0
VERTEX
  8
0
  5
392
 10
2472.68
 20
11.0331
 30
0.000000
  70
    32
  0
VERTEX
  8
0
  5
393
 10
2472.72
 20
10.9478
 30
0.000000
  70
    32
  0
VERTEX
  8
0
  5
394
 10
2472.76
 20
10.8622
 30
0.000000
  70
    32
  0
VERTEX
  8
0
  5
395
 10
2472.80
 20
10.7763
 30
0.000000
  70
    32
  0
VERTEX
  8
0
  5
396
 10
2472.83
 20
10.6900
 30
0.000000
  70
    32
  0
VERTEX
  8
0
  5
397
 10
2472.86
 20
10.6034
 30
0.000000
  70
    32
  0
VERTEX
  8
0
  5
398
 10
2472.90
 20
10.5166
 30
0.000000
  70
    32
  0
VERTEX
  8
0
  5
399
 10
2472.93
 20
10.4294
 30
0.000000
  70
    32
  0
VERTEX
  8
0
  5
39A
 10
2472.96
 20
10.3420
 30
0.000000
  70
    32
  0
VERTEX
  8
0
  5
39B
 10
2472.98
 20
10.2543
 30
0.000000
  70
    32
  0
VERTEX
  8
0
  5
39C
 10
2473.01
 20
10.1664
 30
0.000000
  70
    32
  0
VERTEX
  8
0
  5
39D
 10
2473.03
 20
10.0783
 30
0.000000
  70
    32
  0
VERTEX
  8
0
  5
39E
 10
2473.06
 20
9.98991
 30
0.000000
  70
    32
  0
VERTEX
  8
0
  5
39F
 10
2473.08
 20
9.90135
 30
0.000000
  70
    32
  0
VERTEX
  8
0
  5
3A0
 10
2473.10
 20
9.81260
 30
0.000000
  70
    32
  0
VERTEX
  8
0
  5
3A1
 10
2473.12
 20
9.72368
 30
0.000000
  70
    32
  0
VERTEX
  8
0
  5
3A2
 10
2473.14
 20
9.63459
 30
0.000000
  70
    32
  0
VERTEX
  8
0
  5
3A3
 10
2473.15
 20
9.54536
 30
0.000000
  70
    32
  0
VERTEX
  8
0
  5
3A4
 10
2473.17
 20
9.45599
 30
0.000000
  70
    32
  0
VERTEX
  8
0
  5
3A5
 10
2473.18
 20
9.36650
 30
0.000000
  70
    32
  0
VERTEX
  8
0
  5
3A6
 10
2473.19
 20
9.27690
 30
0.000000
  70
    32
  0
VERTEX
  8
0
  5
3A7
 10
2473.20
 20
9.18721
 30
0.000000
  70
    32
  0
VERTEX
  8
0
  5
3A8
 10
2473.21
 20
9.09743
 30
0.000000
  70
    32
  0
VERTEX
  8
0
  5
3A9
 10
2473.21
 20
9.00759
 30
0.000000
  70
    32
  0
VERTEX
  8
0
  5
3AA
 10
2473.22
 20
8.91769
 30
0.000000
  70
    32
  0
VERTEX
  8
0
  5
3AB
 10
2473.22
 20
8.82775
 30
0.000000
  70
    32
  0
VERTEX
  8
0
  5
3AC
 10
2473.23
 20
8.73779
 30
0.000000
  70
    32
  0
VERTEX
  8
0
  5
3AD
 10
2473.23
 20
8.64781
 30
0.000000
  70
    32
  0
SEQEND
  8
0
  5
3AE
  0
POLYLINE
  5
1F3
  8
0
 10
2473.2269681883049
 20
5.6478114554311203
 30
0.0
 66
     1
 70
     8
  0
VERTEX
  8
0
  5
3AF
 10
2473.23
 20
5.64781
 30
0.000000
  70
    32
  0
VERTEX
  8
0
  5
3B0
 10
2473.23
 20
5.55783
 30
0.000000
  70
    32
  0
VERTEX
  8
0
  5
3B1
 10
2473.22
 20
5.46787
 30
0.000000
  70
    32
  0
VERTEX
  8
0
  5
3B2
 10
2473.22
 20
5.37793
 30
0.000000
  70
    32
  0
VERTEX
  8
0
  5
3B3
 10
2473.21
 20
5.28803
 30
0.000000
  70
    32
  0
VERTEX
  8
0
  5
3B4
 10
2473.21
 20
5.19819
 30
0.000000
  70
    32
  0
VERTEX
  8
0
  5
3B5
 10
2473.20
 20
5.10842
 30
0.000000
  70
    32
  0
VERTEX
  8
0
  5
3B6
 10
2473.19
 20
5.01872
 30
0.000000
  70
    32
  0
VERTEX
  8
0
  5
3B7
 10
2473.18
 20
4.92912
 30
0.000000
  70
    32
  0
VERTEX
  8
0
  5
3B8
 10
2473.17
 20
4.83963
 30
0.000000
  70
    32
  0
VERTEX
  8
0
  5
3B9
 10
2473.15
 20
4.75026
 30
0.000000
  70
    32
  0
VERTEX
  8
0
  5
3BA
 10
2473.14
 20
4.66103
 30
0.000000
  70
    32
  0
VERTEX
  8
0
  5
3BB
 10
2473.12
 20
4.57194
 30
0.000000
  70
    32
  0
VERTEX
  8
0
  5
3BC
 10
2473.10
 20
4.48302
 30
0.000000
  70
    32
  0
VERTEX
  8
0
  5
3BD
 10
2473.08
 20
4.39427
 30
0.000000
  70
    32
  0
VERTEX
  8
0
  5
3BE
 10
2473.06
 20
4.30571
 30
0.000000
  70
    32
  0
VERTEX
  8
0
  5
3BF
 10
2473.03
 20
4.21736
 30
0.000000
  70
    32
  0
VERTEX
  8
0
  5
3C0
 10
2473.01
 20
4.12921
 30
0.000000
  70
    32
  0
VERTEX
  8
0
  5
3C1
 10
2472.98
 20
4.04130
 30
0.000000
  70
    32
  0
VERTEX
  8
0
  5
3C2
 10
2472.96
 20
3.95363
 30
0.000000
  70
    32
  0
VERTEX
  8
0
  5
3C3
 10
2472.93
 20
3.86621
 30
0.000000
  70
    32
  0
VERTEX
  8
0
  5
3C4
 10
2472.90
 20
3.77907
 30
0.000000
  70
    32
  0
VERTEX
  8
0
  5
3C5
 10
2472.86
 20
3.69220
 30
0.000000
  70
    32
  0
VERTEX
  8
0
  5
3C6
 10
2472.83
 20
3.60563
 30
0.000000
  70
    32
  0
VERTEX
  8
0
  5
3C7
 10
2472.80
 20
3.51936
 30
0.000000
  70
    32
  0
VERTEX
  8
0
  5
3C8
 10
2472.76
 20
3.43342
 30
0.000000
  70
    32
  0
VERTEX
  8
0
  5
3C9
 10
2472.72
 20
3.34781
 30
0.000000
  70
    32
  0
VERTEX
  8
0
  5
3CA
 10
2472.68
 20
3.26255
 30
0.000000
  70
    32
  0
VERTEX
  8
0
  5
3CB
 10
2472.64
 20
3.17764
 30
0.000000
  70
    32
  0
VERTEX
  8
0
  5
3CC
 10
2472.60
 20
3.09311
 30
0.000000
  70
    32
  0
VERTEX
  8
0
  5
3CD
 10
2472.56
 20
3.00896
 30
0.000000
  70
    32
  0
VERTEX
  8
0
  5
3CE
 10
2472.51
 20
2.92521
 30
0.000000
  70
    32
  0
VERTEX
  8
0
  5
3CF
 10
2472.47
 20
2.84187
 30
0.000000
  70
    32
  0
VERTEX
  8
0
  5
3D0
 10
2472.42
 20
2.75895
 30
0.000000
  70
    32
  0
VERTEX
  8
0
  5
3D1
 10
2472.37
 20
2.67647
 30
0.000000
  70
    32
  0
VERTEX
  8
0
  5
3D2
 10
2472.32
 20
2.59444
 30
0.000000
  70
    32
  0
VERTEX
  8
0
  5
3D3
 10
2472.27
 20
2.51286
 30
0.000000
  70
    32
  0
VERTEX
  8
0
  5
3D4
 10
2472.21
 20
2.43176
 30
0.000000
  70
    32
  0
VERTEX
  8
0
  5
3D5
 10
2472.16
 20
2.35114
 30
0.000000
  70
    32
  0
VERTEX
  8
0
  5
3D6
 10
2472.10
 20
2.27101
 30
0.000000
  70
    32
  0
VERTEX
  8
0
  5
3D7
 10
2472.05
 20
2.19140
 30
0.000000
  70
    32
  0
VERTEX
  8
0
  5
3D8
 10
2471.99
 20
2.11231
 30
0.000000
  70
    32
  0
VERTEX
  8
0
  5
3D9
 10
2471.93
 20
2.03375
 30
0.000000
  70
    32
  0
VERTEX
  8
0
  5
3DA
 10
2471.87
 20
1.95573
 30
0.000000
  70
    32
  0
VERTEX
  8
0
  5
3DB
 10
2471.80
 20
1.87827
 30
0.000000
  70
    32
  0
VERTEX
  8
0
  5
3DC
 10
2471.74
 20
1.80138
 30
0.000000
  70
    32
  0
VERTEX
  8
0
  5
3DD
 10
2471.68
 20
1.72506
 30
0.000000
  70
    32
  0
VERTEX
  8
0
  5
3DE
 10
2471.61
 20
1.64934
 30
0.000000
  70
    32
  0
VERTEX
  8
0
  5
3DF
 10
2471.54
 20
1.57422
 30
0.000000
  70
    32
  0
VERTEX
  8
0
  5
3E0
 10
2471.47
 20
1.49971
 30
0.000000
  70
    32
  0
VERTEX
  8
0
  5
3E1
 10
2471.40
 20
1.42583
 30
0.000000
  70
    32
  0
VERTEX
  8
0
  5
3E2
 10
2471.33
 20
1.35258
 30
0.000000
  70
    32
  0
VERTEX
  8
0
  5
3E3
 10
2471.26
 20
1.27998
 30
0.000000
  70
    32
  0
VERTEX
  8
0
  5
3E4
 10
2471.19
 20
1.20804
 30
0.000000
  70
    32
  0
VERTEX
  8
0
  5
3E5
 10
2471.11
 20
1.13676
 30
0.000000
  70
    32
  0
VERTEX
  8
0
  5
3E6
 10
2471.03
 20
1.06617
 30
0.000000
  70
    32
  0
VERTEX
  8
0
  5
3E7
 10
2470.96
 20
0.996265
 30
0.000000
  70
    32
  0
VERTEX
  8
0
  5
3E8
 10
2470.88
 20
0.927061
 30
0.000000
  70
    32
  0
VERTEX
  8
0
  5
3E9
 10
2470.80
 20
0.858568
 30
0.000000
  70
    32
  0
VERTEX
  8
0
  5
3EA
 10
2470.72
 20
0.790796
 30
0.000000
  70
    32
  0
VERTEX
  8
0
  5
3EB
 10
2470.64
 20
0.723756
 30
0.000000
  70
    32
  0
VERTEX
  8
0
  5
3EC
 10
2470.55
 20
0.657457
 30
0.000000
  70
    32
  0
VERTEX
  8
0
  5
3ED
 10
2470.47
 20
0.591910
 30
0.000000
  70
    32
  0
VERTEX
  8
0
  5
3EE
 10
2470.38
 20
0.527124
 30
0.000000
  70
    32
  0
VERTEX
  8
0
  5
3EF
 10
2470.30
 20
0.463110
 30
0.000000
  70
    32
  0
VERTEX
  8
0
  5
3F0
 10
2470.21
 20
0.399876
 30
0.000000
  70
    32
  0
VERTEX
  8
0
  5
3F1
 10
2470.12
 20
0.337432
 30
0.000000
  70
    32
  0
VERTEX
  8
0
  5
3F2
 10
2470.03
 20
0.275788
 30
0.000000
  70
    32
  0
VERTEX
  8
0
  5
3F3
 10
2469.94
 20
0.214954
 30
0.000000
  70
    32
  0
VERTEX
  8
0
  5
3F4
 10
2469.85
 20
0.154937
 30
0.000000
  70
    32
  0
VERTEX
  8
0
  5
3F5
 10
2469.76
 20
0.0957474
 30
0.000000
  70
    32
  0
VERTEX
  8
0
  5
3F6
 10
2469.67
 20
0.0373941
 30
0.000000
  70
    32
  0
VERTEX
  8
0
  5
3F7
 10
2469.57
 20
-0.0201143
 30
0.000000
  70
    32
  0
VERTEX
  8
0
  5
3F8
 10
2469.48
 20
-0.0767691
 30
0.000000
  70
    32
  0
VERTEX
  8
0
  5
3F9
 10
2469.38
 20
-0.132562
 30
0.000000
  70
    32
  0
VERTEX
  8
0
  5
3FA
 10
2469.28
 20
-0.187484
 30
0.000000
  70
    32
  0
VERTEX
  8
0
  5
3FB
 10
2469.18
 20
-0.241528
 30
0.000000
  70
    32
  0
VERTEX
  8
0
  5
3FC
 10
2469.08
 20
-0.294684
 30
0.000000
  70
    32
  0
VERTEX
  8
0
  5
3FD
 10
2468.99
 20
-0.346946
 30
0.000000
  70
    32
  0
VERTEX
  8
0
  5
3FE
 10
2468.88
 20
-0.398305
 30
0.000000
  70
    32
  0
VERTEX
  8
0
  5
3FF
 10
2468.78
 20
-0.448753
 30
0.000000
  70
    32
  0
VERTEX
  8
0
  5
400
 10
2468.68
 20
-0.498283
 30
0.000000
  70
    32
  0
VERTEX
  8
0
  5
401
 10
2468.58
 20
-0.546888
 30
0.000000
  70
    32
  0
VERTEX
  8
0
  5
402
 10
2468.47
 20
-0.594560
 30
0.000000
  70
    32
  0
VERTEX
  8
0
  5
403
 10
2468.37
 20
-0.641291
 30
0.000000
  70
    32
  0
VERTEX
  8
0
  5
404
 10
2468.26
 20
-0.687076
 30
0.000000
  70
    32
  0
VERTEX
  8
0
  5
405
 10
2468.16
 20
-0.731906
 30
0.000000
  70
    32
  0
VERTEX
  8
0
  5
406
 10
2468.05
 20
-0.775776
 30
0.000000
  70
    32
  0
VERTEX
  8
0
  5
407
 10
2467.94
 20
-0.818678
 30
0.000000
  70
    32
  0
VERTEX
  8
0
  5
408
 10
2467.83
 20
-0.860607
 30
0.000000
  70
    32
  0
VERTEX
  8
0
  5
409
 10
2467.72
 20
-0.901555
 30
0.000000
  70
    32
  0
VERTEX
  8
0
  5
40A
 10
2467.61
 20
-0.941517
 30
0.000000
  70
    32
  0
VERTEX
  8
0
  5
40B
 10
2467.50
 20
-0.980487
 30
0.000000
  70
    32
  0
VERTEX
  8
0
  5
40C
 10
2467.39
 20
-1.01846
 30
0.000000
  70
    32
  0
VERTEX
  8
0
  5
40D
 10
2467.28
 20
-1.05543
 30
0.000000
  70
    32
  0
VERTEX
  8
0
  5
40E
 10
2467.17
 20
-1.09138
 30
0.000000
  70
    32
  0
VERTEX
  8
0
  5
40F
 10
2467.05
 20
-1.12633
 30
0.000000
  70
    32
  0
VERTEX
  8
0
  5
410
 10
2466.94
 20
-1.16025
 30
0.000000
  70
    32
  0
VERTEX
  8
0
  5
411
 10
2466.83
 20
-1.19315
 30
0.000000
  70
    32
  0
VERTEX
  8
0
  5
412
 10
2466.71
 20
-1.22502
 30
0.000000
  70
    32
  0
VERTEX
  8
0
  5
413
 10
2466.60
 20
-1.25585
 30
0.000000
  70
    32
  0
VERTEX
  8
0
  5
414
 10
2466.48
 20
-1.28564
 30
0.000000
  70
    32
  0
VERTEX
  8
0
  5
415
 10
2466.36
 20
-1.31439
 30
0.000000
  70
    32
  0
VERTEX
  8
0
  5
416
 10
2466.25
 20
-1.34209
 30
0.000000
  70
    32
  0
VERTEX
  8
0
  5
417
 10
2466.13
 20
-1.36874
 30
0.000000
  70
    32
  0
VERTEX
  8
0
  5
418
 10
2466.01
 20
-1.39433
 30
0.000000
  70
    32
  0
VERTEX
  8
0
  5
419
 10
2465.89
 20
-1.41886
 30
0.000000
  70
    32
  0
VERTEX
  8
0
  5
41A
 10
2465.78
 20
-1.44233
 30
0.000000
  70
    32
  0
VERTEX
  8
0
  5
41B
 10
2465.66
 20
-1.46473
 30
0.000000
  70
    32
  0
VERTEX
  8
0
  5
41C
 10
2465.54
 20
-1.48605
 30
0.000000
  70
    32
  0
VERTEX
  8
0
  5
41D
 10
2465.42
 20
-1.50631
 30
0.000000
  70
    32
  0
VERTEX
  8
0
  5
41E
 10
2465.30
 20
-1.52548
 30
0.000000
  70
    32
  0
VERTEX
  8
0
  5
41F
 10
2465.18
 20
-1.54358
 30
0.000000
  70
    32
  0
VERTEX
  8
0
  5
420
 10
2465.06
 20
-1.56059
 30
0.000000
  70
    32
  0
VERTEX
  8
0
  5
421
 10
2464.94
 20
-1.57652
 30
0.000000
  70
    32
  0
VERTEX
  8
0
  5
422
 10
2464.82
 20
-1.59135
 30
0.000000
  70
    32
  0
VERTEX
  8
0
  5
423
 10
2464.69
 20
-1.60510
 30
0.000000
  70
    32
  0
VERTEX
  8
0
  5
424
 10
2464.57
 20
-1.61776
 30
0.000000
  70
    32
  0
VERTEX
  8
0
  5
425
 10
2464.45
 20
-1.62932
 30
0.000000
  70
    32
  0
VERTEX
  8
0
  5
426
 10
2464.33
 20
-1.63979
 30
0.000000
  70
    32
  0
VERTEX
  8
0
  5
427
 10
2464.21
 20
-1.64916
 30
0.000000
  70
    32
  0
VERTEX
  8
0
  5
428
 10
2464.08
 20
-1.65743
 30
0.000000
  70
    32
  0
VERTEX
  8
0
  5
429
 10
2463.96
 20
-1.66460
 30
0.000000
  70
    32
  0
VERTEX
  8
0
  5
42A
 10
2463.84
 20
-1.67067
 30
0.000000
  70
    32
  0
VERTEX
  8
0
  5
42B
 10
2463.72
 20
-1.67563
 30
0.000000
  70
    32
  0
VERTEX
  8
0
  5
42C
 10
2463.60
 20
-1.67950
 30
0.000000
  70
    32
  0
VERTEX
  8
0
  5
42D
 10
2463.47
 20
-1.68226
 30
0.000000
  70
    32
  0
VERTEX
  8
0
  5
42E
 10
2463.35
 20
-1.68391
 30
0.000000
  70
    32
  0
VERTEX
  8
0
  5
42F
 10
2463.23
 20
-1.68446
 30
0.000000
  70
    32
  0
SEQEND
  8
0
  5
430
  0
LINE
  5
1F6
  8
0
 10
2463.2269681883049
 20
21.147811455431111
 30
0.0
 11
2463.2269681883049
 21
15.98008713426497
 31
0.0
  0
LINE
  5
1F7
  8
0
 10
2463.2269681883049
 20
8.6478114554311105
 30
0.0
 11
2463.2269681883049
 21
5.6478114554311096
 31
0.0
  0
LINE
  5
1F8
  8
0
 10
2463.2269681883049
 20
5.6478114554311096
 30
0.0
 11
2473.2269681883049
 21
5.6478114554311096
 31
0.0
  0
LINE
  5
212
  8
0
 10
2463.2269681883049
 20
-1.6844642234027549
 30
0.0
 11
2463.2269681883049
 21
-6.684464223402756
 31
0.0
  0
LINE
  5
216
  8
0
 10
2463.2269681883049
 20
-6.684464223402756
 30
0.0
 11
2468.2269681883049
 21
-6.684464223402756
 31
0.0
  0
LINE
  5
217
  8
0
 10
2468.2269681883049
 20
-6.684464223402756
 30
0.0
 11
2468.2269681883049
 21
-8.184464223402756
 31
0.0
  0
LINE
  5
21A
  8
0
 10
2468.2269681883049
 20
-11.684464223402751
 30
0.0
 11
2473.2269681883049
 21
-11.684464223402751
 31
0.0
  0
LINE
  5
21B
  8
0
 10
2473.2269681883049
 20
-11.684464223402751
 30
0.0
 11
2473.2269681883049
 21
-12.684464223402751
 31
0.0
  0
LINE
  5
21C
  8
0
 10
2473.2269681883049
 20
-16.684464223402749
 30
0.0
 11
2463.2269681883049
 21
-16.684464223402749
 31
0.0
  0
LINE
  5
21D
  8
0
 10
2463.2269681883049
 20
-16.684464223402749
 30
0.0
 11
2463.2269681883049
 21
-26.68446422340276
 31
0.0
  0
ARC
  5
228
  8
0
 10
2468.2269681883049
 20
-9.184464223402756
 30
0.0
 40
1.0
 50
90.0
 51
270.0
  0
ARC
  5
229
  8
0
 10
2473.2269681883049
 20
-14.184464223402751
 30
0.0
 40
1.5
 50
90.0
 51
270.0
  0
LINE
  5
22D
  8
0
 10
2468.2269681883049
 20
-10.184464223402751
 30
0.0
 11
2468.2269681883049
 21
-11.684464223402751
 31
0.0
  0
LINE
  5
22E
  8
0
 10
2473.2269681883049
 20
-16.684464223402749
 30
0.0
 11
2473.2269681883049
 21
-15.684464223402751
 31
0.0
  0
LINE
  5
297
  8
0
 10
2463.2269681883049
 20
-26.68446422340276
 30
0.0
 11
2453.226968188304
 21
-26.68446422340276
 31
0.0
  0
LINE
  5
298
  8
0
 10
2453.226968188304
 20
-26.68446422340276
 30
0.0
 11
2453.226968188304
 21
41.147811455431103
 31
0.0
  0
LINE
  5
299
  8
0
 10
2453.226968188304
 20
41.147811455431103
 30
0.0
 11
2463.2269681883049
 21
41.147811455431111
 31
0.0
  0
ENDSEC
  0
EOF
